  0
SECTION
  2
HEADER
  9
$ACADVER
  1
AC1009
  9
$INSBASE
 10
4280.6140904215098999
 20
293.4097663369810221
 30
0.0
  9
$EXTMIN
 10
4273.0508714611405594
 20
263.0705663369810168
 30
0.0
  9
$EXTMAX
 10
4288.1773093818783309
 20
293.4148675411217937
 30
0.0
  9
$LIMMIN
 10
0.0
 20
0.0
  9
$LIMMAX
 10
11.6929133858000007
 20
8.2677165353999982
  9
$ORTHOMODE
 70
     1
  9
$REGENMODE
 70
     1
  9
$FILLMODE
 70
     1
  9
$QTEXTMODE
 70
     0
  9
$MIRRTEXT
 70
     0
  9
$DRAGMODE
 70
     2
  9
$LTSCALE
 40
0.6431102362
  9
$OSMODE
 70
  4095
  9
$ATTMODE
 70
     1
  9
$TEXTSIZE
 40
0.2
  9
$TRACEWID
 40
0.05
  9
$TEXTSTYLE
  7
STANDARD
  9
$CLAYER
  8
0
  9
$CELTYPE
  6
BYLAYER
  9
$CECOLOR
 62
   256
  9
$DIMSCALE
 40
1.0
  9
$DIMASZ
 40
0.1875
  9
$DIMEXO
 40
0.0625
  9
$DIMDLI
 40
0.4443307087
  9
$DIMRND
 40
0.0
  9
$DIMDLE
 40
0.0
  9
$DIMEXE
 40
0.125
  9
$DIMTP
 40
0.01
  9
$DIMTM
 40
0.01
  9
$DIMTXT
 40
2.0
  9
$DIMCEN
 40
0.1052362205
  9
$DIMTSZ
 40
0.0
  9
$DIMTOL
 70
     1
  9
$DIMLIM
 70
     0
  9
$DIMTIH
 70
     1
  9
$DIMTOH
 70
     1
  9
$DIMSE1
 70
     0
  9
$DIMSE2
 70
     0
  9
$DIMTAD
 70
     0
  9
$DIMZIN
 70
     0
  9
$DIMBLK
  1

  9
$DIMASO
 70
     1
  9
$DIMSHO
 70
     1
  9
$DIMPOST
  1
\X
  9
$DIMAPOST
  1

  9
$DIMALT
 70
     1
  9
$DIMALTD
 70
     2
  9
$DIMALTF
 40
25.3999999999999986
  9
$DIMLFAC
 40
1.0
  9
$DIMTOFL
 70
     0
  9
$DIMTVP
 40
0.0
  9
$DIMTIX
 70
     0
  9
$DIMSOXD
 70
     0
  9
$DIMSAH
 70
     0
  9
$DIMBLK1
  1

  9
$DIMBLK2
  1

  9
$DIMSTYLE
  2
STANDARD
  9
$DIMCLRD
 70
     0
  9
$DIMCLRE
 70
     0
  9
$DIMCLRT
 70
     0
  9
$DIMTFAC
 40
1.0
  9
$DIMGAP
 40
0.09
  9
$LUNITS
 70
     2
  9
$LUPREC
 70
     4
  9
$SKETCHINC
 40
0.1
  9
$FILLETRAD
 40
0.0
  9
$AUNITS
 70
     0
  9
$AUPREC
 70
     0
  9
$MENU
  1
.
  9
$ELEVATION
 40
0.0
  9
$PELEVATION
 40
0.0
  9
$THICKNESS
 40
0.0
  9
$LIMCHECK
 70
     0
  9
$BLIPMODE
 70
     0
  9
$CHAMFERA
 40
0.0
  9
$CHAMFERB
 40
0.0
  9
$SKPOLY
 70
     0
  9
$TDCREATE
 40
2458060.468368056230247
  9
$TDUPDATE
 40
2458993.7098495368845761
  9
$TDINDWG
 40
0.3065695602
  9
$TDUSRTIMER
 40
0.3065695602
  9
$USRTIMER
 70
     1
  9
$ANGBASE
 50
0.0
  9
$ANGDIR
 70
     0
  9
$PDMODE
 70
     0
  9
$PDSIZE
 40
0.3125
  9
$PLINEWID
 40
0.0
  9
$COORDS
 70
     1
  9
$SPLFRAME
 70
     0
  9
$SPLINETYPE
 70
     6
  9
$SPLINESEGS
 70
     8
  9
$ATTDIA
 70
     1
  9
$ATTREQ
 70
     1
  9
$HANDLING
 70
     1
  9
$HANDSEED
  5
7064
  9
$SURFTAB1
 70
     6
  9
$SURFTAB2
 70
     6
  9
$SURFTYPE
 70
     6
  9
$SURFU
 70
     6
  9
$SURFV
 70
     6
  9
$UCSNAME
  2

  9
$UCSORG
 10
0.0
 20
0.0
 30
0.0
  9
$UCSXDIR
 10
1.0
 20
0.0
 30
0.0
  9
$UCSYDIR
 10
0.0
 20
1.0
 30
0.0
  9
$PUCSNAME
  2

  9
$PUCSORG
 10
0.0
 20
0.0
 30
0.0
  9
$PUCSXDIR
 10
1.0
 20
0.0
 30
0.0
  9
$PUCSYDIR
 10
0.0
 20
1.0
 30
0.0
  9
$USERI1
 70
     0
  9
$USERI2
 70
     0
  9
$USERI3
 70
     0
  9
$USERI4
 70
     0
  9
$USERI5
 70
     0
  9
$USERR1
 40
0.0
  9
$USERR2
 40
0.0
  9
$USERR3
 40
0.0
  9
$USERR4
 40
0.0
  9
$USERR5
 40
0.0
  9
$WORLDVIEW
 70
     1
  9
$SHADEDGE
 70
     3
  9
$SHADEDIF
 70
    70
  9
$TILEMODE
 70
     1
  9
$MAXACTVP
 70
    64
  9
$PLIMCHECK
 70
     0
  9
$PEXTMIN
 10
1.0000000000000000E+20
 20
1.0000000000000000E+20
 30
1.0000000000000000E+20
  9
$PEXTMAX
 10
-1.0000000000000000E+20
 20
-1.0000000000000000E+20
 30
-1.0000000000000000E+20
  9
$PLIMMIN
 10
0.0
 20
0.0
  9
$PLIMMAX
 10
12.0
 20
9.0
  9
$UNITMODE
 70
     0
  9
$VISRETAIN
 70
     1
  9
$PLINEGEN
 70
     0
  9
$PSLTSCALE
 70
     1
  0
ENDSEC
  0
SECTION
  2
TABLES
  0
TABLE
  2
VPORT
 70
     1
  0
VPORT
  2
*ACTIVE
 70
     0
 10
0.0
 20
0.0
 11
1.0
 21
1.0
 12
0.0
 22
0.0
 13
0.0
 23
0.0
 14
1.0
 24
1.0
 15
0.0
 25
0.0
 16
0.0
 26
0.0
 36
126.9164977898097959
 17
4280.614013671875
 27
278.2427120908733968
 37
0.0
 40
33.947936124401771
 41
2.9513274336283182
 42
50.0
 43
0.0
 44
0.0
 50
0.0
 51
0.0
 71
     0
 72
   100
 73
     1
 74
     1
 75
     0
 76
     0
 77
     0
 78
     0
  0
ENDTAB
  0
TABLE
  2
LTYPE
 70
     2
  0
LTYPE
  2
CONTINUOUS
 70
     0
  3
Solid line
 72
    65
 73
     0
 40
0.0
  0
LTYPE
  2
PHANTOM2
 70
     0
  3
___ _ _ ___ _ _ ___ _ _ ___ _ _
 72
    65
 73
     6
 40
1.25
 49
0.625
 49
-0.125
 49
0.125
 49
-0.125
 49
0.125
 49
-0.125
  0
ENDTAB
  0
TABLE
  2
LAYER
 70
     2
  0
LAYER
  2
0
 70
     0
 62
   255
  6
CONTINUOUS
  0
LAYER
  2
DEFPOINTS
 70
     0
 62
     7
  6
CONTINUOUS
  0
ENDTAB
  0
TABLE
  2
STYLE
 70
     1
  0
STYLE
  2
STANDARD
 70
     0
 40
0.0
 41
0.8
 50
0.0
 71
     0
 42
0.2
  3
txt
  4

  0
ENDTAB
  0
TABLE
  2
VIEW
 70
     0
  0
ENDTAB
  0
TABLE
  2
UCS
 70
     0
  0
ENDTAB
  0
TABLE
  2
APPID
 70
     9
  0
APPID
  2
ACAD
 70
     0
  0
APPID
  2
ACAD_MLEADERVER
 70
     0
  0
APPID
  2
ACAD_EXEMPT_FROM_CAD_STANDARDS
 70
     0
  0
APPID
  2
ACAD_NAV_VCDISPLAY
 70
     0
  0
APPID
  2
ACAECLAYERSTANDARD
 70
     0
  0
APPID
  2
ACCMTRANSPARENCY
 70
     0
  0
APPID
  2
ACAD_DSTYLE_DIMJAG
 70
     0
  0
APPID
  2
ACAD_DSTYLE_DIMTALN
 70
     0
  0
APPID
  2
ACDBATTR
 70
     0
  0
ENDTAB
  0
TABLE
  2
DIMSTYLE
 70
     1
  0
DIMSTYLE
  2
STANDARD
 70
     0
  3

  4

  5

  6

  7

 40
1.0
 41
0.1875
 42
0.0625
 43
0.38
 44
0.125
 45
0.0
 46
0.0
 47
0.01
 48
0.01
140
0.15625
141
0.09
142
0.0
143
25.3999999999999986
144
1.0
145
0.0
146
1.0
147
0.09
 71
     1
 72
     0
 73
     1
 74
     1
 75
     0
 76
     0
 77
     0
 78
     4
170
     0
171
     2
172
     0
173
     0
174
     0
175
     0
176
     0
177
     0
178
     0
  0
ENDTAB
  0
ENDSEC
  0
SECTION
  2
BLOCKS
  0
BLOCK
  8
0
  2
$MODEL_SPACE
 70
     0
 10
0.0
 20
0.0
 30
0.0
  3
$MODEL_SPACE
  1

  0
ENDBLK
  5
21
  8
0
  0
BLOCK
 67
     1
  8
0
  2
$PAPER_SPACE
 70
     0
 10
0.0
 20
0.0
 30
0.0
  3
$PAPER_SPACE
  1

  0
ENDBLK
  5
1D
 67
     1
  8
0
  0
ENDSEC
  0
SECTION
  2
ENTITIES
  0
ATTDEF
  5
3930
  8
DEFPOINTS
 10
4280.6104895993203172
 20
293.4138675411217037
 30
0.0
 40
0.001
  1
402322-RA
  3

  2
MODELNUMBER
 70
     0
1001
ACDBATTR
1070
     0
1070
     1
  0
ATTDEF
  5
3931
  8
DEFPOINTS
 10
4280.6104895993203172
 20
293.4122008744550953
 30
0.0
 40
0.001
  1
WINDHAM
  3

  2
TRADENAME
 70
     0
1001
ACDBATTR
1070
     0
1070
     1
  0
ATTDEF
  5
3932
  8
DEFPOINTS
 10
4280.6104895993203172
 20
293.4105342077883734
 30
0.0
 40
0.001
  1
TOILET
  3

  2
PRODUCT
 70
     0
1001
ACDBATTR
1070
     0
1070
     1
  0
LINE
  5
6EE6
  8
0
 10
4274.5570313201587851
 20
292.4697663369810243
 30
0.0
 11
4280.6140904215098999
 21
292.4697663369810243
 31
0.0
  0
ARC
  5
6EE7
  8
0
 10
4280.6855012262503806
 20
319.3915564936361875
 30
0.0
 40
35.1162638906923306
 50
261.7528497950034989
 51
269.8835301496480952
  0
ARC
  5
6EE8
  8
0
 10
4306.6391362872600439
 20
288.6144968291810073
 30
0.0
 40
33.4618369466999965
 50
174.9899555206993114
 51
180.6230111217996068
  0
ARC
  5
6EE9
  8
0
 10
4284.9673971922547935
 20
273.3633565969157075
 30
0.0
 40
11.9193435710220896
 50
150.4945150593655114
 51
178.7541143743706016
  0
ARC
  5
6EEA
  8
0
 10
4244.5689918097859845
 20
293.6558294905756838
 30
0.0
 40
33.30903664981075
 50
334.3432343432889979
 51
337.5996333951428028
  0
ARC
  5
6EEB
  8
0
 10
4274.6926297644085935
 20
290.6966440410154178
 30
0.0
 40
1.778299641380203
 50
94.3731477799406946
 51
125.8499731869096934
  0
ARC
  5
6EEC
  8
0
 10
4274.1659457145678971
 20
291.4416297587645772
 30
0.0
 40
0.8660397454830757
 50
126.4723011410691953
 51
173.6954838603859059
  0
ARC
  5
6EED
  8
0
 10
4278.7493484589012951
 20
288.5740068405270904
 30
0.0
 40
5.5794487027447177
 50
183.3224011906843032
 51
215.8051735906007025
  0
ARC
  5
6EEE
  8
0
 10
4276.1917491794183661
 20
287.6366903732691185
 30
0.0
 40
3.0470964870578241
 50
229.7846581102211019
 51
259.726438011649293
  0
ARC
  5
6EEF
  8
0
 10
4261.7333035653564366
 20
286.5944600319916731
 30
0.0
 40
14.7489668441525303
 50
337.5515855838413017
 51
352.0137117163827156
  0
ARC
  5
6EF0
  8
0
 10
4315.8923012441518949
 20
280.0876554330587282
 30
0.0
 40
40.5370951669781192
 50
173.5446284736156883
 51
178.7633206109275932
  0
ARC
  5
6EF1
  8
0
 10
4296.7478866191831912
 20
275.808375616321598
 30
0.0
 40
23.7976152633861204
 50
185.2701531867259916
 51
196.8977073320236002
  0
ARC
  5
6EF2
  8
0
 10
4283.632793779424901
 20
272.2395793140173055
 30
0.0
 40
10.2191721865636005
 50
199.1262005305758009
 51
232.0916014029398013
  0
ARC
  5
6EF3
  8
0
 10
4280.6328475185428033
 20
268.482697759054588
 30
0.0
 40
5.4121639256849612
 50
232.7131294689999095
 51
269.801427920128674
  0
LINE
  5
6EF4
  8
0
 10
4277.1303478111221921
 20
281.4642719287809882
 30
0.0
 11
4277.1245556096228029
 21
281.5552427576810146
 31
0.0
  0
LINE
  5
6EF5
  8
0
 10
4276.6341174963235972
 20
281.421598650709484
 30
0.0
 11
4276.6341174963235972
 21
281.5020887011809805
 31
0.0
  0
LINE
  5
6EF6
  8
0
 10
4277.1141174962231162
 20
281.3167551329809726
 30
0.0
 11
4277.1141174963231606
 21
281.2332286974810245
 31
0.0
  0
LINE
  5
6EF7
  8
0
 10
4277.4341174963228696
 20
281.6051779427809834
 30
0.0
 11
4277.4341174963228696
 21
281.6000388177810123
 31
0.0
  0
LINE
  5
6EF8
  8
0
 10
4277.1548964100229568
 20
281.5685594003809911
 30
0.0
 11
4277.1643301204230738
 21
282.6495555338810277
 31
0.0
  0
LINE
  5
6EF9
  8
0
 10
4277.1607583881159371
 20
281.4622976341530034
 30
0.0
 11
4277.1683108990237088
 21
281.5685593257809956
 31
0.0
  0
LINE
  5
6EFA
  8
0
 10
4278.4341174963228696
 20
281.6000388177810123
 30
0.0
 11
4278.4341174963228696
 21
281.6051779427809834
 31
0.0
  0
LINE
  5
6EFB
  8
0
 10
4278.7133385826227823
 20
281.5685594003809911
 30
0.0
 11
4278.7039048723227097
 21
282.6495555338810277
 31
0.0
  0
LINE
  5
6EFC
  8
0
 10
4275.6132233796242872
 20
280.4220622494809732
 30
0.0
 11
4275.6565004424228391
 21
280.4220622494809732
 31
0.0
  0
LINE
  5
6EFD
  8
0
 10
4277.2841174963232334
 20
281.063228697381021
 30
0.0
 11
4280.6140904215098999
 21
281.063228697381021
 31
0.0
  0
LINE
  5
6EFE
  8
0
 10
4277.159965132556863
 20
281.3623986363575114
 30
0.0
 11
4277.1312522444977731
 21
281.3628433112971834
 31
0.0
  0
LINE
  5
6EFF
  8
0
 10
4276.6772039209226932
 20
281.4170929660809861
 30
0.0
 11
4277.0144884869232556
 21
281.4170929651809843
 31
0.0
  0
LINE
  5
6F00
  8
0
 10
4276.5733005454230806
 20
281.5522135988809964
 30
0.0
 11
4276.3317179676232627
 21
281.5522135988809964
 31
0.0
  0
LINE
  5
6F01
  8
0
 10
4277.0745575633227418
 20
281.561376563380918
 30
0.0
 11
4276.6941267594220335
 21
281.561376563380918
 31
0.0
  0
LINE
  5
6F02
  8
0
 10
4277.2304292656235702
 20
281.5685589800809794
 30
0.0
 11
4277.1548964100229568
 21
281.5685594003809911
 31
0.0
  0
LINE
  5
6F03
  8
0
 10
4278.6378057270230784
 20
281.5685589800809794
 30
0.0
 11
4278.7133385826227823
 21
281.5685594003809911
 31
0.0
  0
LINE
  5
6F04
  8
0
 10
4278.382648428822904
 20
281.5718526248809894
 30
0.0
 11
4277.4855867120231778
 21
281.5718526241809059
 31
0.0
  0
LINE
  5
6F05
  8
0
 10
4277.4341174963228696
 20
281.6000388177810123
 30
0.0
 11
4278.4341174963228696
 21
281.6000388177810123
 31
0.0
  0
LINE
  5
6F06
  8
0
 10
4278.7128577660232622
 20
281.6236555236810091
 30
0.0
 11
4280.6140904215098999
 21
281.6236555236810091
 31
0.0
  0
ARC
  5
6F07
  8
0
 10
4240.9145104145236473
 20
302.684488064680977
 30
0.0
 40
41.1682821939999997
 50
328.0742092291986864
 51
328.9963091399994823
  0
ARC
  5
6F08
  8
0
 10
4277.2948322103220562
 20
281.2439434113405241
 30
0.0
 40
0.1810320770955374
 50
183.3931381478184051
 51
266.6068616401985878
  0
ARC
  5
6F09
  8
0
 10
4278.119860758150935
 20
282.603656721047912
 30
0.0
 40
0.585844884179235
 50
4.4935206399361389
 51
48.0932295763751512
  0
ARC
  5
6F0A
  8
0
 10
4277.7824642000450694
 20
282.5868133148617858
 30
0.0
 40
0.6213101692693441
 50
133.209070607753489
 51
174.2041791130438071
  0
ARC
  5
6F0B
  8
0
 10
4278.219117496322724
 20
281.6912286973810069
 30
0.0
 40
0.125
 50
287.2521954762086125
 51
313.1539116444798196
  0
ARC
  5
6F0C
  8
0
 10
4277.6491174963230151
 20
281.6912286973810069
 30
0.0
 40
0.125
 50
226.846088355520294
 51
252.7478053003821969
  0
LINE
  5
6F0D
  8
0
 10
4276.6122040569225646
 20
281.4251244698809842
 30
0.0
 11
4276.6054019412231355
 21
281.5222148253810133
 31
0.0
  0
LINE
  5
6F0E
  8
0
 10
4277.659599521823111
 20
283.1425230636809829
 30
0.0
 11
4278.208635273696018
 21
283.1425230636809829
 31
0.0
  0
ARC
  5
6F0F
  8
0
 10
4278.1897045868272471
 20
282.5905438989844924
 30
0.0
 40
0.5523036928758746
 50
54.4069766836137703
 51
88.0357528517695584
  0
ARC
  5
6F10
  8
0
 10
4277.6772286491495834
 20
282.5943724970607036
 30
0.0
 40
0.5484339794510182
 50
91.8420605895779545
 51
125.715232579495094
  0
ARC
  5
6F11
  8
0
 10
4277.2274823993511745
 20
281.6049907639505818
 30
0.0
 40
0.0365507714932021
 50
274.6244292447304929
 51
347.6358919396154192
  0
ARC
  5
6F12
  8
0
 10
4277.2849829848173613
 20
281.5717575425592827
 30
0.0
 40
0.0334759750459906
 50
93.3019474896515817
 51
130.627617481412301
  0
LINE
  5
6F13
  8
0
 10
4277.2830548369229291
 20
281.6051779427809834
 30
0.0
 11
4278.5851803756359004
 21
281.6051779427809834
 31
0.0
  0
ARC
  5
6F14
  8
0
 10
4278.5841482012792767
 20
281.5740412351498207
 30
0.0
 40
0.0311538110992899
 50
47.5483472573309527
 51
88.1013539849561482
  0
ARC
  5
6F15
  8
0
 10
4278.6398968395924385
 20
281.6038894503507208
 30
0.0
 40
0.035392299745272
 50
191.17865256728399
 51
266.6127732904395771
  0
ARC
  5
6F16
  8
0
 10
4277.4904773747648505
 20
281.6724165904785195
 30
0.0
 40
0.100682819991611
 50
221.8995280611410976
 51
267.2157648459145776
  0
ARC
  5
6F17
  8
0
 10
4277.3685158958041939
 20
284.0210577901200963
 30
0.0
 40
2.452001535317629
 50
267.0821831645362749
 51
272.7366274624980065
  0
ARC
  5
6F18
  8
0
 10
4278.3826151532002768
 20
281.6622046279160259
 30
0.0
 40
0.0903520133625079
 50
270.0211013863349763
 51
320.8641542145351195
  0
ARC
  5
6F19
  8
0
 10
4278.5063666836313132
 20
284.3032601543512214
 30
0.0
 40
2.734207983789652
 50
267.4065780743728737
 51
272.4933646656518818
  0
ARC
  5
6F1A
  8
0
 10
4276.9996183509938419
 20
281.3026963643039267
 30
0.0
 40
0.115359018870465
 50
7.0000204121922831
 51
82.5937883393879559
  0
ARC
  5
6F1B
  8
0
 10
4276.5685233967678869
 20
281.5149265360730055
 30
0.0
 40
0.0375918369080123
 50
11.1792788317880607
 51
82.6991447049609008
  0
ARC
  5
6F1C
  8
0
 10
4276.7005307523031661
 20
281.494880996188499
 30
0.0
 40
0.0668032303189831
 50
95.5010227743626245
 51
173.8060397722366019
  0
ARC
  5
6F1D
  8
0
 10
4276.7172004584926981
 20
282.007830802641422
 30
0.0
 40
0.5920902925751168
 50
259.7856204043279718
 51
266.1266393385686797
  0
LINE
  5
6F1E
  8
0
 10
4277.1330365985268145
 20
281.1627350808478241
 30
0.0
 11
4277.1303478111221921
 21
281.4642719287809882
 31
0.0
  0
ARC
  5
6F1F
  8
0
 10
4277.0554723150771679
 20
281.1989687309089163
 30
0.0
 40
0.3629100215449023
 50
79.0262472287322737
 51
86.9854542970974904
  0
LINE
  5
6F20
  8
0
 10
4277.1580825704277231
 20
281.1253173226145918
 30
0.0
 11
4277.1607583881159371
 21
281.4622976341530034
 31
0.0
  0
ARC
  5
6F21
  8
0
 10
4276.3511868266368765
 20
281.3646922923264242
 30
0.0
 40
0.1885292468325292
 50
95.9273330382810343
 51
142.6834577987823991
  0
ARC
  5
6F22
  8
0
 10
4276.8752229941346741
 20
280.2152465131142094
 30
0.0
 40
1.2361461915413141
 50
145.5870247082411026
 51
170.368729105622009
  0
ARC
  5
6F23
  8
0
 10
4275.6242402445823245
 20
280.3030658495225111
 30
0.0
 40
0.1195052907474101
 50
95.2894509324024739
 51
137.7110507226952905
  0
ARC
  5
6F24
  8
0
 10
4284.0707266237523072
 20
274.5568259927317172
 30
0.0
 40
10.3341299956151502
 50
145.6791924482762113
 51
150.7889397466277046
  0
ARC
  5
6F25
  8
0
 10
4284.736477920841935
 20
274.1814778495980249
 30
0.0
 40
11.0983970857575596
 50
150.7749547302869075
 51
160.1404686711954071
  0
ARC
  5
6F26
  8
0
 10
4287.8311687098803304
 20
273.5121301992458029
 30
0.0
 40
14.2426754648188307
 50
161.8374373512050965
 51
178.563971035464192
  0
ARC
  5
6F27
  8
0
 10
4274.6972844619740499
 20
280.3902243249665958
 30
0.0
 40
0.9597442110189058
 50
344.7837613778099808
 51
1.901041364831582
  0
ARC
  5
6F28
  8
0
 10
4274.1861694308008737
 20
280.6453459110014137
 30
0.0
 40
1.5240236664373961
 50
328.5257200955729786
 51
340.5682224611131232
  0
ARC
  5
6F29
  8
0
 10
4284.8941281886345678
 20
274.1163366667037167
 30
0.0
 40
11.0174440179800897
 50
148.6420425632350089
 51
159.036581801804914
  0
ARC
  5
6F2A
  8
0
 10
4285.3644515542800946
 20
273.9684576937565907
 30
0.0
 40
11.5095827210686998
 50
159.1868094859823088
 51
173.8104143694027925
  0
ARC
  5
6F2B
  8
0
 10
4286.8683472714428717
 20
273.8292784820030192
 30
0.0
 40
13.01973942737831
 50
173.9150633099889092
 51
179.8249197911910073
  0
ARC
  5
6F2C
  8
0
 10
4269.6948560380769777
 20
276.9323826281080869
 30
0.0
 40
7.9375516861882671
 50
33.3049933874668369
 51
34.9454448215426368
  0
ARC
  5
6F2D
  8
0
 10
4271.5021454218413055
 20
280.4043823392792092
 30
0.0
 40
4.9073269002773072
 50
355.2588832128967056
 51
10.4072291758163704
  0
ARC
  5
6F2E
  8
0
 10
4262.9814575538221106
 20
280.8668442936403267
 30
0.0
 40
13.4392880299826096
 50
342.0874289756105213
 51
356.2965720125127973
  0
ARC
  5
6F2F
  8
0
 10
4289.2107158074613835
 20
272.268931648441594
 30
0.0
 40
14.1634366130157598
 50
161.6265259280029056
 51
177.7201218166524086
  0
ARC
  5
6F30
  8
0
 10
4288.1572321751191339
 20
274.2495436704130043
 30
0.0
 40
14.5692347486439697
 50
181.4964687935539018
 51
208.095363631354104
  0
ARC
  5
6F31
  8
0
 10
4284.8309309143423889
 20
272.849035038990678
 30
0.0
 40
10.9803224546264104
 50
209.8228509046867032
 51
229.1595384004498897
  0
ARC
  5
6F32
  8
0
 10
4280.6405059862154303
 20
268.3593502029689262
 30
0.0
 40
4.8490327178515251
 50
231.9272482999602971
 51
251.0922199814517057
  0
ARC
  5
6F33
  8
0
 10
4280.6657253048088023
 20
268.481382696071023
 30
0.0
 40
4.9726774597618411
 50
251.2729517188502086
 51
269.4050460582841993
  0
ARC
  5
6F34
  8
0
 10
4285.9795960446599565
 20
273.9373171906348148
 30
0.0
 40
12.1311194272346103
 50
180.322368231130497
 51
195.1702422588035972
  0
ARC
  5
6F35
  8
0
 10
4288.1787040790313768
 20
274.5589370565675722
 30
0.0
 40
14.4162853316943007
 50
195.267526892692814
 51
210.0236186491316062
  0
ARC
  5
6F36
  8
0
 10
4284.4920163771739681
 20
272.1703372022660119
 30
0.0
 40
10.0316163408702401
 50
208.7473548314040102
 51
228.073222694631113
  0
ARC
  5
6F37
  8
0
 10
4280.8103965615300694
 20
268.3042533283954754
 30
0.0
 40
4.6978533695573486
 50
229.9747280477577078
 51
267.6051212719747809
  0
ARC
  5
6F38
  8
0
 10
4286.0482390998276969
 20
272.8027145643267772
 30
0.0
 40
10.9897885180726398
 50
179.8454125583770065
 51
206.7481365486891036
  0
ARC
  5
6F39
  8
0
 10
4284.2520945273836332
 20
271.5679418060342982
 30
0.0
 40
8.8350110159962156
 50
204.839519112923
 51
227.392095951597895
  0
ARC
  5
6F3A
  8
0
 10
4280.6492827020965706
 20
267.7024088463422231
 30
0.0
 40
3.551112423451523
 50
227.9536531472986951
 51
269.4321773248926206
  0
LINE
  5
6F3B
  8
0
 10
4286.6711495228591957
 20
292.4697663369810243
 30
0.0
 11
4280.6140904215098999
 21
292.4697663369810243
 31
0.0
  0
ARC
  5
6F3C
  8
0
 10
4280.5426796167676002
 20
319.3915564936361875
 30
0.0
 40
35.1162638906923306
 50
270.1164698503517911
 51
278.2471502049965011
  0
ARC
  5
6F3D
  8
0
 10
4254.5890445557597559
 20
288.6144968291810073
 30
0.0
 40
33.4618369466999965
 50
359.3769888782002795
 51
5.0100444793007339
  0
ARC
  5
6F3E
  8
0
 10
4276.2607836507650063
 20
273.3633565969157075
 30
0.0
 40
11.9193435710220896
 50
1.245885625632599
 51
29.5054849406344992
  0
ARC
  5
6F3F
  8
0
 10
4316.6591890332329058
 20
293.6558294905756838
 30
0.0
 40
33.30903664981075
 50
202.400366604857112
 51
205.6567656567110021
  0
ARC
  5
6F40
  8
0
 10
4286.5355510786102968
 20
290.6966440410154178
 30
0.0
 40
1.778299641380203
 50
54.1500268130902498
 51
85.6268522200593054
  0
ARC
  5
6F41
  8
0
 10
4287.0622351284509932
 20
291.4416297587645772
 30
0.0
 40
0.8660397454830757
 50
6.3045161396140479
 51
53.5276988589307265
  0
ARC
  5
6F42
  8
0
 10
4282.4788323841166857
 20
288.5740068405270904
 30
0.0
 40
5.5794487027447177
 50
324.1948264093992975
 51
356.6775988093124283
  0
ARC
  5
6F43
  8
0
 10
4285.0364316636014337
 20
287.6366903732691185
 30
0.0
 40
3.0470964870578241
 50
280.2735619883505933
 51
310.2153418897788129
  0
ARC
  5
6F44
  8
0
 10
4299.4948772776624537
 20
286.5944600319916731
 30
0.0
 40
14.7489668441525303
 50
187.9862882836173128
 51
202.4484144161586983
  0
ARC
  5
6F45
  8
0
 10
4245.3358795988679049
 20
280.0876554330587282
 30
0.0
 40
40.5370951669781192
 50
1.2366793890723089
 51
5.9046553827107511
  0
ARC
  5
6F46
  8
0
 10
4264.4802942238356991
 20
275.808375616321598
 30
0.0
 40
23.7976152633861204
 50
343.1022926679764282
 51
354.7298468132740936
  0
ARC
  5
6F47
  8
0
 10
4277.5953870635948988
 20
272.2395793140173055
 30
0.0
 40
10.2191721865636005
 50
307.9083985970602271
 51
340.8737994694241138
  0
ARC
  5
6F48
  8
0
 10
4280.5953333244769965
 20
268.482697759054588
 30
0.0
 40
5.4121639256849621
 50
270.198572079871326
 51
307.2868705310002042
  0
LINE
  5
6F49
  8
0
 10
4284.0978330318948792
 20
281.4642719287809882
 30
0.0
 11
4284.1036252333960874
 21
281.5552427576810146
 31
0.0
  0
LINE
  5
6F4A
  8
0
 10
4284.5940633466962026
 20
281.421598650709484
 30
0.0
 11
4284.5940633466962026
 21
281.5020887011809805
 31
0.0
  0
LINE
  5
6F4B
  8
0
 10
4284.1140633467957741
 20
281.3167551329809726
 30
0.0
 11
4284.1140633466966392
 21
281.2332286974810245
 31
0.0
  0
LINE
  5
6F4C
  8
0
 10
4283.7940633466960207
 20
281.6051779427809834
 30
0.0
 11
4283.7940633466960207
 21
281.6000388177810123
 31
0.0
  0
LINE
  5
6F4D
  8
0
 10
4284.0732844329959335
 20
281.5685594003809911
 30
0.0
 11
4284.0638507225958165
 21
282.6495555338810277
 31
0.0
  0
LINE
  5
6F4E
  8
0
 10
4284.0674224549038627
 20
281.4622976341530034
 30
0.0
 11
4284.059869943996091
 21
281.5685593257809956
 31
0.0
  0
LINE
  5
6F4F
  8
0
 10
4282.7940633466951112
 20
281.6000388177810123
 30
0.0
 11
4282.7940633466951112
 21
281.6051779427809834
 31
0.0
  0
LINE
  5
6F50
  8
0
 10
4282.514842260396108
 20
281.5685594003809911
 30
0.0
 11
4282.5242759706961806
 21
282.6495555338810277
 31
0.0
  0
LINE
  5
6F51
  8
0
 10
4285.6149574633973316
 20
280.4220622494809732
 30
0.0
 11
4285.5716804005960512
 21
280.4220622494809732
 31
0.0
  0
LINE
  5
6F52
  8
0
 10
4283.9440633466956569
 20
281.063228697381021
 30
0.0
 11
4280.6140904215098999
 21
281.063228697381021
 31
0.0
  0
LINE
  5
6F53
  8
0
 10
4284.0682157104620273
 20
281.3623986363575114
 30
0.0
 11
4284.0969285985211172
 21
281.3628433112971834
 31
0.0
  0
LINE
  5
6F54
  8
0
 10
4284.5509769220961971
 20
281.4170929660809861
 30
0.0
 11
4284.2136923560956348
 21
281.4170929651809843
 31
0.0
  0
LINE
  5
6F55
  8
0
 10
4284.6548802975958097
 20
281.5522135988809964
 30
0.0
 11
4284.8964628753974466
 21
281.5522135988809964
 31
0.0
  0
LINE
  5
6F56
  8
0
 10
4284.1536232796961485
 20
281.561376563380918
 30
0.0
 11
4284.5340540835959473
 21
281.561376563380918
 31
0.0
  0
LINE
  5
6F57
  8
0
 10
4283.9977515773962295
 20
281.5685589800809794
 30
0.0
 11
4284.0732844329959335
 21
281.5685594003809911
 31
0.0
  0
LINE
  5
6F58
  8
0
 10
4282.5903751159949024
 20
281.5685589800809794
 30
0.0
 11
4282.514842260396108
 21
281.5685594003809911
 31
0.0
  0
LINE
  5
6F59
  8
0
 10
4282.8455324141959863
 20
281.5718526248809894
 30
0.0
 11
4283.7425941309957125
 21
281.5718526241809059
 31
0.0
  0
LINE
  5
6F5A
  8
0
 10
4283.7940633466960207
 20
281.6000388177810123
 30
0.0
 11
4282.7940633466951112
 21
281.6000388177810123
 31
0.0
  0
LINE
  5
6F5B
  8
0
 10
4282.5153230769956281
 20
281.6236555236810091
 30
0.0
 11
4280.6140904215098999
 21
281.6236555236810091
 31
0.0
  0
ARC
  5
6F5C
  8
0
 10
4320.3136704284961525
 20
302.684488064680977
 30
0.0
 40
41.1682821939999997
 50
211.0036908600004892
 51
211.9257907708013136
  0
ARC
  5
6F5D
  8
0
 10
4283.9333486326968341
 20
281.2439434113405241
 30
0.0
 40
0.1810320770955374
 50
273.3931383598011848
 51
356.6068618521815097
  0
ARC
  5
6F5E
  8
0
 10
4283.1083200848688648
 20
282.603656721047912
 30
0.0
 40
0.585844884179235
 50
131.9067704236248062
 51
175.5064793600637927
  0
ARC
  5
6F5F
  8
0
 10
4283.4457166429747303
 20
282.5868133148617858
 30
0.0
 40
0.6213101692693441
 50
5.795820886956192
 51
46.7909293922464897
  0
ARC
  5
6F60
  8
0
 10
4283.0090633466952568
 20
281.6912286973810069
 30
0.0
 40
0.125
 50
226.846088355520294
 51
252.7478045237913875
  0
ARC
  5
6F61
  8
0
 10
4283.5790633466949657
 20
281.6912286973810069
 30
0.0
 40
0.125
 50
287.2521946996178031
 51
313.1539116444798196
  0
LINE
  5
6F62
  8
0
 10
4284.6159767860963257
 20
281.4251244698809842
 30
0.0
 11
4284.6227789017957548
 21
281.5222148253810133
 31
0.0
  0
LINE
  5
6F63
  8
0
 10
4283.5685813211957793
 20
283.1425230636809829
 30
0.0
 11
4283.0195455693228723
 21
283.1425230636809829
 31
0.0
  0
ARC
  5
6F64
  8
0
 10
4283.0384762561916432
 20
282.5905438989844924
 30
0.0
 40
0.5523036928758746
 50
91.9642471482304273
 51
125.5930233163861942
  0
ARC
  5
6F65
  8
0
 10
4283.5509521938693069
 20
282.5943724970607036
 30
0.0
 40
0.5484339794510182
 50
54.2847674205048421
 51
88.1579394104220313
  0
ARC
  5
6F66
  8
0
 10
4284.0006984436677158
 20
281.6049907639505818
 30
0.0
 40
0.0365507714932021
 50
192.3641080603846092
 51
265.3755707552693934
  0
ARC
  5
6F67
  8
0
 10
4283.9431978582024385
 20
281.5717575425592827
 30
0.0
 40
0.0334759750459906
 50
49.3723825185876706
 51
86.6980525103484183
  0
LINE
  5
6F68
  8
0
 10
4283.9451260060959612
 20
281.6051779427809834
 30
0.0
 11
4282.6430004673820804
 21
281.6051779427809834
 31
0.0
  0
ARC
  5
6F69
  8
0
 10
4282.6440326417396136
 20
281.5740412351498207
 30
0.0
 40
0.0311538110992899
 50
91.8986460150438376
 51
132.4516527426690971
  0
ARC
  5
6F6A
  8
0
 10
4282.5882840034264518
 20
281.6038894503507208
 30
0.0
 40
0.035392299745272
 50
273.3872267095084112
 51
348.8213474327159247
  0
ARC
  5
6F6B
  8
0
 10
4283.7377034682531303
 20
281.6724165904785195
 30
0.0
 40
0.100682819991611
 50
272.7842351540854224
 51
318.1004719388589024
  0
ARC
  5
6F6C
  8
0
 10
4283.8596649472156059
 20
284.0210577901200963
 30
0.0
 40
2.452001535317629
 50
267.2633725375018798
 51
272.9178168354637251
  0
ARC
  5
6F6D
  8
0
 10
4282.845565689817704
 20
281.6622046279160259
 30
0.0
 40
0.0903520133625079
 50
219.1358457854649089
 51
269.97889861366491
  0
ARC
  5
6F6E
  8
0
 10
4282.7218141593903056
 20
284.3032601543512214
 30
0.0
 40
2.734207983789652
 50
267.5066353343481182
 51
272.5934219256270126
  0
ARC
  5
6F6F
  8
0
 10
4284.2285624920250484
 20
281.3026963643039267
 30
0.0
 40
0.115359018870465
 50
97.4062116606120441
 51
172.9999795878077009
  0
ARC
  5
6F70
  8
0
 10
4284.6596574462500939
 20
281.5149265360730055
 30
0.0
 40
0.0375918369080123
 50
97.3008552950391135
 51
168.8207211682118896
  0
ARC
  5
6F71
  8
0
 10
4284.5276500907166337
 20
281.494880996188499
 30
0.0
 40
0.0668032303189831
 50
6.1939602277634069
 51
84.4989772256373755
  0
ARC
  5
6F72
  8
0
 10
4284.5109803845261922
 20
282.007830802641422
 30
0.0
 40
0.5920902925751168
 50
273.8733606614313203
 51
280.2143795956720282
  0
LINE
  5
6F73
  8
0
 10
4284.0951442444911663
 20
281.1627350808478241
 30
0.0
 11
4284.0978330318948792
 21
281.4642719287809882
 31
0.0
  0
ARC
  5
6F74
  8
0
 10
4284.1727085279408129
 20
281.1989687309089163
 30
0.0
 40
0.3629100215449023
 50
93.0145457029025238
 51
100.9737527712676979
  0
LINE
  5
6F75
  8
0
 10
4284.0700982725911672
 20
281.1253173226145918
 30
0.0
 11
4284.0674224549038627
 21
281.4622976341530034
 31
0.0
  0
ARC
  5
6F76
  8
0
 10
4284.8769940163811043
 20
281.3646922923264242
 30
0.0
 40
0.1885292468325292
 50
37.3165422012175796
 51
84.0726669617189657
  0
ARC
  5
6F77
  8
0
 10
4284.3529578488833067
 20
280.2152465131142094
 30
0.0
 40
1.2361461915413141
 50
9.6312708943779377
 51
34.4129752917588903
  0
ARC
  5
6F78
  8
0
 10
4285.6039405984365658
 20
280.3030658495225111
 30
0.0
 40
0.1195052907474101
 50
42.2889492773046669
 51
84.7105490675975261
  0
ARC
  5
6F79
  8
0
 10
4277.1574542192656736
 20
274.5568259927317172
 30
0.0
 40
10.3341299956151502
 50
29.2110602533722314
 51
34.3208075517238171
  0
ARC
  5
6F7A
  8
0
 10
4276.4917029221778648
 20
274.1814778495980249
 30
0.0
 40
11.0983970857575596
 50
19.8595313288046214
 51
29.2250452697130392
  0
ARC
  5
6F7B
  8
0
 10
4273.3970121331385599
 20
273.5121301992458029
 30
0.0
 40
14.2426754648188307
 50
1.436028964535824
 51
18.1625626487949283
  0
ARC
  5
6F7C
  8
0
 10
4286.5308963810439309
 20
280.3902243249665958
 30
0.0
 40
0.9597442110189058
 50
178.0989586351684011
 51
195.2162386221899908
  0
ARC
  5
6F7D
  8
0
 10
4287.0420114122189261
 20
280.6453459110014137
 30
0.0
 40
1.5240236664373961
 50
199.4317775388869052
 51
211.474279904426993
  0
ARC
  5
6F7E
  8
0
 10
4276.3340526543843225
 20
274.1163366667037167
 30
0.0
 40
11.0174440179800897
 50
20.9634181981950505
 51
31.3579574367649592
  0
ARC
  5
6F7F
  8
0
 10
4275.8637292887387957
 20
273.9684576937565907
 30
0.0
 40
11.5095827210686998
 50
6.1895856305971657
 51
20.8131905140176485
  0
ARC
  5
6F80
  8
0
 10
4274.3598335715751091
 20
273.8292784820030192
 30
0.0
 40
13.01973942737831
 50
0.1750802088122482
 51
6.0849366900110384
  0
ARC
  5
6F81
  8
0
 10
4291.5333248049428221
 20
276.9323826281080869
 30
0.0
 40
7.9375516861882671
 50
145.0545551784574059
 51
146.695006612533092
  0
ARC
  5
6F82
  8
0
 10
4289.7260354211775848
 20
280.4043823392792092
 30
0.0
 40
4.9073269002773072
 50
169.5927708241835887
 51
184.7411167871032944
  0
ARC
  5
6F83
  8
0
 10
4298.2467232891976892
 20
280.8668442936403267
 30
0.0
 40
13.4392880299826096
 50
183.703427987487288
 51
197.9125710243895071
  0
ARC
  5
6F84
  8
0
 10
4272.0174650355593258
 20
272.268931648441594
 30
0.0
 40
14.1634366130157598
 50
2.2798781833476052
 51
18.3734740719970588
  0
ARC
  5
6F85
  8
0
 10
4273.0709486679006659
 20
274.2495436704130043
 30
0.0
 40
14.5692347486439697
 50
331.9046363686459244
 51
358.5035312064428012
  0
ARC
  5
6F86
  8
0
 10
4276.3972499286774109
 20
272.849035038990678
 30
0.0
 40
10.9803224546264104
 50
310.8404615995499967
 51
330.1771490953133252
  0
ARC
  5
6F87
  8
0
 10
4280.5876748568043695
 20
268.3593502029689262
 30
0.0
 40
4.8490327178515251
 50
288.9077800185482943
 51
308.0727517000398166
  0
ARC
  5
6F88
  8
0
 10
4280.562455538210088
 20
268.481382696071023
 30
0.0
 40
4.9726774597618411
 50
270.5949539417158007
 51
288.7270482811497914
  0
ARC
  5
6F89
  8
0
 10
4275.2485847983589338
 20
273.9373171906348148
 30
0.0
 40
12.1311194272346103
 50
344.8297577411963744
 51
359.6776317688662061
  0
ARC
  5
6F8A
  8
0
 10
4273.0494767639866041
 20
274.5589370565675722
 30
0.0
 40
14.4162853316943007
 50
329.9763813508682802
 51
344.7324731073072144
  0
ARC
  5
6F8B
  8
0
 10
4276.7361644658449222
 20
272.1703372022660119
 30
0.0
 40
10.0316163408702401
 50
311.926777305368887
 51
331.2526451685959046
  0
ARC
  5
6F8C
  8
0
 10
4280.4177842814906398
 20
268.3042533283954754
 30
0.0
 40
4.6978533695573486
 50
272.3948787280252191
 51
310.0252719522424059
  0
ARC
  5
6F8D
  8
0
 10
4275.1799417431911934
 20
272.8027145643267772
 30
0.0
 40
10.9897885180726398
 50
333.2518634513108964
 51
0.1545874416262284
  0
ARC
  5
6F8E
  8
0
 10
4276.9760863156343476
 20
271.5679418060342982
 30
0.0
 40
8.8350110159962156
 50
312.6079040484020766
 51
335.1604808870769148
  0
ARC
  5
6F8F
  8
0
 10
4280.5788981409223197
 20
267.7024088463422231
 30
0.0
 40
3.551112423451523
 50
270.5678226751074931
 51
312.0463468527012765
  0
LINE
  5
6F91
  8
0
 10
4287.0724513782515714
 20
284.4452921651808879
 30
0.0
 11
4285.2515385863516713
 21
284.2039928179809749
 31
0.0
  0
LINE
  5
6F92
  8
0
 10
4285.012085872022908
 20
284.2298285925809864
 30
0.0
 11
4284.9643051947350614
 21
284.5547768363684895
 31
0.0
  0
LINE
  5
6F93
  8
0
 10
4286.2731374870136278
 20
284.8518343957952084
 30
0.0
 11
4287.0317441538672938
 21
284.9465335690866823
 31
0.0
  0
LINE
  5
6F94
  8
0
 10
4287.0855582739777674
 20
284.4618487418809991
 30
0.0
 11
4287.0317441538672938
 21
284.9465335690866823
 31
0.0
  0
ARC
  5
6F95
  8
0
 10
4287.0604516564417281
 20
284.4682579378292075
 30
0.0
 40
0.0259117740966766
 50
297.5872746316852044
 51
345.6794316367887063
  0
ARC
  5
6F96
  8
0
 10
4284.9723951577943808
 20
286.1301078796500974
 30
0.0
 40
1.946237468680355
 50
272.7178373384463157
 51
278.246213544861007
  0
ARC
  5
6F97
  8
0
 10
4285.0628163917072015
 20
284.2373040516600895
 30
0.0
 40
0.0512783396369701
 50
188.3825658837448032
 51
272.0835674425031812
  0
ENDSEC
  0
EOF
