  0
SECTION
  2
HEADER
  9
$ACADVER
  1
AC1009
  9
$INSBASE
 10
4245.0209596897893789
 20
255.6907019514096078
 30
0.0
  9
$EXTMIN
 10
4237.4577407294209479
 20
255.6857095219370137
 30
0.0
  9
$EXTMAX
 10
4252.5841786501578099
 20
285.9963511462726728
 30
0.0
  9
$LIMMIN
 10
0.0
 20
0.0
  9
$LIMMAX
 10
11.6929133858000007
 20
8.2677165353999982
  9
$ORTHOMODE
 70
     1
  9
$REGENMODE
 70
     1
  9
$FILLMODE
 70
     1
  9
$QTEXTMODE
 70
     0
  9
$MIRRTEXT
 70
     0
  9
$DRAGMODE
 70
     2
  9
$LTSCALE
 40
0.6431102362
  9
$OSMODE
 70
  4095
  9
$ATTMODE
 70
     1
  9
$TEXTSIZE
 40
0.2
  9
$TRACEWID
 40
0.05
  9
$TEXTSTYLE
  7
STANDARD
  9
$CLAYER
  8
0
  9
$CELTYPE
  6
BYLAYER
  9
$CECOLOR
 62
   256
  9
$DIMSCALE
 40
1.0
  9
$DIMASZ
 40
0.1875
  9
$DIMEXO
 40
0.0625
  9
$DIMDLI
 40
0.4443307087
  9
$DIMRND
 40
0.0
  9
$DIMDLE
 40
0.0
  9
$DIMEXE
 40
0.125
  9
$DIMTP
 40
0.01
  9
$DIMTM
 40
0.01
  9
$DIMTXT
 40
2.0
  9
$DIMCEN
 40
0.1052362205
  9
$DIMTSZ
 40
0.0
  9
$DIMTOL
 70
     1
  9
$DIMLIM
 70
     0
  9
$DIMTIH
 70
     1
  9
$DIMTOH
 70
     1
  9
$DIMSE1
 70
     0
  9
$DIMSE2
 70
     0
  9
$DIMTAD
 70
     0
  9
$DIMZIN
 70
     0
  9
$DIMBLK
  1

  9
$DIMASO
 70
     1
  9
$DIMSHO
 70
     1
  9
$DIMPOST
  1
\X
  9
$DIMAPOST
  1

  9
$DIMALT
 70
     1
  9
$DIMALTD
 70
     2
  9
$DIMALTF
 40
25.3999999999999986
  9
$DIMLFAC
 40
1.0
  9
$DIMTOFL
 70
     0
  9
$DIMTVP
 40
0.0
  9
$DIMTIX
 70
     0
  9
$DIMSOXD
 70
     0
  9
$DIMSAH
 70
     0
  9
$DIMBLK1
  1

  9
$DIMBLK2
  1

  9
$DIMSTYLE
  2
STANDARD
  9
$DIMCLRD
 70
     0
  9
$DIMCLRE
 70
     0
  9
$DIMCLRT
 70
     0
  9
$DIMTFAC
 40
1.0
  9
$DIMGAP
 40
0.09
  9
$LUNITS
 70
     2
  9
$LUPREC
 70
     4
  9
$SKETCHINC
 40
0.1
  9
$FILLETRAD
 40
0.0
  9
$AUNITS
 70
     0
  9
$AUPREC
 70
     0
  9
$MENU
  1
.
  9
$ELEVATION
 40
0.0
  9
$PELEVATION
 40
0.0
  9
$THICKNESS
 40
0.0
  9
$LIMCHECK
 70
     0
  9
$BLIPMODE
 70
     0
  9
$CHAMFERA
 40
0.0
  9
$CHAMFERB
 40
0.0
  9
$SKPOLY
 70
     0
  9
$TDCREATE
 40
2458060.468368056230247
  9
$TDUPDATE
 40
2458993.7097222218289971
  9
$TDINDWG
 40
0.3053890046
  9
$TDUSRTIMER
 40
0.3053890046
  9
$USRTIMER
 70
     1
  9
$ANGBASE
 50
0.0
  9
$ANGDIR
 70
     0
  9
$PDMODE
 70
     0
  9
$PDSIZE
 40
0.3125
  9
$PLINEWID
 40
0.0
  9
$COORDS
 70
     1
  9
$SPLFRAME
 70
     0
  9
$SPLINETYPE
 70
     6
  9
$SPLINESEGS
 70
     8
  9
$ATTDIA
 70
     1
  9
$ATTREQ
 70
     1
  9
$HANDLING
 70
     1
  9
$HANDSEED
  5
6EF6
  9
$SURFTAB1
 70
     6
  9
$SURFTAB2
 70
     6
  9
$SURFTYPE
 70
     6
  9
$SURFU
 70
     6
  9
$SURFV
 70
     6
  9
$UCSNAME
  2

  9
$UCSORG
 10
0.0
 20
0.0
 30
0.0
  9
$UCSXDIR
 10
1.0
 20
0.0
 30
0.0
  9
$UCSYDIR
 10
0.0
 20
1.0
 30
0.0
  9
$PUCSNAME
  2

  9
$PUCSORG
 10
0.0
 20
0.0
 30
0.0
  9
$PUCSXDIR
 10
1.0
 20
0.0
 30
0.0
  9
$PUCSYDIR
 10
0.0
 20
1.0
 30
0.0
  9
$USERI1
 70
     0
  9
$USERI2
 70
     0
  9
$USERI3
 70
     0
  9
$USERI4
 70
     0
  9
$USERI5
 70
     0
  9
$USERR1
 40
0.0
  9
$USERR2
 40
0.0
  9
$USERR3
 40
0.0
  9
$USERR4
 40
0.0
  9
$USERR5
 40
0.0
  9
$WORLDVIEW
 70
     1
  9
$SHADEDGE
 70
     3
  9
$SHADEDIF
 70
    70
  9
$TILEMODE
 70
     1
  9
$MAXACTVP
 70
    64
  9
$PLIMCHECK
 70
     0
  9
$PEXTMIN
 10
1.0000000000000000E+20
 20
1.0000000000000000E+20
 30
1.0000000000000000E+20
  9
$PEXTMAX
 10
-1.0000000000000000E+20
 20
-1.0000000000000000E+20
 30
-1.0000000000000000E+20
  9
$PLIMMIN
 10
0.0
 20
0.0
  9
$PLIMMAX
 10
12.0
 20
9.0
  9
$UNITMODE
 70
     0
  9
$VISRETAIN
 70
     1
  9
$PLINEGEN
 70
     0
  9
$PSLTSCALE
 70
     1
  0
ENDSEC
  0
SECTION
  2
TABLES
  0
TABLE
  2
VPORT
 70
     1
  0
VPORT
  2
*ACTIVE
 70
     0
 10
0.0
 20
0.0
 11
1.0
 21
1.0
 12
0.0
 22
0.0
 13
0.0
 23
0.0
 14
1.0
 24
1.0
 15
0.0
 25
0.0
 16
0.0
 26
0.0
 36
126.7898000359606954
 17
4245.0209960937490905
 27
270.8410237062810211
 37
0.0
 40
33.8737187643366511
 41
2.9513274336283182
 42
50.0
 43
0.0
 44
0.0
 50
0.0
 51
0.0
 71
     0
 72
   100
 73
     1
 74
     1
 75
     0
 76
     0
 77
     0
 78
     0
  0
ENDTAB
  0
TABLE
  2
LTYPE
 70
     2
  0
LTYPE
  2
CONTINUOUS
 70
     0
  3
Solid line
 72
    65
 73
     0
 40
0.0
  0
LTYPE
  2
PHANTOM2
 70
     0
  3
___ _ _ ___ _ _ ___ _ _ ___ _ _
 72
    65
 73
     6
 40
1.25
 49
0.625
 49
-0.125
 49
0.125
 49
-0.125
 49
0.125
 49
-0.125
  0
ENDTAB
  0
TABLE
  2
LAYER
 70
     2
  0
LAYER
  2
0
 70
     0
 62
   255
  6
CONTINUOUS
  0
LAYER
  2
DEFPOINTS
 70
     0
 62
     7
  6
CONTINUOUS
  0
ENDTAB
  0
TABLE
  2
STYLE
 70
     1
  0
STYLE
  2
STANDARD
 70
     0
 40
0.0
 41
0.8
 50
0.0
 71
     0
 42
0.2
  3
txt
  4

  0
ENDTAB
  0
TABLE
  2
VIEW
 70
     0
  0
ENDTAB
  0
TABLE
  2
UCS
 70
     0
  0
ENDTAB
  0
TABLE
  2
APPID
 70
     9
  0
APPID
  2
ACAD
 70
     0
  0
APPID
  2
ACAD_MLEADERVER
 70
     0
  0
APPID
  2
ACAD_EXEMPT_FROM_CAD_STANDARDS
 70
     0
  0
APPID
  2
ACAD_NAV_VCDISPLAY
 70
     0
  0
APPID
  2
ACAECLAYERSTANDARD
 70
     0
  0
APPID
  2
ACCMTRANSPARENCY
 70
     0
  0
APPID
  2
ACAD_DSTYLE_DIMJAG
 70
     0
  0
APPID
  2
ACAD_DSTYLE_DIMTALN
 70
     0
  0
APPID
  2
ACDBATTR
 70
     0
  0
ENDTAB
  0
TABLE
  2
DIMSTYLE
 70
     1
  0
DIMSTYLE
  2
STANDARD
 70
     0
  3

  4

  5

  6

  7

 40
1.0
 41
0.1875
 42
0.0625
 43
0.38
 44
0.125
 45
0.0
 46
0.0
 47
0.01
 48
0.01
140
0.15625
141
0.09
142
0.0
143
25.3999999999999986
144
1.0
145
0.0
146
1.0
147
0.09
 71
     1
 72
     0
 73
     1
 74
     1
 75
     0
 76
     0
 77
     0
 78
     4
170
     0
171
     2
172
     0
173
     0
174
     0
175
     0
176
     0
177
     0
178
     0
  0
ENDTAB
  0
ENDSEC
  0
SECTION
  2
BLOCKS
  0
BLOCK
  8
0
  2
$MODEL_SPACE
 70
     0
 10
0.0
 20
0.0
 30
0.0
  3
$MODEL_SPACE
  1

  0
ENDBLK
  5
21
  8
0
  0
BLOCK
 67
     1
  8
0
  2
$PAPER_SPACE
 70
     0
 10
0.0
 20
0.0
 30
0.0
  3
$PAPER_SPACE
  1

  0
ENDBLK
  5
1D
 67
     1
  8
0
  0
ENDSEC
  0
SECTION
  2
ENTITIES
  0
ATTDEF
  5
3930
  8
DEFPOINTS
 10
4245.0167646548370612
 20
255.6890428552702872
 30
0.0
 40
0.001
  1
402322-RA
  3

  2
MODELNUMBER
 70
     0
1001
ACDBATTR
1070
     0
1070
     1
  0
ATTDEF
  5
3931
  8
DEFPOINTS
 10
4245.0167646548370612
 20
255.6873761886035936
 30
0.0
 40
0.001
  1
WINDHAM
  3

  2
TRADENAME
 70
     0
1001
ACDBATTR
1070
     0
1070
     1
  0
ATTDEF
  5
3932
  8
DEFPOINTS
 10
4245.0167646548370612
 20
255.6857095219370137
 30
0.0
 40
0.001
  1
TOILET
  3

  2
PRODUCT
 70
     0
1001
ACDBATTR
1070
     0
1070
     1
  0
LINE
  5
6D49
  8
0
 10
4250.2043305369397785
 20
255.6907019514096078
 30
0.0
 11
4239.8375888426398888
 21
255.6907019514096078
 31
0.0
  0
LINE
  5
6D4A
  8
0
 10
4239.4423153923398786
 20
273.2687776177095884
 30
0.0
 11
4239.4433409885386936
 21
273.2922676321095992
 31
0.0
  0
LINE
  5
6D4B
  8
0
 10
4239.9770729902402309
 20
273.2087780810095978
 30
0.0
 11
4239.9767682760402749
 21
273.2157571830096003
 31
0.0
  0
LINE
  5
6D4C
  8
0
 10
4241.5666916550399037
 20
273.2922676321097128
 30
0.0
 11
4241.5672610387164241
 21
273.2270227222041967
 31
0.0
  0
LINE
  5
6D4D
  8
0
 10
4241.045661688040127
 20
273.1379390143096089
 30
0.0
 11
4241.0467017665387175
 21
273.2922676321097128
 31
0.0
  0
LINE
  5
6D4E
  8
0
 10
4241.5365779254389054
 20
273.2553326160095821
 30
0.0
 11
4241.5365779254389054
 21
273.2922676321097128
 31
0.0
  0
LINE
  5
6D4F
  8
0
 10
4240.7587540268386874
 20
273.2087780810095978
 30
0.0
 11
4240.7622955156402895
 21
273.2922676321095992
 31
0.0
  0
LINE
  5
6D50
  8
0
 10
4241.9408609869396969
 20
272.1301995003095726
 30
0.0
 11
4241.9447526575404481
 21
272.1747034005095998
 31
0.0
  0
LINE
  5
6D51
  8
0
 10
4239.8215310324394522
 20
256.3258704243095849
 30
0.0
 11
4239.7386854291398777
 21
255.8056853994096116
 31
0.0
  0
LINE
  5
6D52
  8
0
 10
4238.7191499018390459
 20
272.0897866320095773
 30
0.0
 11
4240.1382274479401531
 21
272.0897866320095773
 31
0.0
  0
LINE
  5
6D53
  8
0
 10
4238.9324719022397403
 20
273.1922676320095889
 30
0.0
 11
4239.3623915548387231
 21
273.1922676320095889
 31
0.0
  0
ARC
  5
6D54
  8
0
 10
4238.9451606818283835
 20
273.2912333447765718
 30
0.0
 40
0.0997758359069408
 50
209.3903642078043958
 51
262.6937462418978271
  0
ARC
  5
6D55
  8
0
 10
4239.3586570988163658
 20
273.276168718304973
 30
0.0
 40
0.0839841559065636
 50
272.548565747267503
 51
354.9511021122676766
  0
ARC
  5
6D56
  8
0
 10
4239.8904457033522704
 20
273.20558346582078
 30
0.0
 40
0.0869200269284905
 50
6.7216995580733814
 51
85.7781412877032921
  0
ARC
  5
6D57
  8
0
 10
4238.7841212680423268
 20
273.2123520174649229
 30
0.0
 40
0.0799156341093876
 50
21.9835236490132715
 51
90.0399894517765631
  0
ARC
  5
6D58
  8
0
 10
4241.8303542884996205
 20
272.1402429304183102
 30
0.0
 40
0.1109621597049724
 50
270.477778617525928
 51
354.8069252662930921
  0
ARC
  5
6D59
  8
0
 10
4240.6798617748681863
 20
273.2167088992308095
 30
0.0
 40
0.0792898814660079
 50
276.5654819075497244
 51
354.2595004339173101
  0
ARC
  5
6D5A
  8
0
 10
4240.0558118983117311
 20
273.2158503567172829
 30
0.0
 40
0.0790558836018939
 50
185.1324957410070908
 51
260.238611345419713
  0
LINE
  5
6D5B
  8
0
 10
4241.0087349799387084
 20
273.1379390143096089
 30
0.0
 11
4241.0096506036252322
 21
273.2373651841804758
 31
0.0
  0
LINE
  5
6D5C
  8
0
 10
4238.4556828709773981
 20
273.2922676321095992
 30
0.0
 11
4238.46120317993973
 21
273.1379390143096089
 31
0.0
  0
LINE
  5
6D5D
  8
0
 10
4238.4434696344169424
 20
273.6449510354046879
 30
0.0
 11
4238.051834193040122
 21
284.6592846286096119
 31
0.0
  0
LINE
  5
6D5E
  8
0
 10
4237.9998357305066747
 20
272.4142676321096133
 30
0.0
 11
4237.9998357305066747
 21
272.3883735424096244
 31
0.0
  0
LINE
  5
6D5F
  8
0
 10
4238.2555378979577654
 20
273.3672676321095878
 30
0.0
 11
4238.2555378979577654
 21
273.347267634509592
 31
0.0
  0
LINE
  5
6D60
  8
0
 10
4238.3074561244611687
 20
273.5611157859095783
 30
0.0
 11
4238.2555378979577654
 21
273.3672676321095878
 31
0.0
  0
LINE
  5
6D61
  8
0
 10
4237.9998357305066747
 20
272.4142676321096133
 30
0.0
 11
4238.1440862485069374
 21
272.9526179277095821
 31
0.0
  0
LINE
  5
6D62
  8
0
 10
4251.9680454851386457
 20
272.0292846286096164
 30
0.0
 11
4238.0738738944401121
 21
272.0292846286096164
 31
0.0
  0
LINE
  5
6D63
  8
0
 10
4237.694170312440292
 20
284.6592846286096119
 30
0.0
 11
4245.0209596897902884
 21
284.6592846286096119
 31
0.0
  0
ARC
  5
6D64
  8
0
 10
4237.7059001359730246
 20
284.7807139319522207
 30
0.0
 40
0.1219945263952837
 50
183.7629008455596988
 51
264.4824635124663246
  0
ARC
  5
6D65
  8
0
 10
4238.0534787871138178
 20
272.3919516469861151
 30
0.0
 40
0.0537622577138067
 50
183.8160960804997899
 51
265.1526141257228915
  0
ARC
  5
6D66
  8
0
 10
4238.1098094461103756
 20
271.6778676907420049
 30
0.0
 40
0.3532495266720874
 50
95.83871507011483
 51
154.3018099678658928
  0
ARC
  5
6D67
  8
0
 10
4242.3857538631173156
 20
270.0483133688572934
 30
0.0
 40
4.92801313369492
 50
158.7919749862356014
 51
187.1379178112765942
  0
ARC
  5
6D68
  8
0
 10
4242.5951103198385681
 20
270.1164860130779743
 30
0.0
 40
5.1443865140529956
 50
187.6015789860533971
 51
250.493041982850599
  0
LINE
  5
6D69
  8
0
 10
4238.048935771305878
 20
272.3383816800096042
 30
0.0
 11
4251.9929836082728798
 21
272.3383816800096042
 31
0.0
  0
LINE
  5
6D6A
  8
0
 10
4238.3897166282067701
 20
273.1379390143096089
 30
0.0
 11
4251.6522027513728972
 21
273.1379390143096089
 31
0.0
  0
ARC
  5
6D6B
  8
0
 10
4238.4374251658682624
 20
272.819260975081022
 30
0.0
 40
0.3222294171118358
 50
98.5143826030685972
 51
155.5526327640428121
  0
LINE
  5
6D6C
  8
0
 10
4238.3105002548600169
 20
273.2922676321095992
 30
0.0
 11
4251.7314191247205599
 21
273.2922676321098265
 31
0.0
  0
ARC
  5
6D6D
  8
0
 10
4238.3158321627706755
 20
273.3525582603086832
 30
0.0
 40
0.060525937337723
 50
185.0146746278439878
 51
264.9460950741724901
  0
ARC
  5
6D6E
  8
0
 10
4238.3682657543549794
 20
273.539919814566872
 30
0.0
 40
0.0643978282939014
 50
114.9249333262768999
 51
160.7833486016901929
  0
ARC
  5
6D6F
  8
0
 10
4240.8898266802279977
 20
273.9903297403710098
 30
0.0
 40
0.2305655229533828
 50
95.4313138468886137
 51
116.3497499410808018
  0
ARC
  5
6D70
  8
0
 10
4239.5698634537484395
 20
282.0983868902446829
 30
0.0
 40
7.9947158116365733
 50
272.916925166826104
 51
278.7604678804210039
  0
ARC
  5
6D71
  8
0
 10
4240.2717189123213757
 20
269.3302021254770011
 30
0.0
 40
4.792915552383314
 50
93.5289861041543702
 51
99.7721644947350939
  0
ARC
  5
6D72
  8
0
 10
4243.9872331100323208
 20
261.3422825702579075
 30
0.0
 40
13.4940344166178896
 50
109.6109271247053982
 51
114.7345609090933038
  0
ARC
  5
6D73
  8
0
 10
4245.195721874028095
 20
284.6258095820708718
 30
0.0
 40
7.6129706531321411
 50
171.9160898401277109
 51
178.8943653064663977
  0
ARC
  5
6D74
  8
0
 10
4237.9557019896701604
 20
285.6305272600670264
 30
0.0
 40
0.3045058232315622
 50
96.36210958531899
 51
167.5124211915174897
  0
ARC
  5
6D75
  8
0
 10
4245.2952915905661939
 20
-143.5958003120234139
 30
0.0
 40
429.5922390506601118
 50
90.0365883266572666
 51
90.9834478712060672
  0
LINE
  5
6D76
  8
0
 10
4238.3411265459826609
 20
273.5983196746519752
 30
0.0
 11
4251.7007928335960969
 21
273.5983196746519752
 31
0.0
  0
ARC
  5
6D77
  8
0
 10
4239.4882504443476137
 20
274.0433854505624822
 30
0.0
 40
0.0317178684292112
 50
161.2616024047675012
 51
215.6096259440857068
  0
ARC
  5
6D78
  8
0
 10
4239.8694208718716254
 20
275.1680650410721114
 30
0.0
 40
1.2134251555002229
 50
250.4044219945415932
 51
266.1339676485883956
  0
ARC
  5
6D79
  8
0
 10
4243.2943608862287874
 20
315.2208485292101727
 30
0.0
 40
41.4121891917269807
 50
265.1424183709103772
 51
269.2130079895899257
  0
ARC
  5
6D7A
  8
0
 10
4245.123380395316417
 20
388.1940052766698841
 30
0.0
 40
114.4065699396768991
 50
268.7990620117092817
 51
269.9487068361007118
  0
LINE
  5
6D7B
  8
0
 10
4240.8680030993273249
 20
274.2198601124167112
 30
0.0
 11
4249.1739162802523424
 21
274.2198601124167112
 31
0.0
  0
ARC
  5
6D7C
  8
0
 10
4239.8519179934446584
 20
255.8030550023046885
 30
0.0
 40
0.1132631123016675
 50
178.6692560335374083
 51
262.7319156893411218
  0
ARC
  5
6D7D
  8
0
 10
4240.2206257485258902
 20
256.2629265621607146
 30
0.0
 40
0.4040278730367848
 50
146.7206530743260942
 51
171.037331818568191
  0
ARC
  5
6D7E
  8
0
 10
4079.968129510064955
 20
282.8625028632142175
 30
0.0
 40
162.0756375277441919
 50
350.6334235552170071
 51
353.6507125792791157
  0
ARC
  5
6D7F
  8
0
 10
4240.7079423586692428
 20
264.9690655019070959
 30
0.0
 40
0.3430329130332346
 50
354.9166365216321992
 51
60.4174313477811111
  0
ARC
  5
6D80
  8
0
 10
4239.6322371812429992
 20
266.6540057811038196
 30
0.0
 40
1.863566659481295
 50
311.9207501897989232
 51
324.7908837025850062
  0
ARC
  5
6D81
  8
0
 10
4242.8865857939363195
 20
263.3297986730581783
 30
0.0
 40
2.8390474419745901
 50
87.5636778983569855
 51
127.5868701300090038
  0
ARC
  5
6D82
  8
0
 10
4245.1850912703093854
 20
326.3037691521997772
 30
0.0
 40
60.1769101968254319
 50
267.9259957518838746
 51
269.8437264645805271
  0
ARC
  5
6D83
  8
0
 10
4238.7302642206232122
 20
272.2140658588933206
 30
0.0
 40
0.1247752151543567
 50
199.8531349955080998
 51
264.889620684248996
  0
ARC
  5
6D84
  8
0
 10
4238.4009700436372441
 20
272.121028105150117
 30
0.0
 40
0.2179061473429677
 50
13.4441999866221593
 51
85.9187863200200468
  0
ARC
  5
6D85
  8
0
 10
4240.1232766073999301
 20
272.2256601767309121
 30
0.0
 40
0.1366936274592766
 50
276.2792777958749184
 51
323.7888699652086757
  0
ARC
  5
6D86
  8
0
 10
4240.4359281733923126
 20
272.0244927407276236
 30
0.0
 40
0.2354771063237802
 50
118.5235290611981043
 51
149.2454239450391924
  0
ARC
  5
6D87
  8
0
 10
4239.6937384621460296
 20
270.8450205264107922
 30
0.0
 40
1.522692665537462
 50
56.5787150692632324
 51
78.7358519262047736
  0
ARC
  5
6D88
  8
0
 10
4240.6407031032749728
 20
272.1401994004709763
 30
0.0
 40
0.1109668965732899
 50
192.6354263642926128
 51
268.243776656255875
  0
ARC
  5
6D89
  8
0
 10
4242.1668184900399865
 20
272.1552503310281281
 30
0.0
 40
0.222916253055436
 50
124.1435424354638997
 51
124.7622218054166012
  0
ARC
  5
6D8A
  8
0
 10
4242.1743951051457771
 20
272.152638925409974
 30
0.0
 40
0.2307000104114937
 50
160.1176279056327871
 51
174.5117617944472954
  0
ARC
  5
6D8B
  8
0
 10
4246.0692074998160024
 20
201.9307349788626027
 30
0.0
 40
70.4205054235794705
 50
91.0949482175446548
 51
93.3473292936121624
  0
LINE
  5
6D8C
  8
0
 10
4241.5873736269395522
 20
273.2218779187095947
 30
0.0
 11
4248.4545457526401151
 21
273.2218779187095947
 31
0.0
  0
ARC
  5
6D8D
  8
0
 10
4241.5929799583982458
 20
273.2856802467142074
 30
0.0
 40
0.0640481694604339
 50
208.2828803511204114
 51
264.9782990939963838
  0
ARC
  5
6D8E
  8
0
 10
4241.0761808872939582
 20
273.2370743634040196
 30
0.0
 40
0.0665309192924427
 50
123.9435357799026036
 51
179.7495471830663973
  0
ARC
  5
6D8F
  8
0
 10
4245.2572791695693013
 20
15.6372017917060493
 30
0.0
 40
257.9002216086391854
 50
90.0525013534785899
 51
90.5830532799914607
  0
ARC
  5
6D90
  8
0
 10
4243.7729544217563671
 20
251.1561985806771986
 30
0.0
 40
22.3969070264921797
 50
92.9177990386418458
 51
98.7528887404891833
  0
LINE
  5
6D91
  8
0
 10
4250.5996039872397887
 20
273.2687776177095884
 30
0.0
 11
4250.5985783910400642
 21
273.2922676321095992
 31
0.0
  0
LINE
  5
6D92
  8
0
 10
4250.0648463893403459
 20
273.2087780810095978
 30
0.0
 11
4250.0651511035393924
 21
273.2157571830096003
 31
0.0
  0
LINE
  5
6D93
  8
0
 10
4248.4752277245388541
 20
273.2922676321097128
 30
0.0
 11
4248.4746583408632432
 21
273.2270227222041967
 31
0.0
  0
LINE
  5
6D94
  8
0
 10
4248.9962576915404497
 20
273.1379390143096089
 30
0.0
 11
4248.9952176130400403
 21
273.2922676321097128
 31
0.0
  0
LINE
  5
6D95
  8
0
 10
4248.5053414541398524
 20
273.2553326160095821
 30
0.0
 11
4248.5053414541398524
 21
273.2922676321097128
 31
0.0
  0
LINE
  5
6D96
  8
0
 10
4249.2831653527400704
 20
273.2087780810095978
 30
0.0
 11
4249.2796238639402873
 21
273.2922676321095992
 31
0.0
  0
LINE
  5
6D97
  8
0
 10
4248.1010583926399704
 20
272.1301995003095726
 30
0.0
 11
4248.0971667220401287
 21
272.1747034005095998
 31
0.0
  0
LINE
  5
6D98
  8
0
 10
4250.220388347140215
 20
256.3258704243095849
 30
0.0
 11
4250.3032339504397896
 21
255.8056853994096116
 31
0.0
  0
LINE
  5
6D99
  8
0
 10
4251.3227694777397119
 20
272.0897866320095773
 30
0.0
 11
4249.9036919316386047
 21
272.0897866320095773
 31
0.0
  0
LINE
  5
6D9A
  8
0
 10
4251.109447477339927
 20
273.1922676320095889
 30
0.0
 11
4250.6795278247400347
 21
273.1922676320095889
 31
0.0
  0
ARC
  5
6D9B
  8
0
 10
4251.0967586977512838
 20
273.2912333447765718
 30
0.0
 40
0.0997758359069408
 50
277.3062537581021161
 51
330.6096357921956042
  0
ARC
  5
6D9C
  8
0
 10
4250.6832622807633015
 20
273.276168718304973
 30
0.0
 40
0.0839841559065636
 50
185.0488978877305897
 51
267.451434252732497
  0
ARC
  5
6D9D
  8
0
 10
4250.1514736762273969
 20
273.20558346582078
 30
0.0
 40
0.0869200269284905
 50
94.2218587122967222
 51
173.2783004419266035
  0
ARC
  5
6D9E
  8
0
 10
4251.2577981115373404
 20
273.2123520174649229
 30
0.0
 40
0.0799156341093876
 50
89.9600105482234085
 51
158.016476350986693
  0
ARC
  5
6D9F
  8
0
 10
4248.2115650910800468
 20
272.1402429304183102
 30
0.0
 40
0.1109621597049724
 50
185.1930747337052026
 51
269.522221382474072
  0
ARC
  5
6DA0
  8
0
 10
4249.3620576047105715
 20
273.2167088992308095
 30
0.0
 40
0.0792898814660079
 50
185.7404995660826899
 51
263.4345180924502756
  0
ARC
  5
6DA1
  8
0
 10
4249.9861074812679362
 20
273.2158503567172829
 30
0.0
 40
0.0790558836018939
 50
279.7613886545804007
 51
354.8675042589928239
  0
LINE
  5
6DA2
  8
0
 10
4249.0331843996400494
 20
273.1379390143096089
 30
0.0
 11
4249.0322687759544351
 21
273.2373651841804758
 31
0.0
  0
LINE
  5
6DA3
  8
0
 10
4251.5862365086022692
 20
273.2922676321095992
 30
0.0
 11
4251.5807161996390278
 21
273.1379390143096089
 31
0.0
  0
LINE
  5
6DA4
  8
0
 10
4251.5984497451618154
 20
273.6449510354046879
 30
0.0
 11
4251.9900851865386358
 21
284.6592846286096119
 31
0.0
  0
LINE
  5
6DA5
  8
0
 10
4252.0420836490720831
 20
272.4142676321096133
 30
0.0
 11
4252.0420836490720831
 21
272.3883735424096244
 31
0.0
  0
LINE
  5
6DA6
  8
0
 10
4251.7863814816209924
 20
273.3672676321095878
 30
0.0
 11
4251.7863814816209924
 21
273.347267634509592
 31
0.0
  0
LINE
  5
6DA7
  8
0
 10
4251.7344632551175891
 20
273.5611157859095783
 30
0.0
 11
4251.7863814816209924
 21
273.3672676321095878
 31
0.0
  0
LINE
  5
6DA8
  8
0
 10
4252.0420836490720831
 20
272.4142676321096133
 30
0.0
 11
4251.8978331310727299
 21
272.9526179277095821
 31
0.0
  0
LINE
  5
6DA9
  8
0
 10
4252.3477490671402848
 20
284.6592846286096119
 30
0.0
 11
4245.0209596897902884
 21
284.6592846286096119
 31
0.0
  0
ARC
  5
6DAA
  8
0
 10
4252.3360192436057332
 20
284.7807139319522207
 30
0.0
 40
0.1219945263952837
 50
275.5175364875336754
 51
356.2370991544402727
  0
ARC
  5
6DAB
  8
0
 10
4251.98844059246494
 20
272.3919516469861151
 30
0.0
 40
0.0537622577138067
 50
274.8473858742768812
 51
356.1839039195000964
  0
ARC
  5
6DAC
  8
0
 10
4251.9321099334692917
 20
271.6778676907420049
 30
0.0
 40
0.3532495266720874
 50
25.6981900321341286
 51
84.1612849298851842
  0
ARC
  5
6DAD
  8
0
 10
4247.6561655164623517
 20
270.0483133688572934
 30
0.0
 40
4.92801313369492
 50
352.8620821887233774
 51
21.2080250137643382
  0
ARC
  5
6DAE
  8
0
 10
4247.4468090597410992
 20
270.1164860130779743
 30
0.0
 40
5.1443865140529956
 50
289.5069580171493726
 51
352.3984210139465176
  0
ARC
  5
6DAF
  8
0
 10
4251.6044942137123144
 20
272.819260975081022
 30
0.0
 40
0.3222294171118358
 50
24.4473672359571488
 51
81.485617396931417
  0
ARC
  5
6DB0
  8
0
 10
4251.7260872168080823
 20
273.3525582603086832
 30
0.0
 40
0.060525937337723
 50
275.0539049258275099
 51
354.9853253721558985
  0
ARC
  5
6DB1
  8
0
 10
4251.6736536252237784
 20
273.539919814566872
 30
0.0
 40
0.0643978282939014
 50
19.2166513983097786
 51
65.0750666737230716
  0
ARC
  5
6DB2
  8
0
 10
4249.1520926993516696
 20
273.9903297403710098
 30
0.0
 40
0.2305655229533828
 50
63.6502500589192266
 51
84.5686861531114147
  0
ARC
  5
6DB3
  8
0
 10
4250.4720559258312278
 20
282.0983868902446829
 30
0.0
 40
7.9947158116365733
 50
261.2395321195789961
 51
267.0830748331737823
  0
ARC
  5
6DB4
  8
0
 10
4249.7702004672582916
 20
269.3302021254770011
 30
0.0
 40
4.792915552383314
 50
80.2278355052649204
 51
86.4710138958456582
  0
ARC
  5
6DB5
  8
0
 10
4246.0546862695473465
 20
261.3422825702579075
 30
0.0
 40
13.4940344166178896
 50
65.2654390909067104
 51
70.3890728752945449
  0
ARC
  5
6DB6
  8
0
 10
4244.8461975055506628
 20
284.6258095820708718
 30
0.0
 40
7.6129706531321411
 50
1.1056346935336201
 51
8.0839101598722873
  0
ARC
  5
6DB7
  8
0
 10
4252.0862173899085974
 20
285.6305272600670264
 30
0.0
 40
0.3045058232315622
 50
12.4875788084824801
 51
83.6378904146810243
  0
ARC
  5
6DB8
  8
0
 10
4244.7466277890143829
 20
-143.5958003120215096
 30
0.0
 40
429.5922390506580086
 50
89.0165521287939185
 51
89.9634116733427476
  0
ARC
  5
6DB9
  8
0
 10
4250.5536689352311441
 20
274.0433854505624822
 30
0.0
 40
0.0317178684292112
 50
324.3903740559129005
 51
18.7383975952324988
  0
ARC
  5
6DBA
  8
0
 10
4250.1724985077080419
 20
275.1680650410721114
 30
0.0
 40
1.2134251555002229
 50
273.8660323514117181
 51
289.595578005458492
  0
ARC
  5
6DBB
  8
0
 10
4246.7475584933499704
 20
315.2208485292101727
 30
0.0
 40
41.4121891917269807
 50
270.7869920104100743
 51
274.8575816290895091
  0
ARC
  5
6DBC
  8
0
 10
4244.9185389842614313
 20
388.1940052768106852
 30
0.0
 40
114.4065699398177003
 50
270.0512931638992882
 51
271.2009379882384792
  0
ARC
  5
6DBD
  8
0
 10
4250.1900013861340994
 20
255.8030550023046885
 30
0.0
 40
0.1132631123016675
 50
277.2680843106588782
 51
1.330743966462629
  0
ARC
  5
6DBE
  8
0
 10
4249.8212936310528676
 20
256.2629265621607146
 30
0.0
 40
0.4040278730367848
 50
8.9626681814317557
 51
33.2793469256738277
  0
ARC
  5
6DBF
  8
0
 10
4410.0737898695142576
 20
282.8625028632142175
 30
0.0
 40
162.0756375277441919
 50
186.3492874207209127
 51
189.3665764447829929
  0
ARC
  5
6DC0
  8
0
 10
4249.3339770209104245
 20
264.9690655019070959
 30
0.0
 40
0.3430329130332346
 50
119.582568652218896
 51
185.0833634783678008
  0
ARC
  5
6DC1
  8
0
 10
4250.4096821983357586
 20
266.6540057811038196
 30
0.0
 40
1.863566659481295
 50
215.2091162974151075
 51
228.0792498102011052
  0
ARC
  5
6DC2
  8
0
 10
4247.1553335856433478
 20
263.3297986730581783
 30
0.0
 40
2.8390474419745901
 50
52.4131298699910033
 51
92.4363221016430288
  0
ARC
  5
6DC3
  8
0
 10
4244.8568281092702819
 20
326.3037691521997772
 30
0.0
 40
60.1769101968254319
 50
270.1562735354194729
 51
272.0740042481161254
  0
ARC
  5
6DC4
  8
0
 10
4251.3116551589555456
 20
272.2140658588933206
 30
0.0
 40
0.1247752151543567
 50
275.1103793157508903
 51
340.1468650044918149
  0
ARC
  5
6DC5
  8
0
 10
4251.6409493359424232
 20
272.121028105150117
 30
0.0
 40
0.2179061473429677
 50
94.0812136799799674
 51
166.5558000133777909
  0
ARC
  5
6DC6
  8
0
 10
4249.9186427721788277
 20
272.2256601767309121
 30
0.0
 40
0.1366936274592766
 50
216.2111300347912959
 51
263.7207222041250816
  0
ARC
  5
6DC7
  8
0
 10
4249.6059912061882642
 20
272.0244927407276236
 30
0.0
 40
0.2354771063237802
 50
30.7545760549607614
 51
61.4764709388018815
  0
ARC
  5
6DC8
  8
0
 10
4250.3481809174327282
 20
270.8450205264107922
 30
0.0
 40
1.522692665537462
 50
101.264148073795198
 51
123.4212849307368032
  0
ARC
  5
6DC9
  8
0
 10
4249.4012162763046945
 20
272.1401994004709763
 30
0.0
 40
0.1109668965732899
 50
271.7562233437440113
 51
347.3645736357073019
  0
ARC
  5
6DCA
  8
0
 10
4247.8751008895387713
 20
272.1552503310281281
 30
0.0
 40
0.222916253055436
 50
55.2377781945833632
 51
55.8564575645361217
  0
ARC
  5
6DCB
  8
0
 10
4247.8675242744329807
 20
272.152638925409974
 30
0.0
 40
0.2307000104114937
 50
5.4882382055526726
 51
19.8823720943671809
  0
ARC
  5
6DCC
  8
0
 10
4243.9727118797627554
 20
201.9307349788626027
 30
0.0
 40
70.4205054235794705
 50
86.6526707063878519
 51
88.9050517824553452
  0
ARC
  5
6DCD
  8
0
 10
4248.4489394211814215
 20
273.2856802467142074
 30
0.0
 40
0.0640481694604339
 50
275.0217009060035025
 51
331.7171196488794749
  0
ARC
  5
6DCE
  8
0
 10
4248.9657384922857091
 20
273.2370743634040196
 30
0.0
 40
0.0665309192924427
 50
0.2504528169336082
 51
56.0564642200973395
  0
ARC
  5
6DCF
  8
0
 10
4244.784640210010366
 20
15.6372017917060493
 30
0.0
 40
257.9002216086391854
 50
89.4169467200085393
 51
89.9474986465213959
  0
ARC
  5
6DD0
  8
0
 10
4246.2689649578233002
 20
251.1561985806771986
 30
0.0
 40
22.3969070264921797
 50
81.2471112595108167
 51
87.0822009613581542
  0
LINE
  5
6DD2
  8
0
 10
4249.6566090894802983
 20
282.9644195014706156
 30
0.0
 11
4251.4751732086806442
 21
283.1386925637767717
 31
0.0
  0
LINE
  5
6DD3
  8
0
 10
4249.6563807323809669
 20
283.4019928908705879
 30
0.0
 11
4251.4805464557803134
 21
283.2459706800705135
 31
0.0
  0
LINE
  5
6DD4
  8
0
 10
4251.42513127858183
 20
283.2738447055705251
 30
0.0
 11
4249.6247481824811985
 21
283.426676747170518
 31
0.0
  0
LINE
  5
6DD5
  8
0
 10
4249.5952197378810524
 20
282.9672684416705124
 30
0.0
 11
4249.5582735139805663
 21
282.9743138259204898
 31
0.0
  0
LINE
  5
6DD6
  8
0
 10
4251.4805464557803134
 20
283.2459706800705135
 30
0.0
 11
4251.4307515914806572
 21
283.2721998266706009
 31
0.0
  0
ARC
  5
6DD7
  8
0
 10
4249.6358787255812786
 20
283.1805563222704905
 30
0.0
 40
0.2171287022
 50
259.2072192755858282
 51
275.4786598517094944
  0
ARC
  5
6DD8
  8
0
 10
4251.4238862984775551
 20
283.2591664518702146
 30
0.0
 40
0.0147309574582822
 50
62.2221091775027801
 51
85.1518903703916834
  0
ARC
  5
6DD9
  8
0
 10
4251.4606991042692243
 20
283.2232033987211821
 30
0.0
 40
0.0302037491398207
 50
6.2180358285400832
 51
48.9197468333242824
  0
ARC
  5
6DDA
  8
0
 10
4251.2339360287078307
 20
283.1968572153646164
 30
0.0
 40
0.2584915135500468
 50
348.9166331325433248
 51
6.5793255187109034
  0
ARC
  5
6DDB
  8
0
 10
4251.473374652136954
 20
283.1546902343089869
 30
0.0
 40
0.0160984554567532
 50
276.4146084140515995
 51
332.1333114873756926
  0
ARC
  5
6DDC
  8
0
 10
4249.170216443899335
 20
281.9443200702519903
 30
0.0
 40
1.540608191317528
 50
74.9783929917786054
 51
75.5340450237086571
  0
ARC
  5
6DDD
  8
0
 10
4250.1179967472908174
 20
288.5610982122244081
 30
0.0
 40
5.1580595118286263
 50
263.8959336515225118
 51
264.5126047281721071
  0
ARC
  5
6DDE
  8
0
 10
4249.5682373714544156
 20
283.2052798156476001
 30
0.0
 40
0.2311808099006203
 50
93.2657616556781193
 51
267.5297955079261101
  0
ARC
  5
6DDF
  8
0
 10
4249.5392260833132241
 20
283.2177858017383869
 30
0.0
 40
0.7139502122846137
 50
12.7057085112666694
 51
89.6716103508289279
  0
ARC
  5
6DE0
  8
0
 10
4249.5398367979378236
 20
283.215688677961225
 30
0.0
 40
0.7160440721200897
 50
89.721438946010025
 51
281.3911703583229951
  0
ARC
  5
6DE1
  8
0
 10
4249.5367273647843831
 20
283.2150662684014151
 30
0.0
 40
0.7158752652604056
 50
281.6494508504977148
 51
344.0968606717905232
  0
ARC
  5
6DE2
  8
0
 10
4249.5718921641446286
 20
283.2059988641672135
 30
0.0
 40
0.3401490165247856
 50
36.4162485817494002
 51
318.5258204751303879
  0
ARC
  5
6DE3
  8
0
 10
4249.6391228855418376
 20
283.182497388371587
 30
0.0
 40
0.2201677452394088
 50
85.5008923780977739
 51
255.2474952094769947
  0
ENDSEC
  0
EOF
