  0
SECTION
  2
HEADER
  9
$ACADVER
  1
AC1009
  9
$INSBASE
 10
4246.094033520166704
 20
211.4713420542782956
 30
0.0
  9
$EXTMIN
 10
4215.6945335201662601
 20
211.4713420542782956
 30
0.0
  9
$EXTMAX
 10
4246.1009936608379576
 20
240.4299820821358082
 30
0.0
  9
$LIMMIN
 10
0.0
 20
0.0
  9
$LIMMAX
 10
11.6929133858000007
 20
8.2677165353999982
  9
$ORTHOMODE
 70
     1
  9
$REGENMODE
 70
     1
  9
$FILLMODE
 70
     1
  9
$QTEXTMODE
 70
     0
  9
$MIRRTEXT
 70
     0
  9
$DRAGMODE
 70
     2
  9
$LTSCALE
 40
0.6431102362
  9
$OSMODE
 70
  4095
  9
$ATTMODE
 70
     1
  9
$TEXTSIZE
 40
0.2
  9
$TRACEWID
 40
0.05
  9
$TEXTSTYLE
  7
STANDARD
  9
$CLAYER
  8
0
  9
$CELTYPE
  6
BYLAYER
  9
$CECOLOR
 62
   256
  9
$DIMSCALE
 40
1.0
  9
$DIMASZ
 40
0.1875
  9
$DIMEXO
 40
0.0625
  9
$DIMDLI
 40
0.4443307087
  9
$DIMRND
 40
0.0
  9
$DIMDLE
 40
0.0
  9
$DIMEXE
 40
0.125
  9
$DIMTP
 40
0.01
  9
$DIMTM
 40
0.01
  9
$DIMTXT
 40
2.0
  9
$DIMCEN
 40
0.1052362205
  9
$DIMTSZ
 40
0.0
  9
$DIMTOL
 70
     1
  9
$DIMLIM
 70
     0
  9
$DIMTIH
 70
     1
  9
$DIMTOH
 70
     1
  9
$DIMSE1
 70
     0
  9
$DIMSE2
 70
     0
  9
$DIMTAD
 70
     0
  9
$DIMZIN
 70
     0
  9
$DIMBLK
  1

  9
$DIMASO
 70
     1
  9
$DIMSHO
 70
     1
  9
$DIMPOST
  1
\X
  9
$DIMAPOST
  1

  9
$DIMALT
 70
     1
  9
$DIMALTD
 70
     2
  9
$DIMALTF
 40
25.3999999999999986
  9
$DIMLFAC
 40
1.0
  9
$DIMTOFL
 70
     0
  9
$DIMTVP
 40
0.0
  9
$DIMTIX
 70
     0
  9
$DIMSOXD
 70
     0
  9
$DIMSAH
 70
     0
  9
$DIMBLK1
  1

  9
$DIMBLK2
  1

  9
$DIMSTYLE
  2
STANDARD
  9
$DIMCLRD
 70
     0
  9
$DIMCLRE
 70
     0
  9
$DIMCLRT
 70
     0
  9
$DIMTFAC
 40
1.0
  9
$DIMGAP
 40
0.09
  9
$LUNITS
 70
     2
  9
$LUPREC
 70
     4
  9
$SKETCHINC
 40
0.1
  9
$FILLETRAD
 40
0.0
  9
$AUNITS
 70
     0
  9
$AUPREC
 70
     0
  9
$MENU
  1
.
  9
$ELEVATION
 40
0.0
  9
$PELEVATION
 40
0.0
  9
$THICKNESS
 40
0.0
  9
$LIMCHECK
 70
     0
  9
$BLIPMODE
 70
     0
  9
$CHAMFERA
 40
0.0
  9
$CHAMFERB
 40
0.0
  9
$SKPOLY
 70
     0
  9
$TDCREATE
 40
2458060.468368056230247
  9
$TDUPDATE
 40
2458993.7055555558763444
  9
$TDINDWG
 40
0.3053658565
  9
$TDUSRTIMER
 40
0.3053658565
  9
$USRTIMER
 70
     1
  9
$ANGBASE
 50
0.0
  9
$ANGDIR
 70
     0
  9
$PDMODE
 70
     0
  9
$PDSIZE
 40
0.3125
  9
$PLINEWID
 40
0.0
  9
$COORDS
 70
     1
  9
$SPLFRAME
 70
     0
  9
$SPLINETYPE
 70
     6
  9
$SPLINESEGS
 70
     8
  9
$ATTDIA
 70
     1
  9
$ATTREQ
 70
     1
  9
$HANDLING
 70
     1
  9
$HANDSEED
  5
6F02
  9
$SURFTAB1
 70
     6
  9
$SURFTAB2
 70
     6
  9
$SURFTYPE
 70
     6
  9
$SURFU
 70
     6
  9
$SURFV
 70
     6
  9
$UCSNAME
  2

  9
$UCSORG
 10
0.0
 20
0.0
 30
0.0
  9
$UCSXDIR
 10
1.0
 20
0.0
 30
0.0
  9
$UCSYDIR
 10
0.0
 20
1.0
 30
0.0
  9
$PUCSNAME
  2

  9
$PUCSORG
 10
0.0
 20
0.0
 30
0.0
  9
$PUCSXDIR
 10
1.0
 20
0.0
 30
0.0
  9
$PUCSYDIR
 10
0.0
 20
1.0
 30
0.0
  9
$USERI1
 70
     0
  9
$USERI2
 70
     0
  9
$USERI3
 70
     0
  9
$USERI4
 70
     0
  9
$USERI5
 70
     0
  9
$USERR1
 40
0.0
  9
$USERR2
 40
0.0
  9
$USERR3
 40
0.0
  9
$USERR4
 40
0.0
  9
$USERR5
 40
0.0
  9
$WORLDVIEW
 70
     1
  9
$SHADEDGE
 70
     3
  9
$SHADEDIF
 70
    70
  9
$TILEMODE
 70
     1
  9
$MAXACTVP
 70
    64
  9
$PLIMCHECK
 70
     0
  9
$PEXTMIN
 10
1.0000000000000000E+20
 20
1.0000000000000000E+20
 30
1.0000000000000000E+20
  9
$PEXTMAX
 10
-1.0000000000000000E+20
 20
-1.0000000000000000E+20
 30
-1.0000000000000000E+20
  9
$PLIMMIN
 10
0.0
 20
0.0
  9
$PLIMMAX
 10
12.0
 20
9.0
  9
$UNITMODE
 70
     0
  9
$VISRETAIN
 70
     1
  9
$PLINEGEN
 70
     0
  9
$PSLTSCALE
 70
     1
  0
ENDSEC
  0
SECTION
  2
TABLES
  0
TABLE
  2
VPORT
 70
     1
  0
VPORT
  2
*ACTIVE
 70
     0
 10
0.0
 20
0.0
 11
1.0
 21
1.0
 12
0.0
 22
0.0
 13
0.0
 23
0.0
 14
1.0
 24
1.0
 15
0.0
 25
0.0
 16
0.0
 26
0.0
 36
157.1787714268726006
 17
4230.8976647993267761
 27
225.9506607055664063
 37
0.0
 40
42.02076938250908
 41
2.9513274336283182
 42
50.0
 43
0.0
 44
0.0
 50
0.0
 51
0.0
 71
     0
 72
   100
 73
     1
 74
     1
 75
     0
 76
     0
 77
     0
 78
     0
  0
ENDTAB
  0
TABLE
  2
LTYPE
 70
     2
  0
LTYPE
  2
CONTINUOUS
 70
     0
  3
Solid line
 72
    65
 73
     0
 40
0.0
  0
LTYPE
  2
PHANTOM2
 70
     0
  3
___ _ _ ___ _ _ ___ _ _ ___ _ _
 72
    65
 73
     6
 40
1.25
 49
0.625
 49
-0.125
 49
0.125
 49
-0.125
 49
0.125
 49
-0.125
  0
ENDTAB
  0
TABLE
  2
LAYER
 70
     2
  0
LAYER
  2
0
 70
     0
 62
   255
  6
CONTINUOUS
  0
LAYER
  2
DEFPOINTS
 70
     0
 62
     7
  6
CONTINUOUS
  0
ENDTAB
  0
TABLE
  2
STYLE
 70
     1
  0
STYLE
  2
STANDARD
 70
     0
 40
0.0
 41
0.8
 50
0.0
 71
     0
 42
0.2
  3
txt
  4

  0
ENDTAB
  0
TABLE
  2
VIEW
 70
     0
  0
ENDTAB
  0
TABLE
  2
UCS
 70
     0
  0
ENDTAB
  0
TABLE
  2
APPID
 70
     9
  0
APPID
  2
ACAD
 70
     0
  0
APPID
  2
ACAD_MLEADERVER
 70
     0
  0
APPID
  2
ACAD_EXEMPT_FROM_CAD_STANDARDS
 70
     0
  0
APPID
  2
ACAD_NAV_VCDISPLAY
 70
     0
  0
APPID
  2
ACAECLAYERSTANDARD
 70
     0
  0
APPID
  2
ACCMTRANSPARENCY
 70
     0
  0
APPID
  2
ACAD_DSTYLE_DIMJAG
 70
     0
  0
APPID
  2
ACAD_DSTYLE_DIMTALN
 70
     0
  0
APPID
  2
ACDBATTR
 70
     0
  0
ENDTAB
  0
TABLE
  2
DIMSTYLE
 70
     1
  0
DIMSTYLE
  2
STANDARD
 70
     0
  3

  4

  5

  6

  7

 40
1.0
 41
0.1875
 42
0.0625
 43
0.38
 44
0.125
 45
0.0
 46
0.0
 47
0.01
 48
0.01
140
0.15625
141
0.09
142
0.0
143
25.3999999999999986
144
1.0
145
0.0
146
1.0
147
0.09
 71
     1
 72
     0
 73
     1
 74
     1
 75
     0
 76
     0
 77
     0
 78
     4
170
     0
171
     2
172
     0
173
     0
174
     0
175
     0
176
     0
177
     0
178
     0
  0
ENDTAB
  0
ENDSEC
  0
SECTION
  2
BLOCKS
  0
BLOCK
  8
0
  2
$MODEL_SPACE
 70
     0
 10
0.0
 20
0.0
 30
0.0
  3
$MODEL_SPACE
  1

  0
ENDBLK
  5
21
  8
0
  0
BLOCK
 67
     1
  8
0
  2
$PAPER_SPACE
 70
     0
 10
0.0
 20
0.0
 30
0.0
  3
$PAPER_SPACE
  1

  0
ENDBLK
  5
1D
 67
     1
  8
0
  0
ENDSEC
  0
SECTION
  2
ENTITIES
  0
ATTDEF
  5
3930
  8
DEFPOINTS
 10
4246.0903269941691178
 20
211.4827116247749927
 30
0.0
 40
0.001
  1
402321-RA
  3

  2
MODELNUMBER
 70
     0
1001
ACDBATTR
1070
     0
1070
     1
  0
ATTDEF
  5
3931
  8
DEFPOINTS
 10
4246.0903269941691178
 20
211.4810449581082992
 30
0.0
 40
0.001
  1
WINDHAM
  3

  2
TRADENAME
 70
     0
1001
ACDBATTR
1070
     0
1070
     1
  0
ATTDEF
  5
3932
  8
DEFPOINTS
 10
4246.0903269941691178
 20
211.4793782914416056
 30
0.0
 40
0.001
  1
TOILET
  3

  2
PRODUCT
 70
     0
1001
ACDBATTR
1070
     0
1070
     1
  0
LINE
  5
6D20
  8
0
 10
4216.0457508353665617
 20
226.7003247314783039
 30
0.0
 11
4216.0457506236671179
 21
226.7149242890783114
 31
0.0
  0
LINE
  5
6D21
  8
0
 10
4216.3234966501677263
 20
227.5691516693783001
 30
0.0
 11
4216.3234966428672124
 21
227.5509080775782991
 31
0.0
  0
LINE
  5
6D22
  8
0
 10
4244.0510577884679151
 20
211.4713420542782956
 30
0.0
 11
4218.5940253851676971
 21
211.4713420542782956
 31
0.0
  0
LINE
  5
6D23
  8
0
 10
4243.2645871036993412
 20
212.6489018610683104
 30
0.0
 11
4229.8881817745677836
 21
212.4154158668783055
 31
0.0
  0
LINE
  5
6D24
  8
0
 10
4218.7394231189673519
 20
227.3355651307782921
 30
0.0
 11
4218.7402340466678652
 21
227.2893205397782879
 31
0.0
  0
LINE
  5
6D25
  8
0
 10
4219.1937215568677857
 20
226.5188775870782933
 30
0.0
 11
4219.1933103519668293
 21
226.5424355010783017
 31
0.0
  0
LINE
  5
6D26
  8
0
 10
4232.8941062931671695
 20
215.0607020425782991
 30
0.0
 11
4232.7416053043671127
 21
215.0580401278782858
 31
0.0
  0
LINE
  5
6D27
  8
0
 10
4234.9570748143669334
 20
214.8106011087782861
 30
0.0
 11
4238.9600908733682445
 21
214.8106011087782861
 31
0.0
  0
LINE
  5
6D28
  8
0
 10
4219.853914980866648
 20
227.2965903894782969
 30
0.0
 11
4219.8552918239001883
 21
227.4023168281659935
 31
0.0
  0
LINE
  5
6D29
  8
0
 10
4236.968231324167391
 20
222.4778406693783097
 30
0.0
 11
4239.4386416564675528
 21
223.0481798341783133
 31
0.0
  0
LINE
  5
6D2A
  8
0
 10
4240.2083265803676113
 20
223.2258756002783002
 30
0.0
 11
4241.5804923540672462
 21
223.5426650303782878
 31
0.0
  0
LINE
  5
6D2B
  8
0
 10
4239.8836480631671293
 20
223.3990656432783055
 30
0.0
 11
4239.8541160989680066
 21
223.3934386948783128
 31
0.0
  0
LINE
  5
6D2C
  8
0
 10
4227.7572710894673946
 20
227.3809247314783022
 30
0.0
 11
4227.7572710894673946
 21
227.3463620521783071
 31
0.0
  0
LINE
  5
6D2D
  8
0
 10
4229.0501740658673953
 20
227.3435063136782901
 30
0.0
 11
4229.0505261832668111
 21
227.3639261218783076
 31
0.0
  0
LINE
  5
6D2E
  8
0
 10
4243.5414968479663003
 20
225.7999247314783133
 30
0.0
 11
4242.5293698915666027
 21
225.664399291178313
 31
0.0
  0
LINE
  5
6D2F
  8
0
 10
4230.7248585838342478
 20
214.6096957976268982
 30
0.0
 11
4230.8043932555674473
 21
213.2025909949782942
 31
0.0
  0
LINE
  5
6D30
  8
0
 10
4232.2045163130678702
 20
225.6499247314783076
 30
0.0
 11
4238.2532194690684264
 21
225.64992982117829
 31
0.0
  0
LINE
  5
6D31
  8
0
 10
4239.3186674428679908
 20
225.7999247314783133
 30
0.0
 11
4244.1885595415678836
 21
225.7999247314783133
 31
0.0
  0
LINE
  5
6D32
  8
0
 10
4233.0670430999671225
 20
214.9077979797783087
 30
0.0
 11
4233.2198983848666103
 21
214.3373323398782873
 31
0.0
  0
LINE
  5
6D33
  8
0
 10
4218.5557505827673594
 20
226.4799247314782917
 30
0.0
 11
4219.2091595516676534
 21
226.4799247314782917
 31
0.0
  0
LINE
  5
6D34
  8
0
 10
4220.1703124073674189
 20
226.4799247314782917
 30
0.0
 11
4231.0328983871759192
 21
226.4799247314782917
 31
0.0
  0
LINE
  5
6D35
  8
0
 10
4228.8332918296673597
 20
226.5199247314783122
 30
0.0
 11
4229.3223244884666201
 21
226.5199247314783122
 31
0.0
  0
LINE
  5
6D36
  8
0
 10
4223.8269509533665769
 20
227.3809247314783022
 30
0.0
 11
4231.5746183476667284
 21
227.3809247314783022
 31
0.0
  0
LINE
  5
6D37
  8
0
 10
4235.5781432131670954
 20
227.0422793368782948
 30
0.0
 11
4234.47197576536837
 21
227.0599247152782993
 31
0.0
  0
LINE
  5
6D38
  8
0
 10
4234.2629780870665854
 20
215.0203403600783076
 30
0.0
 11
4234.2905495698678351
 21
214.9174416793782996
 31
0.0
  0
LINE
  5
6D39
  8
0
 10
4233.1570168164671486
 20
227.7214800242782928
 30
0.0
 11
4233.1589424919666271
 21
227.6635092660687008
 31
0.0
  0
LINE
  5
6D3A
  8
0
 10
4234.2675589164391567
 20
225.6499264674318113
 30
0.0
 11
4233.7414443482666684
 21
225.2908461621782976
 31
0.0
  0
LINE
  5
6D3B
  8
0
 10
4233.3142190759672303
 20
227.8550055545782982
 30
0.0
 11
4233.5385809684667038
 21
227.871811212578308
 31
0.0
  0
LINE
  5
6D3C
  8
0
 10
4233.2875369424464225
 20
227.6981128805167032
 30
0.0
 11
4233.2846356773479783
 21
227.8522689639235068
 31
0.0
  0
LINE
  5
6D3D
  8
0
 10
4233.4003753817669349
 20
227.7728748468782953
 30
0.0
 11
4233.3976202667590769
 21
227.8612526577454958
 31
0.0
  0
LINE
  5
6D3E
  8
0
 10
4233.4655790784672718
 20
226.4697502073782971
 30
0.0
 11
4233.4600805766540361
 21
226.7847591643441092
 31
0.0
  0
LINE
  5
6D3F
  8
0
 10
4233.5977413630671435
 20
227.9366006194636043
 30
0.0
 11
4233.5930913124666404
 21
228.2243493479782899
 31
0.0
  0
LINE
  5
6D40
  8
0
 10
4233.6157505827668501
 20
226.8622820638798885
 30
0.0
 11
4233.6157505827668501
 21
226.4699247314783008
 31
0.0
  0
LINE
  5
6D41
  8
0
 10
4233.6277505773678058
 20
226.5316850589782973
 30
0.0
 11
4233.6277505743782967
 21
226.8688432279334961
 31
0.0
  0
LINE
  5
6D42
  8
0
 10
4233.8211713180671723
 20
227.5282394455782935
 30
0.0
 11
4233.8700134740665817
 21
227.1046447474782894
 31
0.0
  0
LINE
  5
6D43
  8
0
 10
4235.7257505827674322
 20
226.8922985153782861
 30
0.0
 11
4235.7257505827674322
 21
226.8575767337684113
 31
0.0
  0
LINE
  5
6D44
  8
0
 10
4236.9313820788665907
 20
225.6499247314783076
 30
0.0
 11
4236.9313820788665907
 21
225.064958471878299
 31
0.0
  0
LINE
  5
6D45
  8
0
 10
4237.2313820788667726
 20
225.064958471878299
 30
0.0
 11
4237.2313820788667726
 21
225.6499247314783076
 31
0.0
  0
LINE
  5
6D46
  8
0
 10
4239.6703447808677083
 20
222.4608523856782938
 30
0.0
 11
4239.6703447860672895
 21
222.8503015361783071
 31
0.0
  0
LINE
  5
6D47
  8
0
 10
4240.0674193738477697
 20
223.034194145678299
 30
0.0
 11
4240.0674194169678231
 21
222.4709186063782909
 31
0.0
  0
LINE
  5
6D48
  8
0
 10
4240.4626320788665907
 20
225.7546172409782912
 30
0.0
 11
4240.4626320788665907
 21
225.7237729835783
 31
0.0
  0
LINE
  5
6D49
  8
0
 10
4240.7626320788676821
 20
225.7264973037783022
 30
0.0
 11
4240.7626320788676821
 21
225.7516342692782985
 31
0.0
  0
LINE
  5
6D4A
  8
0
 10
4242.0868748583679917
 20
222.0233179118783085
 30
0.0
 11
4242.038193740267161
 21
223.3790841600782926
 31
0.0
  0
LINE
  5
6D4B
  8
0
 10
4242.8899717146668991
 20
225.2534196077783122
 30
0.0
 11
4243.0505645459679727
 21
220.7809187928783103
 31
0.0
  0
LINE
  5
6D4C
  8
0
 10
4244.2016152633668753
 20
226.2375704449783029
 30
0.0
 11
4244.2851521241673254
 21
225.9258066359782902
 31
0.0
  0
LINE
  5
6D4D
  8
0
 10
4243.8774244896667369
 20
213.1129481117783087
 30
0.0
 11
4244.2167804926666577
 21
214.8097281270783014
 31
0.0
  0
ARC
  5
6D4E
  8
0
 10
4223.292155656066825
 20
223.5730711424783124
 30
0.0
 40
10.5141184841000008
 50
10.2652480271963995
 51
11.3925624074572003
  0
ARC
  5
6D4F
  8
0
 10
4218.6461678967452826
 20
227.33254884719301
 30
0.0
 40
0.0933039894010934
 50
1.8525513858213141
 51
86.8511933640343585
  0
ARC
  5
6D50
  8
0
 10
4219.2536734033092216
 20
226.5198850292634063
 30
0.0
 40
0.0599603104784031
 50
180.9627185090220962
 51
270.03728149095042
  0
ARC
  5
6D51
  8
0
 10
4247.6856654660196
 20
-771.6165190967188892
 30
0.0
 40
999.9999787209662827
 50
90.8109580177276285
 51
91.7810619964883472
  0
ARC
  5
6D52
  8
0
 10
4226.4350760683682893
 20
227.0947882644744027
 30
0.0
 40
10.5600903244958708
 50
288.1675136900000211
 51
289.4262485039387229
  0
ARC
  5
6D53
  8
0
 10
4231.4594506666671805
 20
222.9167409570783036
 30
0.0
 40
8.0098369584000011
 50
266.9195356965973929
 51
276.7486581660178899
  0
ARC
  5
6D54
  8
0
 10
4234.9570840879123352
 20
212.1022351161541053
 30
0.0
 40
2.7083659926400889
 50
90.0001961828431689
 51
99.8573442067413453
  0
ARC
  5
6D55
  8
0
 10
4234.957067835167436
 20
212.1023603741782892
 30
0.0
 40
2.708239484599956
 50
131.0492054538761977
 51
169.0438691640009949
  0
ARC
  5
6D56
  8
0
 10
4233.3777097785678052
 20
227.0073800885782873
 30
0.0
 40
0.85
 50
94.283694527090546
 51
119.603695401203197
  0
ARC
  5
6D57
  8
0
 10
4233.4755686971902833
 20
226.4699157172287869
 30
0.0
 40
0.0099909896774732
 50
180.9492000247223018
 51
270.0507999752912269
  0
ARC
  5
6D58
  8
0
 10
4232.9131848115666799
 20
227.3803247314783107
 30
0.0
 40
0.75
 50
270.0
 51
287.7292538559174773
  0
ARC
  5
6D59
  8
0
 10
4231.5746250884212714
 20
230.1809247315923983
 30
0.0
 40
2.800000000122211
 50
269.9998620654782258
 51
299.603511587954074
  0
ARC
  5
6D5A
  8
0
 10
4233.552063542491851
 20
227.3387178159470068
 30
0.0
 40
0.3760111056030418
 50
64.4747718637410117
 51
89.3398293930711844
  0
ARC
  5
6D5B
  8
0
 10
4233.8711372396728621
 20
227.0240613169403048
 30
0.0
 40
0.2246434905070214
 50
56.2979233034836071
 51
94.5074264502473653
  0
ARC
  5
6D5C
  8
0
 10
4233.6058036140184413
 20
226.4698717002372064
 30
0.0
 40
0.0099471101137855
 50
269.6945464948556719
 51
0.305463663038683
  0
ARC
  5
6D5D
  8
0
 10
4234.4858526953667024
 20
227.9299161618783103
 30
0.0
 40
0.8701021125
 50
235.7206198325870901
 51
269.0861725110144107
  0
ARC
  5
6D5E
  8
0
 10
4233.6324218878671672
 20
227.506475883978311
 30
0.0
 40
0.19
 50
6.577385430299751
 51
64.5431187590183839
  0
ARC
  5
6D5F
  8
0
 10
4233.5203021921215623
 20
227.777066444913487
 30
0.0
 40
0.1200000389003351
 50
182.0017471885801967
 51
211.0490237221160044
  0
ARC
  5
6D60
  8
0
 10
4233.5331043067089922
 20
228.2233050078446013
 30
0.0
 40
0.059996095757914
 50
0.997386636391851
 51
90.8150824401218699
  0
ARC
  5
6D61
  8
0
 10
4235.5757486584452636
 20
226.8922965264902132
 30
0.0
 40
0.1500019243350769
 50
0.0007596895452684
 51
89.0853203534186093
  0
ARC
  5
6D62
  8
0
 10
4239.9194522439684079
 20
218.4412828954783095
 30
0.0
 40
3.6217814787
 50
90.5664234938103334
 51
91.0336593995227901
  0
ARC
  5
6D63
  8
0
 10
4238.9600796826671285
 20
217.2523444980876093
 30
0.0
 40
2.4417433893349041
 50
270.000262591049875
 51
13.5677289185169698
  0
ARC
  5
6D64
  8
0
 10
4239.0422477304673521
 20
218.7208210142783003
 30
0.0
 40
0.2000003717
 50
141.9998690034030062
 51
234.9048514630887041
  0
ARC
  5
6D65
  8
0
 10
4242.5550040185671605
 20
213.3774447732783131
 30
0.0
 40
1.3486120220999991
 50
340.556550733607196
 51
348.6895439737959919
  0
ARC
  5
6D66
  8
0
 10
4244.1966570433669403
 20
227.079924731478286
 30
0.0
 40
0.6200000000000001
 50
269.9999477729089108
 51
359.000023470199892
  0
ARC
  5
6D67
  8
0
 10
4243.8822453508264516
 20
226.1213594716791988
 30
0.0
 40
0.3398560450411872
 50
19.9952206603018716
 51
85.0047793396861238
  0
ARC
  5
6D68
  8
0
 10
4244.1801828591942467
 20
225.9063523859329905
 30
0.0
 40
0.1067568004406208
 50
274.5003447338983165
 51
10.4996552658864601
  0
ARC
  5
6D69
  8
0
 10
4275.5939246915359035
 20
226.5708528947153013
 30
0.0
 40
40.0483288603858867
 50
179.8413279604702097
 51
180.1587013463594928
  0
LINE
  5
6D6A
  8
0
 10
4216.0457506236671179
 20
226.7149242890783114
 30
0.0
 11
4216.1690815482679682
 21
227.0944991669782951
 31
0.0
  0
LINE
  5
6D6B
  8
0
 10
4244.2228820788677695
 20
216.7244995362783015
 30
0.0
 11
4244.2228494272667376
 21
214.8741203837782905
 31
0.0
  0
LINE
  5
6D6C
  8
0
 10
4216.3525330371658129
 20
226.4599247314783099
 30
0.0
 11
4244.1966570433669403
 21
226.4599247314783099
 31
0.0
  0
LINE
  5
6D6D
  8
0
 10
4216.1157478372424521
 20
226.6303247314783107
 30
0.0
 11
4232.9131848115666799
 21
226.6303247314783107
 31
0.0
  0
LINE
  5
6D6E
  8
0
 10
4216.3316912665486598
 20
227.2325489687974027
 30
0.0
 11
4231.6305886486443342
 21
227.2325489687974027
 31
0.0
  0
ARC
  5
6D6F
  8
0
 10
4216.1247053328888796
 20
226.7092788454112906
 30
0.0
 40
0.0794606118477276
 50
186.4701861865661101
 51
263.5273597618427175
  0
ARC
  5
6D70
  8
0
 10
4216.3709437261277344
 20
227.0215188540045972
 30
0.0
 40
0.2146496329663043
 50
100.5368331644816067
 51
160.1232855125801109
  0
LINE
  5
6D71
  8
0
 10
4216.3234966501677263
 20
227.5691516693783001
 30
0.0
 11
4216.3748731910673087
 21
227.7275638438783005
 31
0.0
  0
ARC
  5
6D72
  8
0
 10
4216.6381885763457831
 20
227.6164494330643038
 30
0.0
 40
0.285799587849338
 50
96.6127969637737465
 51
157.1211199333365869
  0
ARC
  5
6D73
  8
0
 10
4233.5322367722928902
 20
227.937009137965191
 30
0.0
 40
0.0655058646218433
 50
275.5577669435313055
 51
359.6426802721229024
  0
ARC
  5
6D74
  8
0
 10
4216.3941980591507672
 20
227.5607380065301015
 30
0.0
 40
0.0713814945743562
 50
187.9153418997589995
 51
256.3462011194555998
  0
ARC
  5
6D75
  8
0
 10
4222.8337065937439547
 20
411.6751040313017143
 30
0.0
 40
184.2968558010508957
 50
267.9923813835388273
 51
270.3087897787557949
  0
ARC
  5
6D76
  8
0
 10
4218.8316995452169067
 20
227.2914120003052005
 30
0.0
 40
0.0914894072129385
 50
181.3099035657936042
 51
220.044793591730695
  0
ARC
  5
6D77
  8
0
 10
4219.7299214692720852
 20
227.3131271074776123
 30
0.0
 40
0.1250913824366673
 50
319.8977105433903034
 51
352.4034271709825816
  0
ARC
  5
6D78
  8
0
 10
4227.83464549661403
 20
227.3507805385754921
 30
0.0
 40
0.0775004638910573
 50
183.2683413328456936
 51
273.1286096539851087
  0
ARC
  5
6D79
  8
0
 10
4228.3962944680806686
 20
252.8206542379107873
 30
0.0
 40
25.5533391320490608
 50
268.7500537323708727
 51
271.3284626433356834
  0
ARC
  5
6D7A
  8
0
 10
4228.9783667965975837
 20
227.3452617729444114
 30
0.0
 40
0.071828723761174
 50
278.2891907295796727
 51
358.5995794288019738
  0
ARC
  5
6D7B
  8
0
 10
4229.0765827704290132
 20
227.3539669921281927
 30
0.0
 40
0.0278949816250615
 50
104.8944363322063964
 51
159.0825641607735008
  0
ARC
  5
6D7C
  8
0
 10
4231.5854422981956304
 20
230.1812441469915882
 30
0.0
 40
2.9490407672435168
 50
270.8771653538444752
 51
299.0378104099785901
  0
ARC
  5
6D7D
  8
0
 10
4233.4835409442703167
 20
226.7085915134832135
 30
0.0
 40
1.008746799026687
 50
85.8583073631162819
 51
117.5567535539071997
  0
ARC
  5
6D7E
  8
0
 10
4232.8912093850076417
 20
227.7089645348887075
 30
0.0
 40
0.2661019129832005
 50
2.6957692642235949
 51
24.9546442181537493
  0
ARC
  5
6D7F
  8
0
 10
4232.4471219813622156
 20
229.0138907775157975
 30
0.0
 40
2.4484919572292232
 50
286.4766481560379816
 51
303.040397815362212
  0
ARC
  5
6D80
  8
0
 10
4233.6624175422666667
 20
227.1333850193747139
 30
0.0
 40
0.2095759387908322
 50
304.8294461721246762
 51
352.1178844045355163
  0
ARC
  5
6D81
  8
0
 10
4233.9050286303518078
 20
227.0263140875094052
 30
0.0
 40
0.5670458487041451
 50
240.7259777227178006
 51
267.2426912866006887
  0
ARC
  5
6D82
  8
0
 10
4235.663529885610842
 20
226.8683996836271888
 30
0.0
 40
0.0631549792044719
 50
296.0249498642800745
 51
350.1324420416834187
  0
ARC
  5
6D83
  8
0
 10
4235.3487114500458119
 20
227.4500253970238077
 30
0.0
 40
0.7244659492714073
 50
289.555283076927708
 51
298.2162917688604011
  0
ARC
  5
6D84
  8
0
 10
4235.6072099298044122
 20
226.7112247052934038
 30
0.0
 40
0.0583610367743907
 50
105.9198281096396954
 51
163.4928850028624083
  0
ARC
  5
6D85
  8
0
 10
4235.6937394021606451
 20
226.6874206399062928
 30
0.0
 40
0.1480981984809808
 50
164.1749777674149016
 51
182.1902827445688899
  0
ARC
  5
6D86
  8
0
 10
4218.5840108468382823
 20
229.2904303524992997
 30
0.0
 40
2.8106476990750671
 50
251.1625918392969936
 51
269.4238975081634067
  0
ARC
  5
6D87
  8
0
 10
4219.0905930064691347
 20
226.532226842710088
 30
0.0
 40
0.1032233974054276
 50
5.6757554580765266
 51
71.8256643609677639
  0
ARC
  5
6D88
  8
0
 10
4220.1188802140386542
 20
226.5348908074149961
 30
0.0
 40
0.0752764240275676
 50
275.2045358045389207
 51
313.0976931736341271
  0
ARC
  5
6D89
  8
0
 10
4230.7957800047961427
 20
232.355396087382303
 30
0.0
 40
5.8802541425785044
 50
272.3110509932055265
 51
283.1923180721016138
  0
ARC
  5
6D8A
  8
0
 10
4228.6962190948606803
 20
226.5728156631728041
 30
0.0
 40
0.0772821937089972
 50
2.8065499091089641
 51
48.0856137922595011
  0
ARC
  5
6D8B
  8
0
 10
4228.83367359820204
 20
226.5803021556392025
 30
0.0
 40
0.0603786311167001
 50
183.5156143935975024
 51
269.6377216383039013
  0
ARC
  5
6D8C
  8
0
 10
4229.3218296781533354
 20
226.5806428220554949
 30
0.0
 40
0.0607201067241118
 50
270.4669105178056157
 51
347.8628843350638249
  0
ARC
  5
6D8D
  8
0
 10
4229.466460603147425
 20
226.5449599096839961
 30
0.0
 40
0.0882938648556885
 50
104.7993695192817967
 51
164.9568251403458987
  0
ARC
  5
6D8E
  8
0
 10
4216.403979882808926
 20
226.0886611912185913
 30
0.0
 40
0.3748111447817436
 50
97.8893664625912265
 51
153.7635371532057036
  0
ARC
  5
6D8F
  8
0
 10
4280.1037826873707672
 20
214.4131222894129962
 30
0.0
 40
65.1216101284932449
 50
169.5234759455545941
 51
171.5175401928032102
  0
ARC
  5
6D90
  8
0
 10
4221.7883462663212413
 20
226.8868478172406071
 30
0.0
 40
6.7349203708309
 50
205.2025054656716065
 51
250.9850498351779038
  0
ARC
  5
6D91
  8
0
 10
4219.5490452543535866
 20
220.320645854874499
 30
0.0
 40
0.2038039110535533
 50
353.5084608389444725
 51
77.2543543988269903
  0
ARC
  5
6D92
  8
0
 10
4065.2019492773788443
 20
239.1939025663527048
 30
0.0
 40
155.7005036682853927
 50
349.8090225390545243
 51
353.0292216822866749
  0
ARC
  5
6D93
  8
0
 10
4218.6381607818084376
 20
211.6587691472419124
 30
0.0
 40
0.1925534949394707
 50
183.8468512570497921
 51
256.7493701663948968
  0
ARC
  5
6D94
  8
0
 10
4244.0380142970489032
 20
211.6324030551087105
 30
0.0
 40
0.1615882998761568
 50
274.6299823760376171
 51
4.7738043014131248
  0
LINE
  5
6D95
  8
0
 10
4230.3064243138933307
 20
225.7766721383765116
 30
0.0
 11
4230.1849079263220119
 21
226.4599247314783099
 31
0.0
  0
ARC
  5
6D96
  8
0
 10
4233.2290553728771556
 20
255.2685067236280076
 30
0.0
 40
29.6362966564780592
 50
264.3404857987414971
 51
268.0188664058860013
  0
ARC
  5
6D97
  8
0
 10
4233.7195194558089497
 20
225.3216916739220892
 30
0.0
 40
0.0378437115519841
 50
227.5775689515361933
 51
305.4050947309513049
  0
ARC
  5
6D98
  8
0
 10
4233.8671404081260334
 20
225.4438978645812028
 30
0.0
 40
0.2291802087900181
 50
179.2884275080299119
 51
220.9292627821569113
  0
ARC
  5
6D99
  8
0
 10
4237.0825616542106218
 20
225.0406701646193994
 30
0.0
 40
0.1531182089088321
 50
170.8729304657354078
 51
9.6673600822507222
  0
ARC
  5
6D9A
  8
0
 10
4238.2545289022373254
 20
229.4267079137557062
 30
0.0
 40
3.7767783195718061
 50
269.9801351868409824
 51
286.026353342707921
  0
ARC
  5
6D9B
  8
0
 10
4239.3254780451179613
 20
225.6811616179298028
 30
0.0
 40
0.1189582340267057
 50
93.2820952617873758
 51
103.7418305884663994
  0
ARC
  5
6D9C
  8
0
 10
4242.5221445937331737
 20
225.7041799588311051
 30
0.0
 40
0.0404315031589953
 50
194.6366948385143871
 51
280.2943187299744068
  0
ARC
  5
6D9D
  8
0
 10
4242.797574433247064
 20
225.7773293791152867
 30
0.0
 40
0.325409154795013
 50
176.0183636601167905
 51
194.8440091166833099
  0
ARC
  5
6D9E
  8
0
 10
4242.5895406812342117
 20
225.2424234421914093
 30
0.0
 40
0.3006322030443986
 50
2.0961641512606901
 51
38.5318695973150014
  0
ARC
  5
6D9F
  8
0
 10
4243.0280827300430246
 20
225.5892506302702998
 30
0.0
 40
0.2584852604117482
 50
154.6555787070105907
 51
218.1151341011266993
  0
ARC
  5
6DA0
  8
0
 10
4243.3047592347329555
 20
220.7911368184510934
 30
0.0
 40
0.254399976106689
 50
182.301915573093595
 51
214.3753246915740078
  0
ARC
  5
6DA1
  8
0
 10
4233.6822342975838183
 20
215.817139224597895
 30
0.0
 40
10.5796294067552896
 50
4.9200080687005254
 51
27.1661121347756804
  0
ARC
  5
6DA2
  8
0
 10
4243.9139559164150342
 20
214.8707513046140036
 30
0.0
 40
0.3089118834575634
 50
348.6067219332804825
 51
0.624896141264324
  0
ARC
  5
6DA3
  8
0
 10
4244.015630942525604
 20
212.8621815421730901
 30
0.0
 40
0.2002352725461628
 50
160.6510004377194036
 51
234.0187884739522133
  0
ARC
  5
6DA4
  8
0
 10
4243.6630009716109271
 20
212.3757388687820082
 30
0.0
 40
0.4005762362135432
 50
10.1182084122432698
 51
54.0821768641840706
  0
ARC
  5
6DA5
  8
0
 10
4169.1927107285828242
 20
198.7778478691566022
 30
0.0
 40
76.1021368784718391
 50
9.7348319190505155
 51
10.3467069323450893
  0
ARC
  5
6DA6
  8
0
 10
4218.0525466733151916
 20
202.585399024075798
 30
0.0
 40
18.0001526817761999
 50
79.4737349007152289
 51
85.0873971880262303
  0
ARC
  5
6DA7
  8
0
 10
4228.116816423446835
 20
254.8093663106930933
 30
0.0
 40
35.1853388036911383
 50
258.8967825370614264
 51
270.8873585129607022
  0
ARC
  5
6DA8
  8
0
 10
4228.7957583115148736
 20
218.9207750556442988
 30
0.0
 40
0.7200573813771444
 50
52.7854327378398906
 51
100.7280348844439999
  0
ARC
  5
6DA9
  8
0
 10
4182.3715669750918096
 20
177.7369894207479035
 30
0.0
 40
62.76540060937063
 50
41.4429865534203401
 51
41.7046124702223793
  0
ARC
  5
6DAA
  8
0
 10
4225.3309656072124199
 20
232.7143189835448993
 30
0.0
 40
14.0434364083760297
 50
286.9341617161416025
 51
299.3148410899752889
  0
ARC
  5
6DAB
  8
0
 10
4229.567822410138433
 20
225.2221146299337136
 30
0.0
 40
5.4363272157234013
 50
299.0402898926869852
 51
338.2313215945599154
  0
ARC
  5
6DAC
  8
0
 10
4232.9214556911210821
 20
223.6848623336057074
 30
0.0
 40
1.7613667187710129
 50
344.2243463342218206
 51
9.252811683971073
  0
ARC
  5
6DAD
  8
0
 10
4222.8132121870794435
 20
223.0803081703060968
 30
0.0
 40
11.8799092479008692
 50
4.2856144143969903
 51
12.4917772207998201
  0
ARC
  5
6DAE
  8
0
 10
4229.4851595689769965
 20
219.0594435508378126
 30
0.0
 40
0.2293904495438995
 50
106.1291221226660042
 51
171.007972397972992
  0
ARC
  5
6DAF
  8
0
 10
4246.9760363808773036
 20
220.0643985976595047
 30
0.0
 40
17.743932061085161
 50
183.1308221865864994
 51
188.7147055307667074
  0
ARC
  5
6DB0
  8
0
 10
4230.056446940706337
 20
217.5458803485377075
 30
0.0
 40
0.6423772830919925
 50
195.3406062922377942
 51
225.0635510697227915
  0
ARC
  5
6DB1
  8
0
 10
4229.6917978547444363
 20
217.186863270353598
 30
0.0
 40
0.1307519542788093
 50
227.0577747947343994
 51
285.9245946734076824
  0
ARC
  5
6DB2
  8
0
 10
4230.1332134785952803
 20
217.1599962554014951
 30
0.0
 40
0.1874806586592947
 50
107.515288305392005
 51
187.3906905059465089
  0
ARC
  5
6DB3
  8
0
 10
4224.7721050272321008
 20
232.0779776936298902
 30
0.0
 40
15.6647210363037708
 50
289.7939714357452772
 51
303.151763982617581
  0
ARC
  5
6DB4
  8
0
 10
4153.8848018421385859
 20
211.9068811371566881
 30
0.0
 40
76.2420132975559852
 50
2.9222368074078391
 51
3.9326732695777391
  0
ARC
  5
6DB5
  8
0
 10
4231.5172199773842294
 20
215.7734565502489943
 30
0.0
 40
1.4896845000963559
 50
179.2198207116614981
 51
215.7947490834459074
  0
ARC
  5
6DB6
  8
0
 10
4231.3281792007810509
 20
215.9097480483474953
 30
0.0
 40
1.4332242048739801
 50
224.6696840779229092
 51
245.1052050850551041
  0
ARC
  5
6DB7
  8
0
 10
4231.0276459565466212
 20
214.6156352777875895
 30
0.0
 40
0.3028456215610101
 50
89.7409363868974879
 51
181.1237704665379908
  0
ARC
  5
6DB8
  8
0
 10
4231.7028604097949938
 20
213.3560395605977078
 30
0.0
 40
0.9114766533030431
 50
189.691992219848288
 51
266.6161061978787075
  0
ARC
  5
6DB9
  8
0
 10
4229.9468736216440448
 20
213.3248977006998075
 30
0.0
 40
0.9113736549651225
 50
189.661455194815801
 51
266.3076353320666954
  0
ARC
  5
6DBA
  8
0
 10
3829.1146072333021948
 20
217.6075865307209938
 30
0.0
 40
399.9584160702307258
 50
359.3645621102094196
 51
0.243764436886097
  0
ARC
  5
6DBB
  8
0
 10
4229.2958411920781145
 20
219.2744108120402018
 30
0.0
 40
0.2290947081238395
 50
106.3760384118112938
 51
171.2652294517438065
  0
ARC
  5
6DBC
  8
0
 10
4226.0735754677625664
 20
228.1889542962086921
 30
0.0
 40
11.7429016558021004
 50
308.2186760551771272
 51
326.4732191447117771
  0
ARC
  5
6DBD
  8
0
 10
4237.6760376460351836
 20
220.2919855740572075
 30
0.0
 40
2.2975970680289328
 50
107.9425805235432989
 51
142.1104033394381929
  0
ARC
  5
6DBE
  8
0
 10
4239.4697126385399315
 20
222.8499679195234933
 30
0.0
 40
0.2006324226990855
 50
0.0952727689590483
 51
98.9089789033734235
  0
ARC
  5
6DBF
  8
0
 10
4238.6888402861377472
 20
222.1924695968428978
 30
0.0
 40
1.0175364340001041
 50
3.6924928210732268
 51
15.2931318124762097
  0
ARC
  5
6DC0
  8
0
 10
4239.9603598876774413
 20
222.2745197450126966
 30
0.0
 40
0.2566277328831489
 50
183.6907015302504078
 51
222.8099389809551951
  0
ARC
  5
6DC1
  8
0
 10
4239.8582380859452314
 20
222.1796255472075075
 30
0.0
 40
0.1172230403126016
 50
222.7039945973712918
 51
267.9848569722282718
  0
ARC
  5
6DC2
  8
0
 10
4239.8753959991463489
 20
222.1762542075450142
 30
0.0
 40
0.1136667542595946
 50
274.1632622091970006
 51
315.30778648628052
  0
ARC
  5
6DC3
  8
0
 10
4239.7678133988983973
 20
222.2841707596242884
 30
0.0
 40
0.2660462896931119
 50
315.0806443383771125
 51
356.7910187121387935
  0
ARC
  5
6DC4
  8
0
 10
4241.1914611721022084
 20
222.1778321812579122
 30
0.0
 40
1.1616236567304721
 50
165.3858964555950024
 51
175.4848653086760066
  0
ARC
  5
6DC5
  8
0
 10
4240.2685727282496373
 20
223.0339560067947957
 30
0.0
 40
0.2011534953649831
 50
107.4277762681089996
 51
179.9321694304973107
  0
ARC
  5
6DC6
  8
0
 10
4239.8946763637595723
 20
223.3421716858433115
 30
0.0
 40
0.0579529620171881
 50
55.1366101713977272
 51
100.9701432430871932
  0
ARC
  5
6DC7
  8
0
 10
4239.5684730127995863
 20
223.0927786165553073
 30
0.0
 40
0.4661485238250985
 50
4.0758502243041841
 51
39.5697334636740408
  0
ARC
  5
6DC8
  8
0
 10
4240.159924738074551
 20
223.120614897783895
 30
0.0
 40
0.1265930045672939
 50
177.6022633589514896
 51
223.0523340621269881
  0
ARC
  5
6DC9
  8
0
 10
4239.9606631030701465
 20
223.2509851321727865
 30
0.0
 40
0.1778912072328418
 50
126.7943580393496035
 51
161.2615582887626999
  0
ARC
  5
6DCA
  8
0
 10
4240.902691388416315
 20
222.840534320158298
 30
0.0
 40
1.2049219102837729
 50
157.1653292998344114
 51
174.0221011321071103
  0
ARC
  5
6DCB
  8
0
 10
4239.5395137131890806
 20
222.951563154306001
 30
0.0
 40
0.165440879053614
 50
322.2605753392246015
 51
5.0133615393439488
  0
ARC
  5
6DCC
  8
0
 10
4239.469979231119396
 20
222.4635422570852086
 30
0.0
 40
0.2003836044534519
 50
276.6057186066337863
 51
359.2308606866458263
  0
ARC
  5
6DCD
  8
0
 10
4240.267861721643385
 20
222.4736920433053058
 30
0.0
 40
0.200461491204845
 50
180.7927273195219868
 51
264.8871975254896256
  0
ARC
  5
6DCE
  8
0
 10
4239.915333704526347
 20
218.4810964261835124
 30
0.0
 40
3.8068883383806118
 50
96.3690039058629253
 51
142.1314752999813891
  0
ARC
  5
6DCF
  8
0
 10
4193.3058539833737086
 20
253.6075633653356078
 30
0.0
 40
54.5571976258874898
 50
320.8931431570147765
 51
323.0574943045696159
  0
ARC
  5
6DD0
  8
0
 10
4233.0299401157717512
 20
221.6923512455794878
 30
0.0
 40
3.6131182361705472
 50
277.1350451199915028
 51
316.266665054240093
  0
ARC
  5
6DD1
  8
0
 10
4233.4358868602703296
 20
218.4043757355684932
 30
0.0
 40
0.3002343736467816
 50
167.2294673912695941
 51
278.2020901027024138
  0
LINE
  5
6DD2
  8
0
 10
4233.1430793337676732
 20
218.4707416269783096
 30
0.0
 11
4233.2420171526673585
 21
218.8426019090782972
 31
0.0
  0
ARC
  5
6DD3
  8
0
 10
4233.5429490803935551
 20
218.7004950822887963
 30
0.0
 40
0.3327977994906118
 50
127.9052891512134948
 51
154.7222648212041918
  0
ARC
  5
6DD4
  8
0
 10
4232.3262150518103226
 20
215.5929584935838932
 30
0.0
 40
0.6349423884964815
 50
276.7386637965996101
 51
296.8254220816368161
  0
ARC
  5
6DD5
  8
0
 10
4232.7472703331368393
 20
214.7572239464278994
 30
0.0
 40
0.3008695191828874
 50
91.0788777210826055
 51
116.5585884727181991
  0
ARC
  5
6DD6
  8
0
 10
4234.3819302489973779
 20
209.5483013987633001
 30
0.0
 40
5.7096568181874128
 50
89.9858356692708838
 51
105.1044965115309964
  0
ARC
  5
6DD7
  8
0
 10
4232.8164368753959934
 20
221.3875623066327023
 30
0.0
 40
6.3267084130667524
 50
284.3393878313132177
 51
321.9696435045299268
  0
ARC
  5
6DD8
  8
0
 10
4378.7981236366367739
 20
105.652383857504006
 30
0.0
 40
179.9669771750085943
 50
141.0267535083594055
 51
141.5791411799517903
  0
ARC
  5
6DD9
  8
0
 10
4240.8310305069626338
 20
217.541275859531396
 30
0.0
 40
2.3420897511535901
 50
131.090103393151594
 51
146.2063651302586891
  0
ARC
  5
6DDA
  8
0
 10
4239.9244491082290551
 20
218.4576042988549034
 30
0.0
 40
1.0587323677071929
 50
29.3175027979557505
 51
126.7013814508325993
  0
ARC
  5
6DDB
  8
0
 10
4237.7353848771754201
 20
216.9833743705486881
 30
0.0
 40
3.695450298536274
 50
13.1670487061763204
 51
32.6301200130001519
  0
ARC
  5
6DDC
  8
0
 10
4239.7778468703018007
 20
219.6623261008296026
 30
0.0
 40
1.3945763172172081
 50
232.4159411829070052
 51
319.6621276227995168
  0
ARC
  5
6DDD
  8
0
 10
4240.6539435806271285
 20
218.8737354732774065
 30
0.0
 40
0.218986159021779
 50
328.5950884307151796
 51
27.8425034634241406
  0
ARC
  5
6DDE
  8
0
 10
4232.0767040115069904
 20
212.6828713076361055
 30
0.0
 40
0.2310520050270366
 50
278.2204681504754831
 51
343.4565944330686875
  0
ARC
  5
6DDF
  8
0
 10
4231.540150738014745
 20
219.2811154155016879
 30
0.0
 40
5.3913273654875242
 50
287.6916971632070954
 51
303.2149914038801057
  0
ARC
  5
6DE0
  8
0
 10
4234.4923140017390324
 20
214.98265701097489
 30
0.0
 40
0.2120422727751965
 50
197.9121354269003064
 51
270.2998248147400773
  0
ARC
  5
6DE1
  8
0
 10
4233.0241500402253223
 20
214.2786444346334918
 30
0.0
 40
0.204356758274957
 50
319.0719143812053176
 51
16.6894159093485897
  0
ARC
  5
6DE2
  8
0
 10
4232.8494792525152661
 20
214.835979081909187
 30
0.0
 40
0.2291112869529952
 50
18.2683112219036197
 51
78.7679381679931652
  0
ARC
  5
6DE3
  8
0
 10
4234.0664708966769467
 20
212.6857273779349953
 30
0.0
 40
0.6796211569599682
 50
22.222508460788859
 51
157.478446687870786
  0
ARC
  5
6DE4
  8
0
 10
4232.4017570042178704
 20
212.2399789118746867
 30
0.0
 40
2.3990983277816311
 50
6.2441669383012934
 51
17.033861204285401
  0
ARC
  5
6DE5
  8
0
 10
4235.8961849208608328
 20
212.2022011675068995
 30
0.0
 40
2.5676113670746168
 50
163.1598840081987021
 51
173.8848034426652873
  0
ARC
  5
6DE6
  8
0
 10
4243.2408273310720688
 20
213.6021532876858089
 30
0.0
 40
0.9535474865698045
 50
271.427800524528493
 51
293.8141431240056249
  0
ARC
  5
6DE7
  8
0
 10
4243.7221525393570118
 20
212.3498968141880141
 30
0.0
 40
0.3919121229034661
 50
63.3421098123933319
 51
104.2258367239047061
  0
ARC
  5
6DE8
  8
0
 10
4234.4606854926087181
 20
215.0694865304342898
 30
0.0
 40
0.2037242357915645
 50
112.3119526248701021
 51
193.9596602574706878
  0
ARC
  5
6DE9
  8
0
 10
4239.9203357225405853
 20
218.4798007771408095
 30
0.0
 40
3.8085217714475479
 50
61.4488051247979712
 51
85.0343256003112771
  0
ARC
  5
6DEA
  8
0
 10
4241.8031030760421345
 20
222.1175819856713076
 30
0.0
 40
0.2990186282696362
 50
257.9336856865343748
 51
341.6244059882071724
  0
ARC
  5
6DEB
  8
0
 10
4241.7566414889279258
 20
223.2919368052297102
 30
0.0
 40
0.2947309479706098
 50
17.1985838277316283
 51
97.8192922076978562
  0
ARC
  5
6DEC
  8
0
 10
4241.3618298078163207
 20
224.5085715775921926
 30
0.0
 40
0.990347806191988
 50
282.7556545689645873
 51
290.9879082371717232
  0
ARC
  5
6DED
  8
0
 10
4223.8344660191369258
 20
199.8676336333344068
 30
0.0
 40
28.3330699604058793
 50
47.1733581375985693
 51
50.8031348391911379
  0
ARC
  5
6DEE
  8
0
 10
4241.3249917323801128
 20
224.1769163605966071
 30
0.0
 40
0.7105974949925339
 50
303.4368653593392082
 51
353.466797840778213
  0
ARC
  5
6DEF
  8
0
 10
4356.9632831802691726
 20
214.5109602129398922
 30
0.0
 40
115.3313044202292019
 50
174.7308285081579129
 51
175.2326884376780924
  0
ARC
  5
6DF0
  8
0
 10
4242.4152639604908472
 20
225.0853957274173069
 30
0.0
 40
0.2964120305577651
 50
113.9862679544922059
 51
176.7133832984351045
  0
ARC
  5
6DF1
  8
0
 10
4241.8048929062242678
 20
226.6609760130046993
 30
0.0
 40
1.393696506216821
 50
290.5786501888603084
 51
314.4829228467464191
  0
ARC
  5
6DF2
  8
0
 10
4240.6133079589635599
 20
225.7141785642704122
 30
0.0
 40
0.1509809032015095
 50
176.3573610052345089
 51
5.0650909138515141
  0
ARC
  5
6DF3
  8
0
 10
4240.396811925397742
 20
225.7318062057588008
 30
0.0
 40
0.0681210286886121
 50
13.7808462102578098
 51
90.4911635219146291
  0
ARC
  5
6DF4
  8
0
 10
4240.8280165215519446
 20
225.7314916380775003
 30
0.0
 40
0.0684350899670429
 50
89.5521834728230886
 51
162.1414319439701046
  0
LINE
  5
6DF5
  8
0
 10
4237.9702605408665477
 20
227.050715926028289
 30
0.0
 11
4237.494092791807816
 21
237.1485982929663976
 31
0.0
  0
LINE
  5
6DF6
  8
0
 10
4237.4483598723018076
 20
238.118436427499006
 30
0.0
 11
4237.4025490132671621
 21
239.0899273917283097
 31
0.0
  0
LINE
  5
6DF7
  8
0
 10
4244.8165626232676004
 20
227.0691047473283106
 30
0.0
 11
4245.0282883803665754
 21
239.1988652491282892
 31
0.0
  0
LINE
  5
6DF8
  8
0
 10
4237.0439298492674425
 20
239.0899247314283116
 30
0.0
 11
4244.4356025731676709
 21
239.089924892828293
 31
0.0
  0
LINE
  5
6DF9
  8
0
 10
4245.0149629071665913
 20
239.3399247314283116
 30
0.0
 11
4244.9184894410673223
 21
239.3399247314283116
 31
0.0
  0
LINE
  5
6DFA
  8
0
 10
4245.078995630566169
 20
240.1024668349282933
 30
0.0
 11
4245.1540335201425478
 21
239.4577005065283117
 31
0.0
  0
ARC
  5
6DFB
  8
0
 10
4237.0527100663894089
 20
239.2084431190828013
 30
0.0
 40
0.1188431757609017
 50
182.4571718379968956
 51
265.7630872423345068
  0
ARC
  5
6DFC
  8
0
 10
4244.7400819541926467
 20
240.0277161176366008
 30
0.0
 40
0.3470592885499826
 50
12.4380059047268308
 51
78.7125735597642091
  0
ARC
  5
6DFD
  8
0
 10
4244.8761482312811495
 20
239.1937040598648139
 30
0.0
 40
0.1522276677829501
 50
1.942951961918203
 51
73.8505370221529631
  0
ARC
  5
6DFE
  8
0
 10
4244.9947183885706181
 20
239.5048253818744115
 30
0.0
 40
0.1661386922146096
 50
276.9990636954794923
 51
343.5219616511516278
  0
ARC
  5
6DFF
  8
0
 10
4244.4356026560317332
 20
239.5423536929079944
 30
0.0
 40
0.4524287977797285
 50
269.9999894932793154
 51
312.7718306617520057
  0
ARC
  5
6E00
  8
0
 10
4245.0359212005023437
 20
238.9970685261868084
 30
0.0
 40
0.3624094308878011
 50
108.9068568879829968
 51
143.969775548646993
  0
ARC
  5
6E01
  8
0
 10
4244.3360594933674292
 20
239.0733497853885865
 30
0.0
 40
7.403224783305598
 50
171.7903525994250913
 51
178.9938530430559922
  0
ARC
  5
6E02
  8
0
 10
4237.2853571177329286
 20
240.0873506161825048
 30
0.0
 40
0.2800000234549043
 50
91.7950768349818134
 51
171.1356021033822969
  0
ARC
  5
6E03
  8
0
 10
4241.05511955781094
 20
126.6692996823308022
 30
0.0
 40
113.7606823998050061
 50
88.1095056253964231
 51
91.9034154761000082
  0
ARC
  5
6E04
  8
0
 10
4238.6324839137532763
 20
227.1218019055779109
 30
0.0
 40
0.6660277862704147
 50
186.1269205838543996
 51
263.6000978852720209
  0
LINE
  5
6E07
  8
0
 10
4237.3706296152340656
 20
237.4090804006391977
 30
0.0
 11
4237.5948264415328595
 21
237.5811865394391873
 31
0.0
  0
LINE
  5
6E08
  8
0
 10
4237.4043220165340244
 20
238.0277636101166934
 30
0.0
 11
4237.5436837022325562
 21
238.3147057524392096
 31
0.0
  0
LINE
  5
6E09
  8
0
 10
4237.095687741933034
 20
237.6172338507392112
 30
0.0
 11
4237.0953063273345833
 21
237.6262058974392914
 31
0.0
  0
LINE
  5
6E0A
  8
0
 10
4237.5919623188328842
 20
237.6896346448392023
 30
0.0
 11
4237.5959350024340893
 21
237.5961848991391889
 31
0.0
  0
LINE
  5
6E0B
  8
0
 10
4237.6619275289340294
 20
236.9302847087097916
 30
0.0
 11
4237.74476523233443
 21
236.9336754115392125
 31
0.0
  0
LINE
  5
6E0C
  8
0
 10
4237.4372051064328843
 20
237.4076220601392038
 30
0.0
 11
4237.3930727546339767
 21
237.4049672464392131
 31
0.0
  0
LINE
  5
6E0D
  8
0
 10
4236.8985187205353213
 20
237.8334015833391959
 30
0.0
 11
4237.351751850634173
 21
237.8606661519393128
 31
0.0
  0
LINE
  5
6E0E
  8
0
 10
4237.5895848541331361
 20
237.7044848084393038
 30
0.0
 11
4237.1421104411328997
 21
237.6782598538391937
 31
0.0
  0
LINE
  5
6E0F
  8
0
 10
4237.1467407837335486
 20
237.5693399431391981
 30
0.0
 11
4237.5948264415328595
 21
237.5811865394391873
 31
0.0
  0
LINE
  5
6E10
  8
0
 10
4236.9171947260338129
 20
237.3940844440392084
 30
0.0
 11
4237.37072187213289
 21
237.4053743405393107
 31
0.0
  0
LINE
  5
6E11
  8
0
 10
4237.4178019541332105
 20
237.8640458370392992
 30
0.0
 11
4237.3736034348339672
 21
237.8629455793391969
 31
0.0
  0
LINE
  5
6E12
  8
0
 10
4237.4376684779335847
 20
237.2433510269391945
 30
0.0
 11
4237.6008800487334156
 21
236.9692716188392012
 31
0.0
  0
LINE
  5
6E13
  8
0
 10
4237.6011910228344277
 20
238.358863445739189
 30
0.0
 11
4237.6840287262339189
 21
238.3623728529499886
 31
0.0
  0
LINE
  5
6E14
  8
0
 10
4237.5895848541331361
 20
237.7044848084393038
 30
0.0
 11
4237.3515903499328488
 21
237.856942526939207
 31
0.0
  0
ARC
  5
6E15
  8
0
 10
4237.7713800176916266
 20
237.6504212184013909
 30
0.0
 40
0.9350710676320133
 50
171.7157721363857092
 51
193.144219465146108
  0
ARC
  5
6E16
  8
0
 10
4236.9183061835101398
 20
237.4537484527841968
 30
0.0
 40
0.0596743603002083
 50
195.5177922704874902
 51
268.9327827784607052
  0
ARC
  5
6E17
  8
0
 10
4236.9042429935861946
 20
237.7745432931320124
 30
0.0
 40
0.0591359926618575
 50
95.554841150539275
 51
169.6676252401699969
  0
ARC
  5
6E18
  8
0
 10
4237.1456784442079879
 20
237.6193647623055085
 30
0.0
 40
0.0500360979482903
 50
182.4408213420103095
 51
271.2165645931340805
  0
ARC
  5
6E19
  8
0
 10
4237.1453042579323665
 20
237.6283192949730108
 30
0.0
 40
0.0500425770046546
 50
93.6592153366212585
 51
182.4204345528438864
  0
ARC
  5
6E1A
  8
0
 10
4237.545942141163323
 20
237.6898823525982891
 30
0.0
 40
0.0460208443210499
 50
359.6916032748030716
 51
18.4997737295669502
  0
ARC
  5
6E1B
  8
0
 10
4237.5501018853128699
 20
237.5920323752318097
 30
0.0
 40
0.0460208439921907
 50
346.3687471414211814
 51
5.1769179050012051
  0
ARC
  5
6E1C
  8
0
 10
4237.674927379987821
 20
238.3284473211807892
 30
0.0
 40
0.0351251506660285
 50
19.863399375192099
 51
74.9826251299293602
  0
ARC
  5
6E1D
  8
0
 10
4234.6448972180141936
 20
237.5088263981812133
 30
0.0
 40
3.173933755473608
 50
350.3736118849610079
 51
15.1884887922033407
  0
ARC
  5
6E1E
  8
0
 10
4237.6802466141152763
 20
236.9998574713208086
 30
0.0
 40
0.0963868165597032
 50
320.1422652244309006
 51
346.9371729080717728
  0
ARC
  5
6E1F
  8
0
 10
4237.7432872701892848
 20
236.9492276721186954
 30
0.0
 40
0.0156223295712415
 50
275.4286285272798978
 51
314.4984728664280738
  0
ARC
  5
6E20
  8
0
 10
4237.6625870234602189
 20
236.9986062933201083
 30
0.0
 40
0.0683247675201567
 50
205.4257924786855085
 51
269.4469525317525154
  0
ARC
  5
6E21
  8
0
 10
4237.3720875782182702
 20
237.407262516127588
 30
0.0
 40
0.0023303133177854
 50
128.7299890586974129
 51
234.122009769580103
  0
ARC
  5
6E22
  8
0
 10
4237.3833303081628401
 20
237.4838471927037915
 30
0.0
 40
0.0794793129433488
 50
260.8721526351183115
 51
277.0409324486647051
  0
ARC
  5
6E23
  8
0
 10
4237.3525780261215914
 20
237.858765004340313
 30
0.0
 40
0.0020729033096273
 50
113.4881621937429941
 51
241.5448968077758991
  0
ARC
  5
6E24
  8
0
 10
4237.3852683470668126
 20
237.6452415311578932
 30
0.0
 40
0.2180163360208635
 50
93.0670616282434935
 51
98.8433726173068834
  0
ARC
  5
6E25
  8
0
 10
4237.4177453797783528
 20
237.8607127780815063
 30
0.0
 40
0.0143573452388607
 50
113.847964749370405
 51
168.0123220564182986
  0
ARC
  5
6E26
  8
0
 10
4237.3918267431090499
 20
237.8551599486050065
 30
0.0
 40
0.027453061779609
 50
18.8853607457392201
 51
42.89001310615037
  0
ARC
  5
6E27
  8
0
 10
4237.1646117483969647
 20
237.7705821218254982
 30
0.0
 40
0.2698902486979174
 50
7.3829667347546941
 51
20.26133621645711
  0
ARC
  5
6E28
  8
0
 10
4237.9012085192498489
 20
237.4621200570753103
 30
0.0
 40
0.5125712228072651
 50
186.4178306601064037
 51
205.2650998008311092
  0
ARC
  5
6E29
  8
0
 10
4237.43723359728574
 20
237.4111249095165022
 30
0.0
 40
0.0147494260354657
 50
197.1488827070342893
 51
249.2186814902260892
  0
ARC
  5
6E2A
  8
0
 10
4237.411535504054882
 20
237.4141492944613958
 30
0.0
 40
0.0264864734196439
 50
320.5931095456596154
 51
345.7332565375978106
  0
ARC
  5
6E2B
  8
0
 10
4237.1517679775661236
 20
237.4833719437912123
 30
0.0
 40
0.295317455308253
 50
345.1373226388892022
 51
356.907892750199494
  0
ARC
  5
6E2C
  8
0
 10
4237.6079137849528706
 20
238.2905830463060965
 30
0.0
 40
0.06861055660222
 50
95.623113278697204
 51
159.4154733904670991
  0
ARC
  5
6E2D
  8
0
 10
4237.7787563175079413
 20
237.8727053448851052
 30
0.0
 40
0.4052704175758047
 50
157.504898121402789
 51
181.3799364946760022
  0
ARC
  5
6E2E
  8
0
 10
4237.5955985691280148
 20
238.2895960594842109
 30
0.0
 40
0.0576684496491014
 50
133.655931209554808
 51
154.1883126984087085
  0
ARC
  5
6E2F
  8
0
 10
4237.5639304255237221
 20
238.3208014388362983
 30
0.0
 40
0.0133008025994599
 50
46.1049078107456367
 51
127.7440806573814029
  0
ARC
  5
6E30
  8
0
 10
4234.3261932672739931
 20
237.4662664393362945
 30
0.0
 40
3.359977157119526
 50
352.2493540903333837
 51
14.9028125078394194
  0
ARC
  5
6E31
  8
0
 10
4237.5015353130556832
 20
237.0423390175186
 30
0.0
 40
0.1566856991315921
 50
327.8849290868698745
 51
349.2572555406288188
  0
ARC
  5
6E32
  8
0
 10
4237.6217996122941258
 20
236.9656617249891895
 30
0.0
 40
0.014096872627561
 50
231.3406580607594094
 51
331.9903551341740808
  0
ARC
  5
6E33
  8
0
 10
4237.6446710671807523
 20
236.9932322750719038
 30
0.0
 40
0.0499175955329398
 50
208.6856772690038042
 51
230.6098165430848042
  0
LINE
  5
6E34
  8
0
 10
4236.8642067276841772
 20
237.8180652765508114
 30
0.0
 11
4237.1080921101156491
 21
237.6617784576664008
 31
0.0
  0
LINE
  5
6E35
  8
0
 10
4237.1114446485289591
 20
237.582872868256004
 30
0.0
 11
4236.8817521612809287
 21
237.4065803201509937
 31
0.0
  0
ENDSEC
  0
EOF
