  0
SECTION
  2
HEADER
  9
$ACADVER
  1
AC1009
  9
$INSBASE
 10
4179.5237441100998694
 20
187.6726237351342945
 30
0.0
  9
$EXTMIN
 10
4171.9090802978571446
 20
187.6669120063648961
 30
0.0
  9
$EXTMAX
 10
4187.1384079223425942
 20
216.6312637629922904
 30
0.0
  9
$LIMMIN
 10
0.0
 20
0.0
  9
$LIMMAX
 10
11.6929133858000007
 20
8.2677165353999982
  9
$ORTHOMODE
 70
     1
  9
$REGENMODE
 70
     1
  9
$FILLMODE
 70
     1
  9
$QTEXTMODE
 70
     0
  9
$MIRRTEXT
 70
     0
  9
$DRAGMODE
 70
     2
  9
$LTSCALE
 40
0.6431102362
  9
$OSMODE
 70
  4095
  9
$ATTMODE
 70
     1
  9
$TEXTSIZE
 40
0.2
  9
$TRACEWID
 40
0.05
  9
$TEXTSTYLE
  7
STANDARD
  9
$CLAYER
  8
0
  9
$CELTYPE
  6
BYLAYER
  9
$CECOLOR
 62
   256
  9
$DIMSCALE
 40
1.0
  9
$DIMASZ
 40
0.1875
  9
$DIMEXO
 40
0.0625
  9
$DIMDLI
 40
0.4443307087
  9
$DIMRND
 40
0.0
  9
$DIMDLE
 40
0.0
  9
$DIMEXE
 40
0.125
  9
$DIMTP
 40
0.01
  9
$DIMTM
 40
0.01
  9
$DIMTXT
 40
2.0
  9
$DIMCEN
 40
0.1052362205
  9
$DIMTSZ
 40
0.0
  9
$DIMTOL
 70
     1
  9
$DIMLIM
 70
     0
  9
$DIMTIH
 70
     1
  9
$DIMTOH
 70
     1
  9
$DIMSE1
 70
     0
  9
$DIMSE2
 70
     0
  9
$DIMTAD
 70
     0
  9
$DIMZIN
 70
     0
  9
$DIMBLK
  1

  9
$DIMASO
 70
     1
  9
$DIMSHO
 70
     1
  9
$DIMPOST
  1
\X
  9
$DIMAPOST
  1

  9
$DIMALT
 70
     1
  9
$DIMALTD
 70
     2
  9
$DIMALTF
 40
25.3999999999999986
  9
$DIMLFAC
 40
1.0
  9
$DIMTOFL
 70
     0
  9
$DIMTVP
 40
0.0
  9
$DIMTIX
 70
     0
  9
$DIMSOXD
 70
     0
  9
$DIMSAH
 70
     0
  9
$DIMBLK1
  1

  9
$DIMBLK2
  1

  9
$DIMSTYLE
  2
STANDARD
  9
$DIMCLRD
 70
     0
  9
$DIMCLRE
 70
     0
  9
$DIMCLRT
 70
     0
  9
$DIMTFAC
 40
1.0
  9
$DIMGAP
 40
0.09
  9
$LUNITS
 70
     2
  9
$LUPREC
 70
     4
  9
$SKETCHINC
 40
0.1
  9
$FILLETRAD
 40
0.0
  9
$AUNITS
 70
     0
  9
$AUPREC
 70
     0
  9
$MENU
  1
.
  9
$ELEVATION
 40
0.0
  9
$PELEVATION
 40
0.0
  9
$THICKNESS
 40
0.0
  9
$LIMCHECK
 70
     0
  9
$BLIPMODE
 70
     0
  9
$CHAMFERA
 40
0.0
  9
$CHAMFERB
 40
0.0
  9
$SKPOLY
 70
     0
  9
$TDCREATE
 40
2458060.468368056230247
  9
$TDUPDATE
 40
2458993.705208333209157
  9
$TDINDWG
 40
0.304034838
  9
$TDUSRTIMER
 40
0.304034838
  9
$USRTIMER
 70
     1
  9
$ANGBASE
 50
0.0
  9
$ANGDIR
 70
     0
  9
$PDMODE
 70
     0
  9
$PDSIZE
 40
0.3125
  9
$PLINEWID
 40
0.0
  9
$COORDS
 70
     1
  9
$SPLFRAME
 70
     0
  9
$SPLINETYPE
 70
     6
  9
$SPLINESEGS
 70
     8
  9
$ATTDIA
 70
     1
  9
$ATTREQ
 70
     1
  9
$HANDLING
 70
     1
  9
$HANDSEED
  5
6CCC
  9
$SURFTAB1
 70
     6
  9
$SURFTAB2
 70
     6
  9
$SURFTYPE
 70
     6
  9
$SURFU
 70
     6
  9
$SURFV
 70
     6
  9
$UCSNAME
  2

  9
$UCSORG
 10
0.0
 20
0.0
 30
0.0
  9
$UCSXDIR
 10
1.0
 20
0.0
 30
0.0
  9
$UCSYDIR
 10
0.0
 20
1.0
 30
0.0
  9
$PUCSNAME
  2

  9
$PUCSORG
 10
0.0
 20
0.0
 30
0.0
  9
$PUCSXDIR
 10
1.0
 20
0.0
 30
0.0
  9
$PUCSYDIR
 10
0.0
 20
1.0
 30
0.0
  9
$USERI1
 70
     0
  9
$USERI2
 70
     0
  9
$USERI3
 70
     0
  9
$USERI4
 70
     0
  9
$USERI5
 70
     0
  9
$USERR1
 40
0.0
  9
$USERR2
 40
0.0
  9
$USERR3
 40
0.0
  9
$USERR4
 40
0.0
  9
$USERR5
 40
0.0
  9
$WORLDVIEW
 70
     1
  9
$SHADEDGE
 70
     3
  9
$SHADEDIF
 70
    70
  9
$TILEMODE
 70
     1
  9
$MAXACTVP
 70
    64
  9
$PLIMCHECK
 70
     0
  9
$PEXTMIN
 10
1.0000000000000000E+20
 20
1.0000000000000000E+20
 30
1.0000000000000000E+20
  9
$PEXTMAX
 10
-1.0000000000000000E+20
 20
-1.0000000000000000E+20
 30
-1.0000000000000000E+20
  9
$PLIMMIN
 10
0.0
 20
0.0
  9
$PLIMMAX
 10
12.0
 20
9.0
  9
$UNITMODE
 70
     0
  9
$VISRETAIN
 70
     1
  9
$PLINEGEN
 70
     0
  9
$PSLTSCALE
 70
     1
  0
ENDSEC
  0
SECTION
  2
TABLES
  0
TABLE
  2
VPORT
 70
     1
  0
VPORT
  2
*ACTIVE
 70
     0
 10
0.0
 20
0.0
 11
1.0
 21
1.0
 12
0.0
 22
0.0
 13
0.0
 23
0.0
 14
1.0
 24
1.0
 15
0.0
 25
0.0
 16
0.0
 26
0.0
 36
122.4934323662405973
 17
4179.523681640625
 27
202.1490916843347918
 37
0.0
 40
32.7258823444431712
 41
2.9513274336283182
 42
50.0
 43
0.0
 44
0.0
 50
0.0
 51
0.0
 71
     0
 72
   100
 73
     1
 74
     1
 75
     0
 76
     0
 77
     0
 78
     0
  0
ENDTAB
  0
TABLE
  2
LTYPE
 70
     2
  0
LTYPE
  2
CONTINUOUS
 70
     0
  3
Solid line
 72
    65
 73
     0
 40
0.0
  0
LTYPE
  2
PHANTOM2
 70
     0
  3
___ _ _ ___ _ _ ___ _ _ ___ _ _
 72
    65
 73
     6
 40
1.25
 49
0.625
 49
-0.125
 49
0.125
 49
-0.125
 49
0.125
 49
-0.125
  0
ENDTAB
  0
TABLE
  2
LAYER
 70
     2
  0
LAYER
  2
0
 70
     0
 62
   255
  6
CONTINUOUS
  0
LAYER
  2
DEFPOINTS
 70
     0
 62
     7
  6
CONTINUOUS
  0
ENDTAB
  0
TABLE
  2
STYLE
 70
     1
  0
STYLE
  2
STANDARD
 70
     0
 40
0.0
 41
0.8
 50
0.0
 71
     0
 42
0.2
  3
txt
  4

  0
ENDTAB
  0
TABLE
  2
VIEW
 70
     0
  0
ENDTAB
  0
TABLE
  2
UCS
 70
     0
  0
ENDTAB
  0
TABLE
  2
APPID
 70
     9
  0
APPID
  2
ACAD
 70
     0
  0
APPID
  2
ACAD_MLEADERVER
 70
     0
  0
APPID
  2
ACAD_EXEMPT_FROM_CAD_STANDARDS
 70
     0
  0
APPID
  2
ACAD_NAV_VCDISPLAY
 70
     0
  0
APPID
  2
ACAECLAYERSTANDARD
 70
     0
  0
APPID
  2
ACCMTRANSPARENCY
 70
     0
  0
APPID
  2
ACAD_DSTYLE_DIMJAG
 70
     0
  0
APPID
  2
ACAD_DSTYLE_DIMTALN
 70
     0
  0
APPID
  2
ACDBATTR
 70
     0
  0
ENDTAB
  0
TABLE
  2
DIMSTYLE
 70
     1
  0
DIMSTYLE
  2
STANDARD
 70
     0
  3

  4

  5

  6

  7

 40
1.0
 41
0.1875
 42
0.0625
 43
0.38
 44
0.125
 45
0.0
 46
0.0
 47
0.01
 48
0.01
140
0.15625
141
0.09
142
0.0
143
25.3999999999999986
144
1.0
145
0.0
146
1.0
147
0.09
 71
     1
 72
     0
 73
     1
 74
     1
 75
     0
 76
     0
 77
     0
 78
     4
170
     0
171
     2
172
     0
173
     0
174
     0
175
     0
176
     0
177
     0
178
     0
  0
ENDTAB
  0
ENDSEC
  0
SECTION
  2
BLOCKS
  0
BLOCK
  8
0
  2
$MODEL_SPACE
 70
     0
 10
0.0
 20
0.0
 30
0.0
  3
$MODEL_SPACE
  1

  0
ENDBLK
  5
21
  8
0
  0
BLOCK
 67
     1
  8
0
  2
$PAPER_SPACE
 70
     0
 10
0.0
 20
0.0
 30
0.0
  3
$PAPER_SPACE
  1

  0
ENDBLK
  5
1D
 67
     1
  8
0
  0
ENDSEC
  0
SECTION
  2
ENTITIES
  0
ATTDEF
  5
3930
  8
DEFPOINTS
 10
4179.5190820499910842
 20
187.6702453396983117
 30
0.0
 40
0.001
  1
402321-RA
  3

  2
MODELNUMBER
 70
     0
1001
ACDBATTR
1070
     0
1070
     1
  0
ATTDEF
  5
3931
  8
DEFPOINTS
 10
4179.5190820499910842
 20
187.6685786730315897
 30
0.0
 40
0.001
  1
WINDHAM
  3

  2
TRADENAME
 70
     0
1001
ACDBATTR
1070
     0
1070
     1
  0
ATTDEF
  5
3932
  8
DEFPOINTS
 10
4179.5190820499910842
 20
187.6669120063648961
 30
0.0
 40
0.001
  1
TOILET
  3

  2
PRODUCT
 70
     0
1001
ACDBATTR
1070
     0
1070
     1
  0
LINE
  5
6B39
  8
0
 10
4172.4379567403002511
 20
202.909185815034391
 30
0.0
 11
4172.4379567403002511
 21
202.9016061290344055
 31
0.0
  0
LINE
  5
6B3A
  8
0
 10
4172.5725272926001708
 20
203.6608896185344122
 30
0.0
 11
4172.5725272926993057
 21
203.6420573788344086
 31
0.0
  0
LINE
  5
6B3B
  8
0
 10
4172.6418798812992463
 20
204.0385670614344065
 30
0.0
 11
4172.5725272926001708
 21
203.6608896185344122
 31
0.0
  0
LINE
  5
6B3C
  8
0
 10
4173.2706062825000117
 20
203.5531728648344085
 30
0.0
 11
4173.2711259846000758
 21
203.5822064123343864
 31
0.0
  0
LINE
  5
6B3D
  8
0
 10
4174.7800391924001815
 20
203.5185548239344087
 30
0.0
 11
4174.7805461974003265
 21
203.4895426494344122
 31
0.0
  0
LINE
  5
6B3E
  8
0
 10
4175.0256284353999945
 20
202.720159267934406
 30
0.0
 11
4175.0253882575998432
 21
202.7339190427344136
 31
0.0
  0
LINE
  5
6B3F
  8
0
 10
4175.6370471949003331
 20
203.4989212993343983
 30
0.0
 11
4175.638960929147288
 21
203.635598959091908
 31
0.0
  0
LINE
  5
6B40
  8
0
 10
4177.4346496218995526
 20
202.6712064123344135
 30
0.0
 11
4177.4346496218995526
 21
202.6812064123344044
 31
0.0
  0
LINE
  5
6B41
  8
0
 10
4176.3100888593999116
 20
202.6812064123344044
 30
0.0
 11
4182.7373993607379816
 21
202.6812064123344044
 31
0.0
  0
LINE
  5
6B42
  8
0
 10
4173.1614514522998434
 20
202.7212064123343112
 30
0.0
 11
4174.5450836337013243
 21
202.7212064123343112
 31
0.0
  0
LINE
  5
6B43
  8
0
 10
4172.507976185899679
 20
202.8316064123343949
 30
0.0
 11
4186.5395120343000599
 21
202.8316064123343949
 31
0.0
  0
LINE
  5
6B44
  8
0
 10
4173.8740426360600395
 20
203.5822064123343864
 30
0.0
 11
4172.6326148588996148
 21
203.5822064123343864
 31
0.0
  0
ARC
  5
6B45
  8
0
 10
4173.6510559184180238
 20
203.498883003052299
 30
0.0
 40
0.8391264100547108
 50
247.9366798971329047
 51
266.6314466563363794
  0
ARC
  5
6B46
  8
0
 10
4173.009392665163432
 20
202.7317207025255925
 30
0.0
 40
0.0998857430009451
 50
18.0116247168990604
 51
90.0467093757978745
  0
ARC
  5
6B47
  8
0
 10
4173.1643142144257581
 20
202.7851855260601042
 30
0.0
 40
0.064043129218694
 50
200.6440839247225085
 51
267.4379943239982254
  0
ARC
  5
6B48
  8
0
 10
4175.0904579352882138
 20
202.7261302463259938
 30
0.0
 40
0.0651038911255412
 50
185.2622553834960115
 51
265.7377446165110086
  0
ARC
  5
6B49
  8
0
 10
4177.4246496219002438
 20
202.6712064123344135
 30
0.0
 40
0.01
 50
270.0
 51
0.0
  0
LINE
  5
6B4A
  8
0
 10
4184.6637865782759036
 20
187.6726237351342945
 30
0.0
 11
4174.3837016419238353
 21
187.6726237351342945
 31
0.0
  0
LINE
  5
6B4B
  8
0
 10
4172.9527393593425586
 20
204.2551347372969133
 30
0.0
 11
4172.5603309793932567
 21
215.2912064123343896
 31
0.0
  0
LINE
  5
6B4C
  8
0
 10
4186.4661099058002947
 20
202.6612064123343941
 30
0.0
 11
4172.5813783144003537
 21
202.6612064123343941
 31
0.0
  0
LINE
  5
6B4D
  8
0
 10
4172.1969276013005583
 20
215.2912064123343896
 30
0.0
 11
4186.85056061890009
 21
215.2912064123343896
 31
0.0
  0
ARC
  5
6B4E
  8
0
 10
4172.2086574252216451
 20
215.4126357164817875
 30
0.0
 40
0.1219945272336887
 50
183.7629011985040108
 51
264.4824633677632733
  0
ARC
  5
6B4F
  8
0
 10
4174.4127614202452605
 20
187.8318993013564011
 30
0.0
 40
0.1619048384434258
 50
176.715161697993608
 51
259.6601323002280992
  0
ARC
  5
6B50
  8
0
 10
4174.721043897347954
 20
188.2478068246514056
 30
0.0
 40
0.3932233797300327
 50
144.7699177818979024
 51
170.2656156946040937
  0
ARC
  5
6B51
  8
0
 10
4304.2212269875235506
 20
165.4599031369621116
 30
0.0
 40
131.8830900124667096
 50
170.0206749595672022
 51
170.2293088350135122
  0
ARC
  5
6B52
  8
0
 10
4068.0005373760809562
 20
208.5436435738527052
 30
0.0
 40
108.2754678692697041
 50
349.3183839175584922
 51
353.1506368511281266
  0
ARC
  5
6B53
  8
0
 10
4172.640244046026055
 20
202.2771271066899033
 30
0.0
 40
0.3885641354837128
 50
98.7136049550795178
 51
151.4269200828859994
  0
ARC
  5
6B54
  8
0
 10
4177.0487256445758248
 20
200.4992741594390964
 30
0.0
 40
5.1396453467190488
 50
157.5381483400051934
 51
202.4742660791619073
  0
ARC
  5
6B55
  8
0
 10
4179.6984792701541664
 20
215.2577313538789099
 30
0.0
 40
7.612970761007376
 50
171.9160898648501075
 51
178.8943652324336995
  0
ARC
  5
6B56
  8
0
 10
4172.4584592785304267
 20
216.2624490437918041
 30
0.0
 40
0.3045058232315622
 50
96.36210958531899
 51
167.5124211915174897
  0
ARC
  5
6B57
  8
0
 10
4180.4337641749725663
 20
-261.7387230293687139
 30
0.0
 40
478.370852373178991
 50
90.1089956467693867
 51
90.9593102717838207
  0
ARC
  5
6B58
  8
0
 10
4175.3641468598507345
 20
195.6586773321373016
 30
0.0
 40
0.1418810360240158
 50
348.6582081372561106
 51
65.1938260707576944
  0
ARC
  5
6B59
  8
0
 10
4175.4231901823577573
 20
195.8816991955048081
 30
0.0
 40
0.0942331048298925
 50
270.2935856162213213
 51
330.8866265321278206
  0
ARC
  5
6B5A
  8
0
 10
4176.904520933783715
 20
194.9067669764868924
 30
0.0
 40
1.679406794656509
 50
116.6742568829931059
 51
146.4116900540952031
  0
ARC
  5
6B5B
  8
0
 10
4177.30524471886838
 20
194.1228678518426136
 30
0.0
 40
2.5597774063306229
 50
89.4443597893109228
 51
116.8123595569256992
  0
ARC
  5
6B5C
  8
0
 10
4179.8602566726867735
 20
89.761318337651133
 30
0.0
 40
106.9511396072135057
 50
90.1802765400577755
 51
91.3555969118354341
  0
ARC
  5
6B5D
  8
0
 10
4177.2142252499734241
 20
200.9739880946443122
 30
0.0
 40
5.486900300116039
 50
206.3973099405932885
 51
250.953694863764099
  0
ARC
  5
6B5E
  8
0
 10
4172.5136627795100139
 20
202.907314057048012
 30
0.0
 40
0.0759209115788829
 50
184.3117114771484921
 51
265.7044346370992116
  0
LINE
  5
6B5F
  8
0
 10
4172.4379567403002511
 20
202.909185815034391
 30
0.0
 11
4172.5046731833990634
 21
203.2780702189344026
 31
0.0
  0
ARC
  5
6B60
  8
0
 10
4172.7085273664897613
 20
203.2231126715612959
 30
0.0
 40
0.2111323281176088
 50
93.5901698723545792
 51
164.9121917257166103
  0
LINE
  5
6B61
  8
0
 10
4172.6953064102053759
 20
203.4338306496534869
 30
0.0
 11
4186.352181809996182
 21
203.4338306496534869
 31
0.0
  0
ARC
  5
6B62
  8
0
 10
4172.638477827816132
 20
203.6481805922879005
 30
0.0
 40
0.0662341816968494
 50
185.3044508448707006
 51
264.9216007226448255
  0
ARC
  5
6B63
  8
0
 10
4180.1809440360721055
 20
24.3011538639931395
 30
0.0
 40
179.3919530193886942
 50
90.209902761246866
 51
92.0147688266561374
  0
ARC
  5
6B64
  8
0
 10
4172.9275806478754021
 20
203.9594554242283095
 30
0.0
 40
0.2964516472601316
 50
104.5289321878307049
 51
164.5223859313589116
  0
ARC
  5
6B65
  8
0
 10
4175.4707855908491183
 20
174.9012148178987047
 30
0.0
 40
29.4617238371831505
 50
91.3410294801458349
 51
95.0972591138324645
  0
ARC
  5
6B66
  8
0
 10
4179.838125789345213
 20
106.2310427859655988
 30
0.0
 40
98.2540429604589463
 50
90.1833285793772461
 51
92.950144840658254
  0
ARC
  5
6B67
  8
0
 10
4174.5442815417181919
 20
202.7832923738947954
 30
0.0
 40
0.0620911424796867
 50
270.7401661780850191
 51
344.9565907029925143
  0
ARC
  5
6B68
  8
0
 10
4174.9136590868502026
 20
202.7201385688788946
 30
0.0
 40
0.112575792495444
 50
7.0312474795668409
 51
81.9548925707876066
  0
ARC
  5
6B69
  8
0
 10
4175.5025839155778158
 20
206.8908131526125942
 30
0.0
 40
4.2203544714884442
 50
254.1157415184707986
 51
263.6030376848422065
  0
ARC
  5
6B6A
  8
0
 10
4176.2604143092821687
 20
202.7322730223841063
 30
0.0
 40
0.0712415580782135
 50
274.0161910769303972
 51
314.2083267714070871
  0
ARC
  5
6B6B
  8
0
 10
4172.7598109533637398
 20
203.5303646778070004
 30
0.0
 40
0.0518745287618421
 50
4.4042608910118721
 51
87.962572431041707
  0
ARC
  5
6B6C
  8
0
 10
4172.8836057441349112
 20
203.5419583281795894
 30
0.0
 40
0.0724740934486953
 50
186.0273738699148964
 51
270.6049811016106901
  0
ARC
  5
6B6D
  8
0
 10
4172.9501732804401399
 20
205.4691900665943933
 30
0.0
 40
2.000784146088836
 50
268.1153018215459269
 51
277.7283138238278752
  0
ARC
  5
6B6E
  8
0
 10
4173.1993744758483444
 20
203.5550124359924951
 30
0.0
 40
0.0712555562808944
 50
286.1801998309920805
 51
358.5206574684809766
  0
ARC
  5
6B6F
  8
0
 10
4174.6763710778959648
 20
203.5069595351052101
 30
0.0
 40
0.1043145660391617
 50
6.3820128587655809
 51
78.7207799806582642
  0
ARC
  5
6B70
  8
0
 10
4174.8721812214571401
 20
203.4915725344179975
 30
0.0
 40
0.0916575041499984
 50
181.2689997701014875
 51
219.0482367231614944
  0
ARC
  5
6B71
  8
0
 10
4175.546911108295717
 20
203.5004317855938041
 30
0.0
 40
0.0901487419608367
 50
312.3714176018028184
 51
359.0399362673774135
  0
ARC
  5
6B72
  8
0
 10
4173.7310643497448837
 20
204.7545095505128074
 30
0.0
 40
1.3251761309646291
 50
274.7216770644682811
 51
299.3386927625866178
  0
LINE
  5
6B73
  8
0
 10
4186.6095314799003972
 20
202.909185815034391
 30
0.0
 11
4186.6095314799003972
 21
202.9016061290344055
 31
0.0
  0
LINE
  5
6B74
  8
0
 10
4186.4749609275995681
 20
203.6608896185344122
 30
0.0
 11
4186.4749609275004332
 21
203.6420573788344086
 31
0.0
  0
LINE
  5
6B75
  8
0
 10
4186.405608338899583
 20
204.0385670614344065
 30
0.0
 11
4186.4749609275995681
 21
203.6608896185344122
 31
0.0
  0
LINE
  5
6B76
  8
0
 10
4185.7768819377006366
 20
203.5531728648344085
 30
0.0
 11
4185.7763622355996631
 21
203.5822064123343864
 31
0.0
  0
LINE
  5
6B77
  8
0
 10
4184.2674490277995574
 20
203.5185548239344087
 30
0.0
 11
4184.2669420228012314
 21
203.4895426494344122
 31
0.0
  0
LINE
  5
6B78
  8
0
 10
4184.0218597848006539
 20
202.720159267934406
 30
0.0
 11
4184.0220999625989862
 21
202.7339190427344136
 31
0.0
  0
LINE
  5
6B79
  8
0
 10
4183.4104410253012247
 20
203.4989212993343983
 30
0.0
 11
4183.4085272910533604
 21
203.635598959091908
 31
0.0
  0
LINE
  5
6B7A
  8
0
 10
4181.6128385983001863
 20
202.6712064123344135
 30
0.0
 11
4181.6128385983001863
 21
202.6812064123344044
 31
0.0
  0
LINE
  5
6B7B
  8
0
 10
4185.886036767898986
 20
202.7212064123343112
 30
0.0
 11
4184.5024045865002336
 21
202.7212064123343112
 31
0.0
  0
LINE
  5
6B7C
  8
0
 10
4185.1734455841406088
 20
203.5822064123343864
 30
0.0
 11
4186.4148733612992146
 21
203.5822064123343864
 31
0.0
  0
ARC
  5
6B7D
  8
0
 10
4185.3964323017817151
 20
203.498883003052299
 30
0.0
 40
0.8391264100547108
 50
273.3685533436636206
 51
292.0633201028671238
  0
ARC
  5
6B7E
  8
0
 10
4186.0380955550381259
 20
202.7317207025255925
 30
0.0
 40
0.0998857430009451
 50
89.9532906242021113
 51
161.9883752831009076
  0
ARC
  5
6B7F
  8
0
 10
4185.8831740057730713
 20
202.7851855260601042
 30
0.0
 40
0.064043129218694
 50
272.5620056760017746
 51
339.3559160752774915
  0
ARC
  5
6B80
  8
0
 10
4183.9570302849124346
 20
202.7261302463259938
 30
0.0
 40
0.0651038911255412
 50
274.262255383489105
 51
354.7377446165023116
  0
ARC
  5
6B81
  8
0
 10
4181.6228385983004046
 20
202.6712064123344135
 30
0.0
 40
0.01
 50
180.0
 51
270.0
  0
LINE
  5
6B82
  8
0
 10
4186.0947488608571803
 20
204.2551347372969133
 30
0.0
 11
4186.4871572408055727
 21
215.2912064123343896
 31
0.0
  0
ARC
  5
6B83
  8
0
 10
4186.8388307949790033
 20
215.4126357164817875
 30
0.0
 40
0.1219945272336887
 50
275.5175366322367267
 51
356.2370988014959039
  0
ARC
  5
6B84
  8
0
 10
4184.6347267999562973
 20
187.8318993013564011
 30
0.0
 40
0.1619048384434258
 50
280.3398676997720145
 51
3.2848383020064031
  0
ARC
  5
6B85
  8
0
 10
4184.3264443228508753
 20
188.2478068246514056
 30
0.0
 40
0.3932233797300327
 50
9.7343843053958672
 51
35.2300822181020976
  0
ARC
  5
6B86
  8
0
 10
4054.8262612326761882
 20
165.4599031369621116
 30
0.0
 40
131.8830900124667096
 50
9.7706911649864363
 51
9.979325040432796
  0
ARC
  5
6B87
  8
0
 10
4291.046950844118328
 20
208.5436435738527052
 30
0.0
 40
108.2754678692697041
 50
186.8493631488719018
 51
190.6816160824415078
  0
ARC
  5
6B88
  8
0
 10
4186.4072441741745934
 20
202.2771271066899033
 30
0.0
 40
0.3885641354837128
 50
28.5730799171139687
 51
81.2863950449204964
  0
ARC
  5
6B89
  8
0
 10
4181.998762575623914
 20
200.4992741594390964
 30
0.0
 40
5.1396453467190488
 50
337.5257339208380927
 51
22.4618516599947711
  0
ARC
  5
6B8A
  8
0
 10
4179.3490089500473914
 20
215.2577313538789099
 30
0.0
 40
7.612970761007376
 50
1.105634767566281
 51
8.0839101351498908
  0
ARC
  5
6B8B
  8
0
 10
4186.5890289416702217
 20
216.2624490437918041
 30
0.0
 40
0.3045058232315622
 50
12.4875788084824801
 51
83.6378904146292399
  0
ARC
  5
6B8C
  8
0
 10
4178.6137240452262631
 20
-261.7387230293717835
 30
0.0
 40
478.3708523731820037
 50
89.0406897282161651
 51
89.891004353282753
  0
ARC
  5
6B8D
  8
0
 10
4183.6833413603499139
 20
195.6586773321373016
 30
0.0
 40
0.1418810360240158
 50
114.8061739292423056
 51
191.3417918627438041
  0
ARC
  5
6B8E
  8
0
 10
4183.6242980378428911
 20
195.8816991955048081
 30
0.0
 40
0.0942331048298925
 50
209.1133734678720941
 51
269.7064143837266101
  0
ARC
  5
6B8F
  8
0
 10
4182.1429672864160239
 20
194.9067669764868924
 30
0.0
 40
1.679406794656509
 50
33.5883099459047614
 51
63.325743117006887
  0
ARC
  5
6B90
  8
0
 10
4181.7422435013313589
 20
194.1228678518426136
 30
0.0
 40
2.5597774063306229
 50
63.1876404430743008
 51
90.5556402106891056
  0
ARC
  5
6B91
  8
0
 10
4179.1872315475138748
 20
89.761318337651133
 30
0.0
 40
106.9511396072135057
 50
88.6444030881645944
 51
89.8197234599422529
  0
ARC
  5
6B92
  8
0
 10
4181.8332629702272243
 20
200.9739880946443122
 30
0.0
 40
5.486900300116039
 50
289.046305136235901
 51
333.6026900594067115
  0
ARC
  5
6B93
  8
0
 10
4186.5338254406897249
 20
202.907314057048012
 30
0.0
 40
0.0759209115788829
 50
274.2955653629006747
 51
355.6882885228515079
  0
LINE
  5
6B94
  8
0
 10
4186.6095314799003972
 20
202.909185815034391
 30
0.0
 11
4186.5428150367997659
 21
203.2780702189344026
 31
0.0
  0
ARC
  5
6B95
  8
0
 10
4186.338960853710887
 20
203.2231126715612959
 30
0.0
 40
0.2111323281176088
 50
15.0878082742834199
 51
86.409830127645435
  0
ARC
  5
6B96
  8
0
 10
4186.4090103923836068
 20
203.6481805922879005
 30
0.0
 40
0.0662341816968494
 50
275.0783992773551745
 51
354.6955491551292994
  0
ARC
  5
6B97
  8
0
 10
4178.8665441841294523
 20
24.3011538639931395
 30
0.0
 40
179.3919530193886942
 50
87.9852311733438626
 51
89.790097238753134
  0
ARC
  5
6B98
  8
0
 10
4186.1199075723252463
 20
203.9594554242283095
 30
0.0
 40
0.2964516472601316
 50
15.4776140686410493
 51
75.4710678121692808
  0
ARC
  5
6B99
  8
0
 10
4183.5767026293506206
 20
174.9012148178987047
 30
0.0
 40
29.4617238371831505
 50
84.9027408861675355
 51
88.6589705198541651
  0
ARC
  5
6B9A
  8
0
 10
4179.2093624308563449
 20
106.2310427859636945
 30
0.0
 40
98.2540429604608221
 50
87.0498551593417744
 51
89.8166714206227539
  0
ARC
  5
6B9B
  8
0
 10
4184.503206678481547
 20
202.7832923738947954
 30
0.0
 40
0.0620911424796867
 50
195.0434092970058941
 51
269.2598338219149809
  0
ARC
  5
6B9C
  8
0
 10
4184.1338291333486268
 20
202.7201385688788946
 30
0.0
 40
0.112575792495444
 50
98.045107429212436
 51
172.9687525204330996
  0
ARC
  5
6B9D
  8
0
 10
4183.5449043046210136
 20
206.8908131526125942
 30
0.0
 40
4.2203544714884442
 50
276.3969623151579071
 51
285.884258481529173
  0
ARC
  5
6B9E
  8
0
 10
4182.7870739109175702
 20
202.7322730223841063
 30
0.0
 40
0.0712415580782135
 50
225.7916732285929129
 51
265.9838089230696028
  0
ARC
  5
6B9F
  8
0
 10
4186.2876772668369085
 20
203.5303646778070004
 30
0.0
 40
0.0518745287618421
 50
92.037427568958293
 51
175.5957391089881128
  0
ARC
  5
6BA0
  8
0
 10
4186.1638824760657371
 20
203.5419583281795894
 30
0.0
 40
0.0724740934486953
 50
269.3950188983893099
 51
353.9726261300850183
  0
ARC
  5
6BA1
  8
0
 10
4186.0973149397586894
 20
205.4691900665943933
 30
0.0
 40
2.000784146088836
 50
262.2716861761721248
 51
271.8846981784540731
  0
ARC
  5
6BA2
  8
0
 10
4185.8481137443523039
 20
203.5550124359924951
 30
0.0
 40
0.0712555562808944
 50
181.479342531518995
 51
253.8198001690078911
  0
ARC
  5
6BA3
  8
0
 10
4184.371117142303774
 20
203.5069595351052101
 30
0.0
 40
0.1043145660391617
 50
101.2792200193927954
 51
173.6179871412344085
  0
ARC
  5
6BA4
  8
0
 10
4184.1753069987425988
 20
203.4915725344179975
 30
0.0
 40
0.0916575041499984
 50
320.9517632768386193
 51
358.7310002298984273
  0
ARC
  5
6BA5
  8
0
 10
4183.5005771119049314
 20
203.5004317855938041
 30
0.0
 40
0.0901487419608367
 50
180.9600637326209096
 51
227.6285823981972101
  0
ARC
  5
6BA6
  8
0
 10
4185.3164238704557647
 20
204.7545095505128074
 30
0.0
 40
1.3251761309646291
 50
240.6613072374134106
 51
265.2783229355317189
  0
LINE
  5
6BA8
  8
0
 10
4184.1593935097916983
 20
213.596341285195308
 30
0.0
 11
4185.9779576289911347
 21
213.7706143475016063
 31
0.0
  0
LINE
  5
6BA9
  8
0
 10
4184.159165152692367
 20
214.033914674595394
 30
0.0
 11
4185.9833308760917134
 21
213.8778924637952912
 31
0.0
  0
LINE
  5
6BAA
  8
0
 10
4185.92791569889323
 20
213.9057664892953028
 30
0.0
 11
4184.127532602791689
 21
214.0585985308952957
 31
0.0
  0
LINE
  5
6BAB
  8
0
 10
4184.0980041581906335
 20
213.5991902253952901
 30
0.0
 11
4184.0610579342919664
 21
213.6062356096452959
 31
0.0
  0
LINE
  5
6BAC
  8
0
 10
4185.9833308760917134
 20
213.8778924637952912
 30
0.0
 11
4185.9335360117920573
 21
213.9041216103952934
 31
0.0
  0
ARC
  5
6BAD
  8
0
 10
4184.1386631458908596
 20
213.8124781059952966
 30
0.0
 40
0.2171287022
 50
259.2072192755858282
 51
275.4786598517094944
  0
ARC
  5
6BAE
  8
0
 10
4185.9266707187880456
 20
213.8910882355949923
 30
0.0
 40
0.0147309574582822
 50
62.2221091775027801
 51
85.1518903703916834
  0
ARC
  5
6BAF
  8
0
 10
4185.9634835245797149
 20
213.8551251824459882
 30
0.0
 40
0.0302037491398207
 50
6.2180358285400832
 51
48.9197468333242824
  0
ARC
  5
6BB0
  8
0
 10
4185.7367204490192307
 20
213.8287789990893089
 30
0.0
 40
0.2584915135500468
 50
348.9166331325433248
 51
6.5793255187109034
  0
ARC
  5
6BB1
  8
0
 10
4185.9761590724474445
 20
213.7866120180337077
 30
0.0
 40
0.0160984554567532
 50
276.4146084140515995
 51
332.1333114873772274
  0
ARC
  5
6BB2
  8
0
 10
4183.673000864208916
 20
212.5762418539767964
 30
0.0
 40
1.540608191317528
 50
74.9783929918289402
 51
75.5340450237086571
  0
ARC
  5
6BB3
  8
0
 10
4184.620781167601308
 20
219.1930199959491858
 30
0.0
 40
5.1580595118286263
 50
263.8959336515225118
 51
264.5126047281721071
  0
ARC
  5
6BB4
  8
0
 10
4184.0710217917649061
 20
213.8372015993724062
 30
0.0
 40
0.2311808099006203
 50
93.2657616556781193
 51
267.5297955079261101
  0
ARC
  5
6BB5
  8
0
 10
4184.0420105036228051
 20
213.849707585463193
 30
0.0
 40
0.7139502122846137
 50
12.7057085112666694
 51
89.6716103508289279
  0
ARC
  5
6BB6
  8
0
 10
4184.0426212182492236
 20
213.8476104616860027
 30
0.0
 40
0.7160440721200897
 50
89.721438946010025
 51
281.3911703583229951
  0
ARC
  5
6BB7
  8
0
 10
4184.0395117850948736
 20
213.8469880521261928
 30
0.0
 40
0.7158752652604056
 50
281.6494508504977148
 51
344.0968606717905232
  0
ARC
  5
6BB8
  8
0
 10
4184.0746765844560286
 20
213.8379206478919912
 30
0.0
 40
0.3401490165247856
 50
36.4162485817494002
 51
318.5258204751303879
  0
ARC
  5
6BB9
  8
0
 10
4184.1419073058532376
 20
213.8144191720963079
 30
0.0
 40
0.2201677452394088
 50
85.5008923780977739
 51
255.2474952094769947
  0
ENDSEC
  0
EOF
