  0
SECTION
  2
HEADER
  9
$ACADVER
  1
AC1009
  9
$INSBASE
 10
4153.5374054709272968
 20
181.7518783444473058
 30
0.0
  9
$EXTMIN
 10
4145.9741593787075544
 20
153.2258247804473967
 30
0.0
  9
$EXTMAX
 10
4161.1006515631452203
 20
181.7570392992124937
 30
0.0
  9
$LIMMIN
 10
0.0
 20
0.0
  9
$LIMMAX
 10
11.6929133858000007
 20
8.2677165353999982
  9
$ORTHOMODE
 70
     1
  9
$REGENMODE
 70
     1
  9
$FILLMODE
 70
     1
  9
$QTEXTMODE
 70
     0
  9
$MIRRTEXT
 70
     0
  9
$DRAGMODE
 70
     2
  9
$LTSCALE
 40
0.6431102362
  9
$OSMODE
 70
  4095
  9
$ATTMODE
 70
     1
  9
$TEXTSIZE
 40
0.2
  9
$TRACEWID
 40
0.05
  9
$TEXTSTYLE
  7
STANDARD
  9
$CLAYER
  8
0
  9
$CELTYPE
  6
BYLAYER
  9
$CECOLOR
 62
   256
  9
$DIMSCALE
 40
1.0
  9
$DIMASZ
 40
0.1875
  9
$DIMEXO
 40
0.0625
  9
$DIMDLI
 40
0.4443307087
  9
$DIMRND
 40
0.0
  9
$DIMDLE
 40
0.0
  9
$DIMEXE
 40
0.125
  9
$DIMTP
 40
0.01
  9
$DIMTM
 40
0.01
  9
$DIMTXT
 40
2.0
  9
$DIMCEN
 40
0.1052362205
  9
$DIMTSZ
 40
0.0
  9
$DIMTOL
 70
     1
  9
$DIMLIM
 70
     0
  9
$DIMTIH
 70
     1
  9
$DIMTOH
 70
     1
  9
$DIMSE1
 70
     0
  9
$DIMSE2
 70
     0
  9
$DIMTAD
 70
     0
  9
$DIMZIN
 70
     0
  9
$DIMBLK
  1

  9
$DIMASO
 70
     1
  9
$DIMSHO
 70
     1
  9
$DIMPOST
  1
\X
  9
$DIMAPOST
  1

  9
$DIMALT
 70
     1
  9
$DIMALTD
 70
     2
  9
$DIMALTF
 40
25.3999999999999986
  9
$DIMLFAC
 40
1.0
  9
$DIMTOFL
 70
     0
  9
$DIMTVP
 40
0.0
  9
$DIMTIX
 70
     0
  9
$DIMSOXD
 70
     0
  9
$DIMSAH
 70
     0
  9
$DIMBLK1
  1

  9
$DIMBLK2
  1

  9
$DIMSTYLE
  2
STANDARD
  9
$DIMCLRD
 70
     0
  9
$DIMCLRE
 70
     0
  9
$DIMCLRT
 70
     0
  9
$DIMTFAC
 40
1.0
  9
$DIMGAP
 40
0.09
  9
$LUNITS
 70
     2
  9
$LUPREC
 70
     4
  9
$SKETCHINC
 40
0.1
  9
$FILLETRAD
 40
0.0
  9
$AUNITS
 70
     0
  9
$AUPREC
 70
     0
  9
$MENU
  1
.
  9
$ELEVATION
 40
0.0
  9
$PELEVATION
 40
0.0
  9
$THICKNESS
 40
0.0
  9
$LIMCHECK
 70
     0
  9
$BLIPMODE
 70
     0
  9
$CHAMFERA
 40
0.0
  9
$CHAMFERB
 40
0.0
  9
$SKPOLY
 70
     0
  9
$TDCREATE
 40
2458060.468368056230247
  9
$TDUPDATE
 40
2458993.6956944451667368
  9
$TDINDWG
 40
0.3038149306
  9
$TDUSRTIMER
 40
0.3038149306
  9
$USRTIMER
 70
     1
  9
$ANGBASE
 50
0.0
  9
$ANGDIR
 70
     0
  9
$PDMODE
 70
     0
  9
$PDSIZE
 40
0.3125
  9
$PLINEWID
 40
0.0
  9
$COORDS
 70
     1
  9
$SPLFRAME
 70
     0
  9
$SPLINETYPE
 70
     6
  9
$SPLINESEGS
 70
     8
  9
$ATTDIA
 70
     1
  9
$ATTREQ
 70
     1
  9
$HANDLING
 70
     1
  9
$HANDSEED
  5
6C3E
  9
$SURFTAB1
 70
     6
  9
$SURFTAB2
 70
     6
  9
$SURFTYPE
 70
     6
  9
$SURFU
 70
     6
  9
$SURFV
 70
     6
  9
$UCSNAME
  2

  9
$UCSORG
 10
0.0
 20
0.0
 30
0.0
  9
$UCSXDIR
 10
1.0
 20
0.0
 30
0.0
  9
$UCSYDIR
 10
0.0
 20
1.0
 30
0.0
  9
$PUCSNAME
  2

  9
$PUCSORG
 10
0.0
 20
0.0
 30
0.0
  9
$PUCSXDIR
 10
1.0
 20
0.0
 30
0.0
  9
$PUCSYDIR
 10
0.0
 20
1.0
 30
0.0
  9
$USERI1
 70
     0
  9
$USERI2
 70
     0
  9
$USERI3
 70
     0
  9
$USERI4
 70
     0
  9
$USERI5
 70
     0
  9
$USERR1
 40
0.0
  9
$USERR2
 40
0.0
  9
$USERR3
 40
0.0
  9
$USERR4
 40
0.0
  9
$USERR5
 40
0.0
  9
$WORLDVIEW
 70
     1
  9
$SHADEDGE
 70
     3
  9
$SHADEDIF
 70
    70
  9
$TILEMODE
 70
     1
  9
$MAXACTVP
 70
    64
  9
$PLIMCHECK
 70
     0
  9
$PEXTMIN
 10
1.0000000000000000E+20
 20
1.0000000000000000E+20
 30
1.0000000000000000E+20
  9
$PEXTMAX
 10
-1.0000000000000000E+20
 20
-1.0000000000000000E+20
 30
-1.0000000000000000E+20
  9
$PLIMMIN
 10
0.0
 20
0.0
  9
$PLIMMAX
 10
12.0
 20
9.0
  9
$UNITMODE
 70
     0
  9
$VISRETAIN
 70
     1
  9
$PLINEGEN
 70
     0
  9
$PSLTSCALE
 70
     1
  0
ENDSEC
  0
SECTION
  2
TABLES
  0
TABLE
  2
VPORT
 70
     1
  0
VPORT
  2
*ACTIVE
 70
     0
 10
0.0
 20
0.0
 11
1.0
 21
1.0
 12
0.0
 22
0.0
 13
0.0
 23
0.0
 14
1.0
 24
1.0
 15
0.0
 25
0.0
 16
0.0
 26
0.0
 36
120.8804135935601067
 17
4153.537353515625
 27
167.4914346886687042
 37
0.0
 40
32.333389518528989
 41
2.9513274336283182
 42
50.0
 43
0.0
 44
0.0
 50
0.0
 51
0.0
 71
     0
 72
   100
 73
     1
 74
     1
 75
     0
 76
     0
 77
     0
 78
     0
  0
ENDTAB
  0
TABLE
  2
LTYPE
 70
     2
  0
LTYPE
  2
CONTINUOUS
 70
     0
  3
Solid line
 72
    65
 73
     0
 40
0.0
  0
LTYPE
  2
PHANTOM2
 70
     0
  3
___ _ _ ___ _ _ ___ _ _ ___ _ _
 72
    65
 73
     6
 40
1.25
 49
0.625
 49
-0.125
 49
0.125
 49
-0.125
 49
0.125
 49
-0.125
  0
ENDTAB
  0
TABLE
  2
LAYER
 70
     2
  0
LAYER
  2
0
 70
     0
 62
   255
  6
CONTINUOUS
  0
LAYER
  2
DEFPOINTS
 70
     0
 62
     7
  6
CONTINUOUS
  0
ENDTAB
  0
TABLE
  2
STYLE
 70
     1
  0
STYLE
  2
STANDARD
 70
     0
 40
0.0
 41
0.8
 50
0.0
 71
     0
 42
0.2
  3
txt
  4

  0
ENDTAB
  0
TABLE
  2
VIEW
 70
     0
  0
ENDTAB
  0
TABLE
  2
UCS
 70
     0
  0
ENDTAB
  0
TABLE
  2
APPID
 70
     9
  0
APPID
  2
ACAD
 70
     0
  0
APPID
  2
ACAD_MLEADERVER
 70
     0
  0
APPID
  2
ACAD_EXEMPT_FROM_CAD_STANDARDS
 70
     0
  0
APPID
  2
ACAD_NAV_VCDISPLAY
 70
     0
  0
APPID
  2
ACAECLAYERSTANDARD
 70
     0
  0
APPID
  2
ACCMTRANSPARENCY
 70
     0
  0
APPID
  2
ACAD_DSTYLE_DIMJAG
 70
     0
  0
APPID
  2
ACAD_DSTYLE_DIMTALN
 70
     0
  0
APPID
  2
ACDBATTR
 70
     0
  0
ENDTAB
  0
TABLE
  2
DIMSTYLE
 70
     1
  0
DIMSTYLE
  2
STANDARD
 70
     0
  3

  4

  5

  6

  7

 40
1.0
 41
0.1875
 42
0.0625
 43
0.38
 44
0.125
 45
0.0
 46
0.0
 47
0.01
 48
0.01
140
0.15625
141
0.09
142
0.0
143
25.3999999999999986
144
1.0
145
0.0
146
1.0
147
0.09
 71
     1
 72
     0
 73
     1
 74
     1
 75
     0
 76
     0
 77
     0
 78
     4
170
     0
171
     2
172
     0
173
     0
174
     0
175
     0
176
     0
177
     0
178
     0
  0
ENDTAB
  0
ENDSEC
  0
SECTION
  2
BLOCKS
  0
BLOCK
  8
0
  2
$MODEL_SPACE
 70
     0
 10
0.0
 20
0.0
 30
0.0
  3
$MODEL_SPACE
  1

  0
ENDBLK
  5
21
  8
0
  0
BLOCK
 67
     1
  8
0
  2
$PAPER_SPACE
 70
     0
 10
0.0
 20
0.0
 30
0.0
  3
$PAPER_SPACE
  1

  0
ENDBLK
  5
1D
 67
     1
  8
0
  0
ENDSEC
  0
SECTION
  2
ENTITIES
  0
ATTDEF
  5
3930
  8
DEFPOINTS
 10
4153.5342905970328502
 20
181.7560392992124036
 30
0.0
 40
0.001
  1
402320
  3

  2
MODELNUMBER
 70
     0
1001
ACDBATTR
1070
     0
1070
     1
  0
ATTDEF
  5
3931
  8
DEFPOINTS
 10
4153.5342905970328502
 20
181.7543726325457953
 30
0.0
 40
0.001
  1
WINDHAM
  3

  2
TRADENAME
 70
     0
1001
ACDBATTR
1070
     0
1070
     1
  0
ATTDEF
  5
3932
  8
DEFPOINTS
 10
4153.5342905970328502
 20
181.7527059658791018
 30
0.0
 40
0.001
  1
TOILET
  3

  2
PRODUCT
 70
     0
1001
ACDBATTR
1070
     0
1070
     1
  0
LINE
  5
6B0A
  8
0
 10
4146.8136527912911333
 20
173.2913319718473986
 30
0.0
 11
4146.8502721537415709
 21
173.6425312154669882
 31
0.0
  0
LINE
  5
6B0B
  8
0
 10
4147.8864157989683008
 20
173.0536823354273963
 30
0.0
 11
4147.9015155555398451
 21
173.1788967887345052
 31
0.0
  0
LINE
  5
6B0C
  8
0
 10
4149.1003020934249435
 20
172.796104442347314
 30
0.0
 11
4149.1299812686393125
 21
172.8993133497750989
 31
0.0
  0
LINE
  5
6B0D
  8
0
 10
4149.9836391864264442
 20
169.5549597475474002
 30
0.0
 11
4149.9778469849261455
 21
169.6459305764473129
 31
0.0
  0
LINE
  5
6B0E
  8
0
 10
4149.4874088716260303
 20
169.5122864694758107
 30
0.0
 11
4149.4874088716260303
 21
169.5927765199473072
 31
0.0
  0
LINE
  5
6B0F
  8
0
 10
4149.9674088715255493
 20
169.4074429517472993
 30
0.0
 11
4149.9674088716246843
 21
169.3239165162472943
 31
0.0
  0
LINE
  5
6B10
  8
0
 10
4150.2874088716253027
 20
169.6958657615473101
 30
0.0
 11
4150.2874088716253027
 21
169.6907266365473106
 31
0.0
  0
LINE
  5
6B11
  8
0
 10
4150.0081877853262995
 20
169.6592472191472893
 30
0.0
 11
4150.0176214957264165
 21
170.7402433526474113
 31
0.0
  0
LINE
  5
6B12
  8
0
 10
4150.0140497634183703
 20
169.5529854529193869
 30
0.0
 11
4150.0216022743261419
 21
169.6592471445474075
 31
0.0
  0
LINE
  5
6B13
  8
0
 10
4151.2874088716271217
 20
169.6907266365473106
 30
0.0
 11
4151.2874088716271217
 21
169.6958657615473101
 31
0.0
  0
LINE
  5
6B14
  8
0
 10
4151.5666299579252154
 20
169.6592472191472893
 30
0.0
 11
4151.5571962476251429
 21
170.7402433526474113
 31
0.0
  0
LINE
  5
6B15
  8
0
 10
4148.4665147549249014
 20
168.5127500682474135
 30
0.0
 11
4148.5097918177252723
 21
168.5127500682474135
 31
0.0
  0
LINE
  5
6B16
  8
0
 10
4150.137408871624757
 20
169.1539165161472908
 30
0.0
 11
4156.9374020702261987
 21
169.1539165161472908
 31
0.0
  0
LINE
  5
6B17
  8
0
 10
4150.0132565078592961
 20
169.4530864551238096
 30
0.0
 11
4149.9845436198011157
 21
169.4535311300635101
 31
0.0
  0
LINE
  5
6B18
  8
0
 10
4149.5304952962260359
 20
169.5077807848473981
 30
0.0
 11
4149.8677798622247792
 21
169.507780783947311
 31
0.0
  0
LINE
  5
6B19
  8
0
 10
4149.4265919207264233
 20
169.6429014176472947
 30
0.0
 11
4149.1850093429247863
 21
169.6429014176472947
 31
0.0
  0
LINE
  5
6B1A
  8
0
 10
4149.9278489386260844
 20
169.6520643821473016
 30
0.0
 11
4149.5474181347262856
 21
169.6520643821473016
 31
0.0
  0
LINE
  5
6B1B
  8
0
 10
4150.0837206409260034
 20
169.6592467988473061
 30
0.0
 11
4150.0081877853262995
 21
169.6592472191472893
 31
0.0
  0
LINE
  5
6B1C
  8
0
 10
4151.491097102324602
 20
169.6592467988473061
 30
0.0
 11
4151.5666299579252154
 21
169.6592472191472893
 31
0.0
  0
LINE
  5
6B1D
  8
0
 10
4151.2359398041262466
 20
169.6625404436472877
 30
0.0
 11
4150.338878087325611
 21
169.6625404429472894
 31
0.0
  0
LINE
  5
6B1E
  8
0
 10
4150.2874088716253027
 20
169.6907266365473106
 30
0.0
 11
4151.2874088716271217
 21
169.6907266365473106
 31
0.0
  0
LINE
  5
6B1F
  8
0
 10
4151.5661491413247859
 20
169.7143433424473074
 30
0.0
 11
4155.5086618005070704
 21
169.7143433424473074
 31
0.0
  0
LINE
  5
6B20
  8
0
 10
4147.4769070305246714
 20
173.0737088769473075
 30
0.0
 11
4146.9080061481263328
 21
173.1900876329472965
 31
0.0
  0
LINE
  5
6B21
  8
0
 10
4147.4803192377248706
 20
180.8069973444474101
 30
0.0
 11
4159.5944917041251756
 21
180.8069973444474101
 31
0.0
  0
ARC
  5
6B22
  8
0
 10
4113.767801789825171
 20
190.7751758834473037
 30
0.0
 40
41.1682821939999997
 50
328.0742092291973222
 51
328.9963091400009034
  0
ARC
  5
6B23
  8
0
 10
4150.1481235856253988
 20
169.334631230106794
 30
0.0
 40
0.1810320770955374
 50
183.3931381478184051
 51
266.6068616401987015
  0
ARC
  5
6B24
  8
0
 10
4150.9731521334533682
 20
170.6943445398142103
 30
0.0
 40
0.585844884179235
 50
4.4935206399361389
 51
48.0932295763751512
  0
ARC
  5
6B25
  8
0
 10
4150.6357555753465931
 20
170.6775011336281125
 30
0.0
 40
0.6213101692693441
 50
133.2090706077545974
 51
174.2041791130438071
  0
ARC
  5
6B26
  8
0
 10
4151.0724088716260667
 20
169.7819165161473052
 30
0.0
 40
0.125
 50
287.2521954764168868
 51
313.1539116444798196
  0
ARC
  5
6B27
  8
0
 10
4150.5024088716263577
 20
169.7819165161473052
 30
0.0
 40
0.125
 50
226.846088355520294
 51
252.7478053004261938
  0
ARC
  5
6B28
  8
0
 10
4153.6087891438155566
 20
207.7287875011026017
 30
0.0
 40
35.1162638906923306
 50
261.7528497950033284
 51
269.8835301496480952
  0
ARC
  5
6B29
  8
0
 10
4179.5624242048261294
 20
176.9517278366473079
 30
0.0
 40
33.4618369466999965
 50
174.989955520700903
 51
180.6230111217996068
  0
LINE
  5
6B2A
  8
0
 10
4149.4654954322259073
 20
169.5158122886473109
 30
0.0
 11
4149.4586933165255687
 21
169.6129026441473115
 31
0.0
  0
ARC
  5
6B2B
  8
0
 10
4153.9038554717199077
 20
162.0840644410413915
 30
0.0
 40
8.8658161207867554
 50
250.4837702640732005
 51
267.6311237376798999
  0
ARC
  5
6B2C
  8
0
 10
4155.0709449645446512
 20
161.9024473988116881
 30
0.0
 40
9.1583781442568721
 50
209.5718000318782117
 51
243.2026640926488881
  0
ARC
  5
6B2D
  8
0
 10
4157.890685109820879
 20
161.7005876043820081
 30
0.0
 40
11.9193435710220896
 50
150.4945150593655114
 51
178.75411437436901
  0
ARC
  5
6B2E
  8
0
 10
4117.49227972735207
 20
181.9930604980420981
 30
0.0
 40
33.30903664981075
 50
334.34323434328752
 51
337.5996333951443944
  0
ARC
  5
6B2F
  8
0
 10
4146.9242780362847043
 20
173.2998398763149908
 30
0.0
 40
0.1109519232303407
 50
184.3978147334327105
 51
261.5667495751109186
  0
ARC
  5
6B30
  8
0
 10
4147.615917681974679
 20
179.0338750484818036
 30
0.0
 40
1.778299641380203
 50
94.3731477799405951
 51
125.8499731869096934
  0
ARC
  5
6B31
  8
0
 10
4147.0892336321348921
 20
179.7788607662309914
 30
0.0
 40
0.8660397454830757
 50
126.4723011410673053
 51
173.6954838603842859
  0
ARC
  5
6B32
  8
0
 10
4151.6726363764682901
 20
176.9112378479935046
 30
0.0
 40
5.5794487027447177
 50
183.3224011906858948
 51
215.8051735905993951
  0
ARC
  5
6B33
  8
0
 10
4147.0456396045456131
 20
170.598307054677008
 30
0.0
 40
3.0504867123086852
 50
88.0837800153959876
 51
93.6720031460537541
  0
ARC
  5
6B34
  8
0
 10
4149.1150370969853611
 20
175.9739213807355043
 30
0.0
 40
3.0470964870578241
 50
229.7846581102211019
 51
259.726438011649293
  0
ARC
  5
6B35
  8
0
 10
4149.0025969238458856
 20
172.8295075970256107
 30
0.0
 40
0.1032573043663869
 50
255.8742895327399935
 51
341.1256193599966764
  0
ARC
  5
6B36
  8
0
 10
4149.7980737838479399
 20
178.8290659723749059
 30
0.0
 40
6.154654385348552
 50
252.2873140178211884
 51
262.3372160544766984
  0
ARC
  5
6B37
  8
0
 10
4147.9746072305715643
 20
173.0406250093994913
 30
0.0
 40
0.0891528034961313
 50
171.5781621186606003
 51
236.6206916475179014
  0
ARC
  5
6B38
  8
0
 10
4146.3758468665382679
 20
167.490036188235706
 30
0.0
 40
5.6911979564398836
 50
74.1988537035489486
 51
78.8448041071502246
  0
ARC
  5
6B39
  8
0
 10
4134.6565914829216126
 20
174.931691039458201
 30
0.0
 40
14.7489668441525303
 50
337.5515855838427797
 51
352.0137117163858989
  0
ARC
  5
6B3A
  8
0
 10
4188.8155891617179805
 20
168.424886440525114
 30
0.0
 40
40.5370951669781192
 50
173.7907650365357881
 51
178.7633206109275932
  0
LINE
  5
6B3B
  8
0
 10
4150.5128908971246346
 20
171.2332108824473096
 30
0.0
 11
4151.0619266489993606
 21
171.2332108824473096
 31
0.0
  0
ARC
  5
6B3C
  8
0
 10
4151.0429959621296803
 20
170.6812317177509044
 30
0.0
 40
0.5523036928758746
 50
54.4069766836147224
 51
88.0357528517695016
  0
ARC
  5
6B3D
  8
0
 10
4150.5305200244520165
 20
170.6850603158270019
 30
0.0
 40
0.5484339794510182
 50
91.8420605895779545
 51
125.715232579495094
  0
ARC
  5
6B3E
  8
0
 10
4150.0807737746554267
 20
169.6956785827169938
 30
0.0
 40
0.0365507714932021
 50
274.6244292447307203
 51
347.6358919396154192
  0
ARC
  5
6B3F
  8
0
 10
4150.1382743601188849
 20
169.6624453613256094
 30
0.0
 40
0.0334759750459906
 50
93.3019474896515817
 51
130.6276174814134095
  0
LINE
  5
6B40
  8
0
 10
4150.1363462122262717
 20
169.6958657615473101
 30
0.0
 11
4151.4384717509392431
 21
169.6958657615473101
 31
0.0
  0
ARC
  5
6B41
  8
0
 10
4151.4374395765808003
 20
169.6647290539162043
 30
0.0
 40
0.0311538110992899
 50
47.5483472573309527
 51
88.1013539849561482
  0
ARC
  5
6B42
  8
0
 10
4151.4931882148948716
 20
169.6945772691169907
 30
0.0
 40
0.035392299745272
 50
191.1786525672856101
 51
266.6127732904395771
  0
ARC
  5
6B43
  8
0
 10
4150.3437687500691027
 20
169.7631044092447894
 30
0.0
 40
0.100682819991611
 50
221.8995280611399039
 51
267.2157648459145776
  0
ARC
  5
6B44
  8
0
 10
4150.221807271106627
 20
172.1117456088863946
 30
0.0
 40
2.452001535317629
 50
267.0821831645362749
 51
272.7366274625500751
  0
ARC
  5
6B45
  8
0
 10
4151.2359065285036195
 20
169.7528924466822957
 30
0.0
 40
0.0903520133625079
 50
270.0211013863349763
 51
320.8641542145351195
  0
ARC
  5
6B46
  8
0
 10
4151.3596580589319274
 20
172.393947973117605
 30
0.0
 40
2.734207983789652
 50
267.4065780743728737
 51
272.4933646656518818
  0
ARC
  5
6B47
  8
0
 10
4149.8529097262971845
 20
169.3933841830703102
 30
0.0
 40
0.115359018870465
 50
7.0000204121938987
 51
82.5937883393879559
  0
ARC
  5
6B48
  8
0
 10
4149.4218147720712295
 20
169.6056143548393038
 30
0.0
 40
0.0375918369080123
 50
11.1792788317880607
 51
82.6991447049609008
  0
ARC
  5
6B49
  8
0
 10
4149.5538221276055992
 20
169.5855688149547973
 30
0.0
 40
0.0668032303189831
 50
95.5010227743627951
 51
173.8060397722366019
  0
ARC
  5
6B4A
  8
0
 10
4149.5704918337960407
 20
170.0985186214078055
 30
0.0
 40
0.5920902925751168
 50
259.7856204043275739
 51
266.1266393385686797
  0
LINE
  5
6B4B
  8
0
 10
4149.9863279738301571
 20
169.2534228996140939
 30
0.0
 11
4149.9836391864264442
 21
169.5549597475474002
 31
0.0
  0
ARC
  5
6B4C
  8
0
 10
4149.9087636903786915
 20
169.2896565496751862
 30
0.0
 40
0.3629100215449023
 50
79.0262472287322737
 51
86.9854542970975757
  0
LINE
  5
6B4D
  8
0
 10
4150.0113739457310658
 20
169.2160051413810038
 30
0.0
 11
4150.0140497634183703
 21
169.5529854529193869
 31
0.0
  0
ARC
  5
6B4E
  8
0
 10
4149.2044782019402192
 20
169.4553801110926941
 30
0.0
 40
0.1885292468325292
 50
95.9273330382810343
 51
142.6834577987837065
  0
ARC
  5
6B4F
  8
0
 10
4149.7285143694389262
 20
168.3059343318805929
 30
0.0
 40
1.2361461915413141
 50
145.5870247082411026
 51
170.368729105622009
  0
ARC
  5
6B50
  8
0
 10
4148.4775316198847577
 20
168.3937536682888094
 30
0.0
 40
0.1195052907474101
 50
95.2894509324024739
 51
137.7110507226952905
  0
ARC
  5
6B51
  8
0
 10
4156.9240179990547404
 20
162.647513811497987
 30
0.0
 40
10.3341299956151502
 50
145.6791924482774903
 51
150.7889397466263119
  0
ARC
  5
6B52
  8
0
 10
4157.5897692961443681
 20
162.2721656683644085
 30
0.0
 40
11.0983970857575596
 50
150.7749547302869075
 51
160.1404686711954071
  0
ARC
  5
6B53
  8
0
 10
4160.6337614204421698
 20
161.6154407952959104
 30
0.0
 40
14.1905686271668401
 50
161.8220555998890973
 51
178.6096781584132884
  0
ARC
  5
6B54
  8
0
 10
4155.9931766692570818
 20
162.0848867864112037
 30
0.0
 40
9.5466263741296
 50
180.7510462523732997
 51
230.4885699343361125
  0
ARC
  5
6B55
  8
0
 10
4153.5384734677991219
 20
159.9970609699211934
 30
0.0
 40
6.3991445554934163
 50
235.5580833361032091
 51
269.9904375165673969
  0
ARC
  5
6B56
  8
0
 10
4147.5505758372783021
 20
168.480912143732894
 30
0.0
 40
0.9597442110189058
 50
344.7837613778115156
 51
1.9010413648332101
  0
ARC
  5
6B57
  8
0
 10
4147.0394608061033068
 20
168.736033729767712
 30
0.0
 40
1.5240236664373961
 50
328.5257200955716144
 51
340.5682224611146012
  0
ARC
  5
6B58
  8
0
 10
4157.7474195639379104
 20
162.2070244854701002
 30
0.0
 40
11.0174440179800897
 50
148.6420425632364015
 51
159.036581801804914
  0
ARC
  5
6B59
  8
0
 10
4158.2177429295816182
 20
162.059145512522889
 30
0.0
 40
11.5095827210686998
 50
159.1868094859839005
 51
173.8104143694012009
  0
ARC
  5
6B5A
  8
0
 10
4159.8317293508962393
 20
161.9110941798001022
 30
0.0
 40
13.1301506408376305
 50
173.9274900788306866
 51
179.7876767225336891
  0
ARC
  5
6B5B
  8
0
 10
4175.6755049106668594
 20
162.8168555170097136
 30
0.0
 40
28.9865107138627707
 50
181.6944305958919017
 51
183.2817013990757005
  0
ARC
  5
6B5C
  8
0
 10
4156.1491691166702367
 20
161.9455611265038044
 30
0.0
 40
9.4455720218396362
 50
184.7857475986862141
 51
208.4115224544347029
  0
ARC
  5
6B5D
  8
0
 10
4155.2381651850791968
 20
161.5111128094698927
 30
0.0
 40
8.4377410503190831
 50
208.7601201258771084
 51
225.7098161742515003
  0
ARC
  5
6B5E
  8
0
 10
4153.5787262561079842
 20
159.5616023040005871
 30
0.0
 40
5.886040386508979
 50
224.0208669915897133
 51
256.7676124346323263
  0
ARC
  5
6B5F
  8
0
 10
4154.0241696845168917
 20
165.1360207135982989
 30
0.0
 40
11.4454596852286805
 50
260.9883395599997016
 51
267.562531339293173
  0
ARC
  5
6B60
  8
0
 10
4142.5481474133794109
 20
165.0230704468744136
 30
0.0
 40
7.9375516861882671
 50
33.3049933874654727
 51
34.945444821541308
  0
ARC
  5
6B61
  8
0
 10
4144.3554367971437387
 20
168.4950701580455075
 30
0.0
 40
4.9073269002773072
 50
355.2588832128967056
 51
10.4072291758163704
  0
ARC
  5
6B62
  8
0
 10
4135.8347489291236343
 20
168.9575321124067102
 30
0.0
 40
13.4392880299826096
 50
342.0874289756088729
 51
356.2965720125127973
  0
ARC
  5
6B63
  8
0
 10
4162.0640071827629072
 20
160.3596194672078923
 30
0.0
 40
14.1634366130157598
 50
161.6265259280013993
 51
177.7201218166524086
  0
ARC
  5
6B64
  8
0
 10
4154.8209674878098667
 20
160.713413474867906
 30
0.0
 40
6.9123652693126623
 50
178.2620524683447059
 51
229.166996101934302
  0
ARC
  5
6B65
  8
0
 10
4153.6338416610642525
 20
158.8704294087403923
 30
0.0
 40
4.7516372781938854
 50
225.4644385517497085
 51
268.8370816723816006
  0
ARC
  5
6B66
  8
0
 10
4157.7667351067357231
 20
162.4463429192954891
 30
0.0
 40
11.8026104739884907
 50
182.3628304520476888
 51
205.4060606087572012
  0
LINE
  5
6B67
  8
0
 10
4157.09117175542724
 20
169.5549597475474002
 30
0.0
 11
4157.0969639569248102
 21
169.6459305764473129
 31
0.0
  0
LINE
  5
6B68
  8
0
 10
4157.5874020702258349
 20
169.5122864694758107
 30
0.0
 11
4157.5874020702258349
 21
169.5927765199473072
 31
0.0
  0
LINE
  5
6B69
  8
0
 10
4157.1074020703263159
 20
169.4074429517472993
 30
0.0
 11
4157.1074020702262715
 21
169.3239165162472943
 31
0.0
  0
LINE
  5
6B6A
  8
0
 10
4156.7874020702247435
 20
169.6958657615473101
 30
0.0
 11
4156.7874020702247435
 21
169.6907266365473106
 31
0.0
  0
LINE
  5
6B6B
  8
0
 10
4157.0666231565246562
 20
169.6592472191472893
 30
0.0
 11
4157.0571894461272677
 21
170.7402433526474113
 31
0.0
  0
LINE
  5
6B6C
  8
0
 10
4157.0607611784325854
 20
169.5529854529193869
 30
0.0
 11
4157.0532086675257233
 21
169.6592471445474075
 31
0.0
  0
LINE
  5
6B6D
  8
0
 10
4155.787402070225653
 20
169.6907266365473106
 30
0.0
 11
4155.787402070225653
 21
169.6958657615473101
 31
0.0
  0
LINE
  5
6B6E
  8
0
 10
4155.5081809839248308
 20
169.6592472191472893
 30
0.0
 11
4155.5176146942249034
 21
170.7402433526474113
 31
0.0
  0
LINE
  5
6B6F
  8
0
 10
4158.6082961869251449
 20
168.5127500682474135
 30
0.0
 11
4158.565019124124774
 21
168.5127500682474135
 31
0.0
  0
LINE
  5
6B70
  8
0
 10
4157.0615544339925691
 20
169.4530864551238096
 30
0.0
 11
4157.09026732204984
 21
169.4535311300635101
 31
0.0
  0
LINE
  5
6B71
  8
0
 10
4157.5443156456249199
 20
169.5077807848473981
 30
0.0
 11
4157.2070310796261765
 21
169.507780783947311
 31
0.0
  0
LINE
  5
6B72
  8
0
 10
4157.6482190211263514
 20
169.6429014176472947
 30
0.0
 11
4157.8898015989252599
 21
169.6429014176472947
 31
0.0
  0
LINE
  5
6B73
  8
0
 10
4157.1469620032257808
 20
169.6520643821473016
 30
0.0
 11
4157.5273928071246701
 21
169.6520643821473016
 31
0.0
  0
LINE
  5
6B74
  8
0
 10
4156.9910903009258618
 20
169.6592467988473061
 30
0.0
 11
4157.0666231565246562
 21
169.6592472191472893
 31
0.0
  0
LINE
  5
6B75
  8
0
 10
4155.5837138395263537
 20
169.6592467988473061
 30
0.0
 11
4155.5081809839248308
 21
169.6592472191472893
 31
0.0
  0
LINE
  5
6B76
  8
0
 10
4155.8388711377247091
 20
169.6625404436472877
 30
0.0
 11
4156.7359328545262542
 21
169.6625404429472894
 31
0.0
  0
LINE
  5
6B77
  8
0
 10
4156.7874020702247435
 20
169.6907266365473106
 30
0.0
 11
4155.787402070225653
 21
169.6907266365473106
 31
0.0
  0
ARC
  5
6B78
  8
0
 10
4193.3070091520248752
 20
190.7751758834473037
 30
0.0
 40
41.1682821939999997
 50
211.0036908599990966
 51
211.9257907708027062
  0
ARC
  5
6B79
  8
0
 10
4156.9266873562255569
 20
169.334631230106794
 30
0.0
 40
0.1810320770955374
 50
273.3931383598012985
 51
356.6068618521815097
  0
ARC
  5
6B7A
  8
0
 10
4156.1016588083975876
 20
170.6943445398142103
 30
0.0
 40
0.585844884179235
 50
131.9067704236248062
 51
175.5064793600637927
  0
ARC
  5
6B7B
  8
0
 10
4156.4390553665043626
 20
170.6775011336281125
 30
0.0
 40
0.6213101692693441
 50
5.795820886956192
 51
46.7909293922453671
  0
ARC
  5
6B7C
  8
0
 10
4156.002402070224889
 20
169.7819165161473052
 30
0.0
 40
0.125
 50
226.846088355520294
 51
252.8448231495000869
  0
ARC
  5
6B7D
  8
0
 10
4156.572402070224598
 20
169.7819165161473052
 30
0.0
 40
0.125
 50
287.1562646619195789
 51
313.1539116444798196
  0
ARC
  5
6B7E
  8
0
 10
4153.4660217980353991
 20
207.7287875011026017
 30
0.0
 40
35.1162638906923306
 50
270.1164698503517911
 51
278.2471502049966716
  0
ARC
  5
6B7F
  8
0
 10
4127.5123867370257358
 20
176.9517278366473079
 30
0.0
 40
33.4618369466999965
 50
359.3769888782002795
 51
5.010044479299113
  0
LINE
  5
6B80
  8
0
 10
4157.6093155096259579
 20
169.5158122886473109
 30
0.0
 11
4157.6161176253262965
 21
169.6129026441473115
 31
0.0
  0
ARC
  5
6B81
  8
0
 10
4153.170955470132867
 20
162.0840644410413915
 30
0.0
 40
8.8658161207867554
 50
272.3688762623201001
 51
289.5162297359266859
  0
ARC
  5
6B82
  8
0
 10
4152.0038659773063046
 20
161.9024473988116881
 30
0.0
 40
9.1583781442568721
 50
296.7973359073511119
 51
330.4281999681218167
  0
ARC
  5
6B83
  8
0
 10
4149.1841258320309862
 20
161.7005876043820081
 30
0.0
 40
11.9193435710220896
 50
1.2458856256309709
 51
29.5054849406344992
  0
ARC
  5
6B84
  8
0
 10
4189.5825312144997952
 20
181.9930604980420981
 30
0.0
 40
33.30903664981075
 50
202.4003666048556909
 51
205.6567656567110021
  0
ARC
  5
6B85
  8
0
 10
4159.4588932598762767
 20
179.0338750484818036
 30
0.0
 40
1.778299641380203
 50
54.1500268130902498
 51
85.6268522200594191
  0
ARC
  5
6B86
  8
0
 10
4159.9855773097169731
 20
179.7788607662309914
 30
0.0
 40
0.8660397454830757
 50
6.304516139615667
 51
53.5276988589326592
  0
ARC
  5
6B87
  8
0
 10
4155.4021745653826656
 20
176.9112378479935046
 30
0.0
 40
5.5794487027447177
 50
324.1948264094006049
 51
356.6775988093140199
  0
ARC
  5
6B88
  8
0
 10
4157.9597738448683231
 20
175.9739213807355043
 30
0.0
 40
3.0470964870578241
 50
280.2735619883505933
 51
310.2153418897788129
  0
ARC
  5
6B89
  8
0
 10
4172.4182194589293431
 20
174.931691039458201
 30
0.0
 40
14.7489668441525303
 50
187.9862882836139875
 51
202.4484144161571919
  0
ARC
  5
6B8A
  8
0
 10
4118.2592217801338847
 20
168.424886440525114
 30
0.0
 40
40.5370951669781192
 50
1.2366793890723089
 51
6.4553715263843223
  0
LINE
  5
6B8B
  8
0
 10
4156.5619200447263211
 20
171.2332108824473096
 30
0.0
 11
4156.0128842928534141
 21
171.2332108824473096
 31
0.0
  0
ARC
  5
6B8C
  8
0
 10
4156.0318149797212754
 20
170.6812317177509044
 30
0.0
 40
0.5523036928758746
 50
91.9642471482304984
 51
125.5930233163852989
  0
ARC
  5
6B8D
  8
0
 10
4156.5442909173980297
 20
170.6850603158270019
 30
0.0
 40
0.5484339794510182
 50
54.2847674205048421
 51
88.1579394104220313
  0
ARC
  5
6B8E
  8
0
 10
4156.994037167197348
 20
169.6956785827169938
 30
0.0
 40
0.0365507714932021
 50
192.3641080603846092
 51
265.3755707552693934
  0
ARC
  5
6B8F
  8
0
 10
4156.9365365817311613
 20
169.6624453613256094
 30
0.0
 40
0.0334759750459906
 50
49.3723825185865977
 51
86.6980525103484183
  0
LINE
  5
6B90
  8
0
 10
4156.938464729624684
 20
169.6958657615473101
 30
0.0
 11
4155.6363391909126221
 21
169.6958657615473101
 31
0.0
  0
ARC
  5
6B91
  8
0
 10
4155.6373713652701554
 20
169.6647290539162043
 30
0.0
 40
0.0311538110992899
 50
91.8986460150438376
 51
132.4516527426690971
  0
ARC
  5
6B92
  8
0
 10
4155.5816227269551746
 20
169.6945772691169907
 30
0.0
 40
0.035392299745272
 50
273.3872267095604229
 51
348.8213474327142762
  0
ARC
  5
6B93
  8
0
 10
4156.7310421917827625
 20
169.7631044092447894
 30
0.0
 40
0.100682819991611
 50
272.7842351540854224
 51
318.1004719388600961
  0
ARC
  5
6B94
  8
0
 10
4156.8530036707452382
 20
172.1117456088863946
 30
0.0
 40
2.452001535317629
 50
267.2633725374499249
 51
272.9178168354637251
  0
ARC
  5
6B95
  8
0
 10
4155.8389044133482457
 20
169.7528924466822957
 30
0.0
 40
0.0903520133625079
 50
219.1358457854649089
 51
269.97889861366491
  0
ARC
  5
6B96
  8
0
 10
4155.7151528829181188
 20
172.393947973117605
 30
0.0
 40
2.734207983789652
 50
267.5066353343481182
 51
272.5934219256270126
  0
ARC
  5
6B97
  8
0
 10
4157.2219012155546807
 20
169.3933841830703102
 30
0.0
 40
0.115359018870465
 50
97.4062116606120441
 51
172.9999795878061093
  0
ARC
  5
6B98
  8
0
 10
4157.6529961697806357
 20
169.6056143548393038
 30
0.0
 40
0.0375918369080123
 50
97.3008552950391135
 51
168.8207211682118896
  0
ARC
  5
6B99
  8
0
 10
4157.520988814246266
 20
169.5855688149547973
 30
0.0
 40
0.0668032303189831
 50
6.1939602277634069
 51
84.4989772256372333
  0
ARC
  5
6B9A
  8
0
 10
4157.504319108054915
 20
170.0985186214078055
 30
0.0
 40
0.5920902925751168
 50
273.8733606614313203
 51
280.2143795956724261
  0
LINE
  5
6B9B
  8
0
 10
4157.0884829680207986
 20
169.2534228996140939
 30
0.0
 11
4157.09117175542724
 21
169.5549597475474002
 31
0.0
  0
ARC
  5
6B9C
  8
0
 10
4157.1660472514722642
 20
169.2896565496751862
 30
0.0
 40
0.3629100215449023
 50
93.0145457029024243
 51
100.9737527712676979
  0
LINE
  5
6B9D
  8
0
 10
4157.0634369961207994
 20
169.2160051413810038
 30
0.0
 11
4157.0607611784325854
 21
169.5529854529193869
 31
0.0
  0
ARC
  5
6B9E
  8
0
 10
4157.8703327399116461
 20
169.4553801110926941
 30
0.0
 40
0.1885292468325292
 50
37.3165422012162935
 51
84.0726669617189657
  0
ARC
  5
6B9F
  8
0
 10
4157.346296572412939
 20
168.3059343318805929
 30
0.0
 40
1.2361461915413141
 50
9.6312708943779377
 51
34.4129752917588903
  0
ARC
  5
6BA0
  8
0
 10
4158.5972793219652885
 20
168.3937536682888094
 30
0.0
 40
0.1195052907474101
 50
42.2889492773046669
 51
84.7105490675975261
  0
ARC
  5
6BA1
  8
0
 10
4150.1507929427962154
 20
162.647513811497987
 30
0.0
 40
10.3341299956151502
 50
29.211060253373649
 51
34.3208075517224671
  0
ARC
  5
6BA2
  8
0
 10
4149.4850416457065876
 20
162.2721656683644085
 30
0.0
 40
11.0983970857575596
 50
19.8595313288046214
 51
29.2250452697130392
  0
ARC
  5
6BA3
  8
0
 10
4146.4410495214087859
 20
161.6154407952959104
 30
0.0
 40
14.1905686271668401
 50
1.390321841586696
 51
18.1779444001108814
  0
ARC
  5
6BA4
  8
0
 10
4151.0816342725938739
 20
162.0848867864112037
 30
0.0
 40
9.5466263741296
 50
309.5114300656637738
 51
359.248953747626615
  0
ARC
  5
6BA5
  8
0
 10
4153.5363374740527433
 20
159.9970609699213071
 30
0.0
 40
6.3991445554934367
 50
270.0095624834326031
 51
304.4419166638967909
  0
ARC
  5
6BA6
  8
0
 10
4159.5242351045753821
 20
168.480912143732894
 30
0.0
 40
0.9597442110189058
 50
178.0989586351668095
 51
195.2162386221885129
  0
ARC
  5
6BA7
  8
0
 10
4160.0353501357485584
 20
168.736033729767712
 30
0.0
 40
1.5240236664373961
 50
199.4317775388853988
 51
211.474279904426993
  0
ARC
  5
6BA8
  8
0
 10
4149.3273913779139548
 20
162.2070244854701002
 30
0.0
 40
11.0174440179800897
 50
20.9634181981950505
 51
31.3579574367635594
  0
ARC
  5
6BA9
  8
0
 10
4148.8570680122693375
 20
162.059145512522889
 30
0.0
 40
11.5095827210686998
 50
6.1895856305987849
 51
20.8131905140161209
  0
ARC
  5
6BAA
  8
0
 10
4147.2430815909547164
 20
161.9110941798001022
 30
0.0
 40
13.1301506408376305
 50
0.2123232774662562
 51
6.0725099211692788
  0
ARC
  5
6BAB
  8
0
 10
4131.3993060311840964
 20
162.8168555170097136
 30
0.0
 40
28.9865107138627707
 50
356.7182986009241858
 51
358.3055694041079846
  0
ARC
  5
6BAC
  8
0
 10
4150.925641825180719
 20
161.9455611265038044
 30
0.0
 40
9.4455720218396362
 50
331.5884775455652971
 51
355.2142524013136722
  0
ARC
  5
6BAD
  8
0
 10
4151.8366457567717589
 20
161.5111128094698927
 30
0.0
 40
8.4377410503190831
 50
314.2901838257484997
 51
331.2398798741227779
  0
ARC
  5
6BAE
  8
0
 10
4153.496084685743881
 20
159.5616023040005871
 30
0.0
 40
5.886040386508979
 50
283.2323875653676737
 51
315.9791330084090077
  0
ARC
  5
6BAF
  8
0
 10
4153.0506412573331545
 20
165.1360207135982989
 30
0.0
 40
11.4454596852286805
 50
272.4374686607067133
 51
279.0116604400004121
  0
ARC
  5
6BB0
  8
0
 10
4164.5266635284724543
 20
165.0230704468744136
 30
0.0
 40
7.9375516861882671
 50
145.0545551784587133
 51
146.6950066125345131
  0
ARC
  5
6BB1
  8
0
 10
4162.7193741447081266
 20
168.4950701580455075
 30
0.0
 40
4.9073269002773072
 50
169.5927708241835887
 51
184.7411167871032944
  0
ARC
  5
6BB2
  8
0
 10
4171.2400620127273214
 20
168.9575321124067102
 30
0.0
 40
13.4392880299826096
 50
183.703427987487288
 51
197.9125710243910135
  0
ARC
  5
6BB3
  8
0
 10
4145.010803759087139
 20
160.3596194672078923
 30
0.0
 40
14.1634366130157598
 50
2.2798781833476052
 51
18.3734740719986007
  0
ARC
  5
6BB4
  8
0
 10
4152.2538434540419985
 20
160.713413474867906
 30
0.0
 40
6.9123652693126623
 50
310.8330038980656127
 51
1.737947531655349
  0
ARC
  5
6BB5
  8
0
 10
4153.4409692807867032
 20
158.8704294087403923
 30
0.0
 40
4.7516372781938916
 50
271.1629183276183994
 51
314.5355614482502915
  0
ARC
  5
6BB6
  8
0
 10
4149.3080758351152326
 20
162.4463429192954891
 30
0.0
 40
11.8026104739884907
 50
334.5939393912428272
 51
357.6371695479522259
  0
ENDSEC
  0
EOF
