  0
SECTION
  2
HEADER
  9
$ACADVER
  1
AC1009
  9
$INSBASE
 10
4089.3106573820527956
 20
152.0600203854320966
 30
0.0
  9
$EXTMIN
 10
4081.8475051511591118
 20
152.0547657552313865
 30
0.0
  9
$EXTMAX
 10
4096.7738096129478436
 20
183.5048811505494086
 30
0.0
  9
$LIMMIN
 10
0.0
 20
0.0
  9
$LIMMAX
 10
11.6929133858000007
 20
8.2677165353999982
  9
$ORTHOMODE
 70
     1
  9
$REGENMODE
 70
     1
  9
$FILLMODE
 70
     1
  9
$QTEXTMODE
 70
     0
  9
$MIRRTEXT
 70
     0
  9
$DRAGMODE
 70
     2
  9
$LTSCALE
 40
0.6431102362
  9
$OSMODE
 70
  4095
  9
$ATTMODE
 70
     1
  9
$TEXTSIZE
 40
0.2
  9
$TRACEWID
 40
0.05
  9
$TEXTSTYLE
  7
STANDARD
  9
$CLAYER
  8
0
  9
$CELTYPE
  6
BYLAYER
  9
$CECOLOR
 62
   256
  9
$DIMSCALE
 40
1.0
  9
$DIMASZ
 40
0.1875
  9
$DIMEXO
 40
0.0625
  9
$DIMDLI
 40
0.4443307087
  9
$DIMRND
 40
0.0
  9
$DIMDLE
 40
0.0
  9
$DIMEXE
 40
0.125
  9
$DIMTP
 40
0.01
  9
$DIMTM
 40
0.01
  9
$DIMTXT
 40
2.0
  9
$DIMCEN
 40
0.1052362205
  9
$DIMTSZ
 40
0.0
  9
$DIMTOL
 70
     1
  9
$DIMLIM
 70
     0
  9
$DIMTIH
 70
     1
  9
$DIMTOH
 70
     1
  9
$DIMSE1
 70
     0
  9
$DIMSE2
 70
     0
  9
$DIMTAD
 70
     0
  9
$DIMZIN
 70
     0
  9
$DIMBLK
  1

  9
$DIMASO
 70
     1
  9
$DIMSHO
 70
     1
  9
$DIMPOST
  1
\X
  9
$DIMAPOST
  1

  9
$DIMALT
 70
     1
  9
$DIMALTD
 70
     2
  9
$DIMALTF
 40
25.3999999999999986
  9
$DIMLFAC
 40
1.0
  9
$DIMTOFL
 70
     0
  9
$DIMTVP
 40
0.0
  9
$DIMTIX
 70
     0
  9
$DIMSOXD
 70
     0
  9
$DIMSAH
 70
     0
  9
$DIMBLK1
  1

  9
$DIMBLK2
  1

  9
$DIMSTYLE
  2
STANDARD
  9
$DIMCLRD
 70
     0
  9
$DIMCLRE
 70
     0
  9
$DIMCLRT
 70
     0
  9
$DIMTFAC
 40
1.0
  9
$DIMGAP
 40
0.09
  9
$LUNITS
 70
     2
  9
$LUPREC
 70
     4
  9
$SKETCHINC
 40
0.1
  9
$FILLETRAD
 40
0.0
  9
$AUNITS
 70
     0
  9
$AUPREC
 70
     0
  9
$MENU
  1
.
  9
$ELEVATION
 40
0.0
  9
$PELEVATION
 40
0.0
  9
$THICKNESS
 40
0.0
  9
$LIMCHECK
 70
     0
  9
$BLIPMODE
 70
     0
  9
$CHAMFERA
 40
0.0
  9
$CHAMFERB
 40
0.0
  9
$SKPOLY
 70
     0
  9
$TDCREATE
 40
2458060.468368056230247
  9
$TDUPDATE
 40
2458993.7262384258210659
  9
$TDINDWG
 40
0.3008056713
  9
$TDUSRTIMER
 40
0.3008056713
  9
$USRTIMER
 70
     1
  9
$ANGBASE
 50
0.0
  9
$ANGDIR
 70
     0
  9
$PDMODE
 70
     0
  9
$PDSIZE
 40
0.3125
  9
$PLINEWID
 40
0.0
  9
$COORDS
 70
     1
  9
$SPLFRAME
 70
     0
  9
$SPLINETYPE
 70
     6
  9
$SPLINESEGS
 70
     8
  9
$ATTDIA
 70
     1
  9
$ATTREQ
 70
     1
  9
$HANDLING
 70
     1
  9
$HANDSEED
  5
687C
  9
$SURFTAB1
 70
     6
  9
$SURFTAB2
 70
     6
  9
$SURFTYPE
 70
     6
  9
$SURFU
 70
     6
  9
$SURFV
 70
     6
  9
$UCSNAME
  2

  9
$UCSORG
 10
0.0
 20
0.0
 30
0.0
  9
$UCSXDIR
 10
1.0
 20
0.0
 30
0.0
  9
$UCSYDIR
 10
0.0
 20
1.0
 30
0.0
  9
$PUCSNAME
  2

  9
$PUCSORG
 10
0.0
 20
0.0
 30
0.0
  9
$PUCSXDIR
 10
1.0
 20
0.0
 30
0.0
  9
$PUCSYDIR
 10
0.0
 20
1.0
 30
0.0
  9
$USERI1
 70
     0
  9
$USERI2
 70
     0
  9
$USERI3
 70
     0
  9
$USERI4
 70
     0
  9
$USERI5
 70
     0
  9
$USERR1
 40
0.0
  9
$USERR2
 40
0.0
  9
$USERR3
 40
0.0
  9
$USERR4
 40
0.0
  9
$USERR5
 40
0.0
  9
$WORLDVIEW
 70
     1
  9
$SHADEDGE
 70
     3
  9
$SHADEDIF
 70
    70
  9
$TILEMODE
 70
     1
  9
$MAXACTVP
 70
    64
  9
$PLIMCHECK
 70
     0
  9
$PEXTMIN
 10
1.0000000000000000E+20
 20
1.0000000000000000E+20
 30
1.0000000000000000E+20
  9
$PEXTMAX
 10
-1.0000000000000000E+20
 20
-1.0000000000000000E+20
 30
-1.0000000000000000E+20
  9
$PLIMMIN
 10
0.0
 20
0.0
  9
$PLIMMAX
 10
12.0
 20
9.0
  9
$UNITMODE
 70
     0
  9
$VISRETAIN
 70
     1
  9
$PLINEGEN
 70
     0
  9
$PSLTSCALE
 70
     1
  0
ENDSEC
  0
SECTION
  2
TABLES
  0
TABLE
  2
VPORT
 70
     1
  0
VPORT
  2
*ACTIVE
 70
     0
 10
0.0
 20
0.0
 11
1.0
 21
1.0
 12
0.0
 22
0.0
 13
0.0
 23
0.0
 14
1.0
 24
1.0
 15
0.0
 25
0.0
 16
0.0
 26
0.0
 36
130.311407495904291
 17
4089.3106689453120453
 27
167.7798242838657075
 37
0.0
 40
34.8560148994833199
 41
2.9513274336283182
 42
50.0
 43
0.0
 44
0.0
 50
0.0
 51
0.0
 71
     0
 72
   100
 73
     1
 74
     1
 75
     0
 76
     0
 77
     0
 78
     0
  0
ENDTAB
  0
TABLE
  2
LTYPE
 70
     2
  0
LTYPE
  2
CONTINUOUS
 70
     0
  3
Solid line
 72
    65
 73
     0
 40
0.0
  0
LTYPE
  2
PHANTOM2
 70
     0
  3
___ _ _ ___ _ _ ___ _ _ ___ _ _
 72
    65
 73
     6
 40
1.25
 49
0.625
 49
-0.125
 49
0.125
 49
-0.125
 49
0.125
 49
-0.125
  0
ENDTAB
  0
TABLE
  2
LAYER
 70
     2
  0
LAYER
  2
0
 70
     0
 62
   255
  6
CONTINUOUS
  0
LAYER
  2
DEFPOINTS
 70
     0
 62
     7
  6
CONTINUOUS
  0
ENDTAB
  0
TABLE
  2
STYLE
 70
     1
  0
STYLE
  2
STANDARD
 70
     0
 40
0.0
 41
0.8
 50
0.0
 71
     0
 42
0.2
  3
txt
  4

  0
ENDTAB
  0
TABLE
  2
VIEW
 70
     0
  0
ENDTAB
  0
TABLE
  2
UCS
 70
     0
  0
ENDTAB
  0
TABLE
  2
APPID
 70
     9
  0
APPID
  2
ACAD
 70
     0
  0
APPID
  2
ACAD_MLEADERVER
 70
     0
  0
APPID
  2
ACAD_EXEMPT_FROM_CAD_STANDARDS
 70
     0
  0
APPID
  2
ACAD_NAV_VCDISPLAY
 70
     0
  0
APPID
  2
ACAECLAYERSTANDARD
 70
     0
  0
APPID
  2
ACCMTRANSPARENCY
 70
     0
  0
APPID
  2
ACAD_DSTYLE_DIMJAG
 70
     0
  0
APPID
  2
ACAD_DSTYLE_DIMTALN
 70
     0
  0
APPID
  2
ACDBATTR
 70
     0
  0
ENDTAB
  0
TABLE
  2
DIMSTYLE
 70
     1
  0
DIMSTYLE
  2
STANDARD
 70
     0
  3

  4

  5

  6

  7

 40
1.0
 41
0.1875
 42
0.0625
 43
0.38
 44
0.125
 45
0.0
 46
0.0
 47
0.01
 48
0.01
140
0.15625
141
0.09
142
0.0
143
25.3999999999999986
144
1.0
145
0.0
146
1.0
147
0.09
 71
     1
 72
     0
 73
     1
 74
     1
 75
     0
 76
     0
 77
     0
 78
     4
170
     0
171
     2
172
     0
173
     0
174
     0
175
     0
176
     0
177
     0
178
     0
  0
ENDTAB
  0
ENDSEC
  0
SECTION
  2
BLOCKS
  0
BLOCK
  8
0
  2
$MODEL_SPACE
 70
     0
 10
0.0
 20
0.0
 30
0.0
  3
$MODEL_SPACE
  1

  0
ENDBLK
  5
21
  8
0
  0
BLOCK
 67
     1
  8
0
  2
$PAPER_SPACE
 70
     0
 10
0.0
 20
0.0
 30
0.0
  3
$PAPER_SPACE
  1

  0
ENDBLK
  5
1D
 67
     1
  8
0
  0
ENDSEC
  0
SECTION
  2
ENTITIES
  0
ATTDEF
  5
3930
  8
DEFPOINTS
 10
4089.3066857441849606
 20
152.0580990885648021
 30
0.0
 40
0.001
  1
402319
  3

  2
MODELNUMBER
 70
     0
1001
ACDBATTR
1070
     0
1070
     1
  0
ATTDEF
  5
3931
  8
DEFPOINTS
 10
4089.3066857441849606
 20
152.0564324218981085
 30
0.0
 40
0.001
  1
VALTON
  3

  2
TRADENAME
 70
     0
1001
ACDBATTR
1070
     0
1070
     1
  0
ATTDEF
  5
3932
  8
DEFPOINTS
 10
4089.3066857441849606
 20
152.0547657552313865
 30
0.0
 40
0.001
  1
TOILET
  3

  2
PRODUCT
 70
     0
1001
ACDBATTR
1070
     0
1070
     1
  0
LINE
  5
677E
  8
0
 10
4084.8105656430548152
 20
161.4847970059321085
 30
0.0
 11
4084.8318413233241699
 21
162.5110517785736022
 31
0.0
  0
LINE
  5
677F
  8
0
 10
4084.3924181879360731
 20
152.0600203854320966
 30
0.0
 11
4085.3232466412541726
 21
160.114881284632105
 31
0.0
  0
LINE
  5
6780
  8
0
 10
4082.2190518248539775
 20
168.8079938043321135
 30
0.0
 11
4082.2190518248539775
 21
168.8004216504320993
 31
0.0
  0
LINE
  5
6781
  8
0
 10
4082.3536221624540303
 20
169.5597043606321108
 30
0.0
 11
4082.3536221625531653
 21
169.5408500621321082
 31
0.0
  0
LINE
  5
6782
  8
0
 10
4083.0517008645538226
 20
169.4519728639320988
 30
0.0
 11
4083.0522064119709285
 21
169.4810216504320977
 31
0.0
  0
LINE
  5
6783
  8
0
 10
4084.5611340930531696
 20
169.417368294732114
 30
0.0
 11
4084.5616414303540296
 21
169.3883371039320878
 31
0.0
  0
LINE
  5
6784
  8
0
 10
4084.7107836320537899
 20
168.6067607562281125
 30
0.0
 11
4084.7104064489540178
 21
168.5600216504321054
 31
0.0
  0
LINE
  5
6785
  8
0
 10
4085.418142966654159
 20
169.3977881487321042
 30
0.0
 11
4085.4204093896541963
 21
169.5371602585782114
 31
0.0
  0
LINE
  5
6786
  8
0
 10
4096.2931762598536807
 20
168.5600216504321054
 30
0.0
 11
4082.3281385042541842
 21
168.5600216504321054
 31
0.0
  0
LINE
  5
6787
  8
0
 10
4084.3264147114541629
 20
168.6200216504321077
 30
0.0
 11
4082.9426893201539315
 21
168.6200216504321077
 31
0.0
  0
LINE
  5
6788
  8
0
 10
4082.289638032053972
 20
168.7304216504321062
 30
0.0
 11
4096.3316767320538929
 21
168.7304216504321062
 31
0.0
  0
ARC
  5
6789
  8
0
 10
4082.9454697126848259
 20
168.6838870173585008
 30
0.0
 40
0.0639258607705973
 50
200.5747535716267862
 51
267.5071899666240824
  0
ARC
  5
678A
  8
0
 10
4084.8936352994041954
 20
168.6761778102639937
 30
0.0
 40
0.1162674775997954
 50
193.3768364403626947
 51
267.4925896959466058
  0
ARC
  5
678B
  8
0
 10
4084.6753708113701578
 20
168.6220163297888917
 30
0.0
 40
0.1086280819455798
 50
14.5349594001077893
 51
86.3300453876869369
  0
ARC
  5
678C
  8
0
 10
4089.5261881142641869
 20
86.9704029118953343
 30
0.0
 40
83.4157053977037748
 50
90.148041846472367
 51
92.0813797146929574
  0
LINE
  5
678D
  8
0
 10
4081.9894727237037841
 20
182.9071611834820885
 30
0.0
 11
4081.8475051511591118
 21
181.8615827517822083
 31
0.0
  0
LINE
  5
678E
  8
0
 10
4088.2106573827040847
 20
183.2250216503821036
 30
0.0
 11
4088.2106573827040847
 21
183.2585951387821126
 31
0.0
  0
LINE
  5
678F
  8
0
 10
4090.4106573827039028
 20
183.2250216503821036
 30
0.0
 11
4090.4106573827039028
 21
183.2585951387821126
 31
0.0
  0
LINE
  5
6790
  8
0
 10
4088.2106573827040847
 20
183.2250216503821036
 30
0.0
 11
4090.4106573827039028
 21
183.2250216503821036
 31
0.0
  0
LINE
  5
6791
  8
0
 10
4090.1486573827041866
 20
183.3679886353820905
 30
0.0
 11
4088.4726573827051652
 21
183.3679886353820905
 31
0.0
  0
ARC
  5
6792
  8
0
 10
4089.3106573827039938
 20
180.8641883170820961
 30
0.0
 40
2.6408333332999998
 50
90.5925469516889166
 51
107.3368666374086047
  0
ARC
  5
6793
  8
0
 10
4089.3071476935369901
 20
180.8493018459008113
 30
0.0
 40
2.6560895722512772
 50
72.6865549300814706
 51
88.8768901850163928
  0
ARC
  5
6794
  8
0
 10
4089.3106573813251998
 20
180.8641883203293901
 30
0.0
 40
2.6408333297734838
 50
108.5740639096703006
 51
114.4763366329702023
  0
ARC
  5
6795
  8
0
 10
4089.3112709832639666
 20
180.8658696376344892
 30
0.0
 40
2.6390441382645009
 50
65.5208906389738672
 51
71.4269366990237842
  0
ARC
  5
6796
  8
0
 10
4088.5326483247290525
 20
183.3564253560932968
 30
0.0
 40
0.029982217061972
 50
107.3293417901119966
 51
157.3145810715948869
  0
ARC
  5
6797
  8
0
 10
4090.0886664406780255
 20
183.3564253560932968
 30
0.0
 40
0.0299822170619694
 50
22.6854189284080903
 51
72.6706582098885008
  0
ARC
  5
6798
  8
0
 10
4089.1183580978231475
 20
183.3564425721287989
 30
0.0
 40
0.0299437457556767
 50
116.2167414120048932
 51
157.3195142691330943
  0
ARC
  5
6799
  8
0
 10
4088.220657382583795
 20
183.2585951388174976
 30
0.0
 40
0.0099999998798648
 50
114.4763360920166946
 51
180.0000002023342063
  0
ARC
  5
679A
  8
0
 10
4088.4726573827051652
 20
183.3579886353820996
 30
0.0
 40
0.01
 50
90.0
 51
108.5740639154981011
  0
ARC
  5
679B
  8
0
 10
4090.4006722335861923
 20
183.2585995042601041
 30
0.0
 40
0.0099851500716028
 50
359.9749504545440004
 51
65.6506944284952709
  0
ARC
  5
679C
  8
0
 10
4090.1486573826869062
 20
183.357988635095694
 30
0.0
 40
0.0100000002864749
 50
71.4259365833607802
 51
89.9999998998181212
  0
LINE
  5
679D
  8
0
 10
4083.2641592948771176
 20
170.1858707220659994
 30
0.0
 11
4082.3433737711470712
 21
181.7150154041821111
 31
0.0
  0
ARC
  5
679E
  8
0
 10
4082.0042113987487937
 20
181.871974994754197
 30
0.0
 40
0.1570504592401008
 50
183.7941121239894926
 51
268.0508464724726991
  0
LINE
  5
679F
  8
0
 10
4090.4108804302350109
 20
183.2219553458822077
 30
0.0
 11
4088.2104343338760373
 21
183.221955345882094
 31
0.0
  0
ARC
  5
67A0
  8
0
 10
4089.2102156037021814
 20
-16.9838407574265808
 30
0.0
 40
200.2082924255315106
 50
90.2861194438248447
 51
92.0065345970604227
  0
ARC
  5
67A1
  8
0
 10
4082.2236100539362269
 20
182.8649280528798045
 30
0.0
 40
0.2379157975597522
 50
95.6402728086939362
 51
169.775071529622295
  0
LINE
  5
67A2
  8
0
 10
4081.9988697066041823
 20
181.7150154041821111
 30
0.0
 11
4096.6224450575036826
 21
181.7150154041821111
 31
0.0
  0
ARC
  5
67A3
  8
0
 10
4089.3609327344670419
 20
183.4679572478169973
 30
0.0
 40
0.0369641189282816
 50
92.6729284135168143
 51
114.404650596484899
  0
LINE
  5
67A4
  8
0
 10
4089.3456599609089608
 20
183.5016186274081065
 30
0.0
 11
4089.1051299089581335
 21
183.3833059845931928
 31
0.0
  0
ARC
  5
67A5
  8
0
 10
4089.2835555305268826
 20
183.4747401242202898
 30
0.0
 40
0.0301410263290537
 50
19.9198708417189607
 51
90.3970732957372149
  0
LINE
  5
67A6
  8
0
 10
4088.2165142088201719
 20
183.2676964633782006
 30
0.0
 11
4090.4047890960750919
 21
183.2676964633782006
 31
0.0
  0
LINE
  5
67A7
  8
0
 10
4088.3609348095060341
 20
183.221955345882094
 30
0.0
 11
4088.3567181868429543
 21
183.2250216503821036
 31
0.0
  0
ARC
  5
67A8
  8
0
 10
4082.2956952060189906
 20
168.8071182112888948
 30
0.0
 40
0.0769353742026412
 50
184.9934222879724075
 51
265.4843913538554716
  0
LINE
  5
67A9
  8
0
 10
4082.2190518248539775
 20
168.8079938043321135
 30
0.0
 11
4082.2862874894540255
 21
169.1771676098321109
 31
0.0
  0
LINE
  5
67AA
  8
0
 10
4096.1892438730328649
 20
169.3258830320309016
 30
0.0
 11
4082.4320708910740905
 21
169.3258830320309016
 31
0.0
  0
ARC
  5
67AB
  8
0
 10
4082.4672766835951734
 20
169.1455590394830892
 30
0.0
 40
0.1837285772965477
 50
101.0472525007057953
 51
170.0935795896577929
  0
LINE
  5
67AC
  8
0
 10
4082.4136218615540201
 20
169.4810216504320977
 30
0.0
 11
4083.1968506298289867
 21
169.4810216504320977
 31
0.0
  0
ARC
  5
67AD
  8
0
 10
4082.4145754655660312
 20
244.5295039933546946
 30
0.0
 40
75.0525592928621563
 50
270.5972065090109027
 51
272.2952937601867802
  0
ARC
  5
67AE
  8
0
 10
4089.6587111855938019
 20
-14.0590723912911795
 30
0.0
 40
183.6451465336120918
 50
90.1085899970689042
 51
91.3224328110493531
  0
ARC
  5
67AF
  8
0
 10
4082.5391067121890956
 20
169.4271695739527104
 30
0.0
 40
0.053974141592929
 50
6.4003505820492226
 51
86.1459049589192887
  0
ARC
  5
67B0
  8
0
 10
4082.6729141892428743
 20
169.4497434099295106
 30
0.0
 40
0.0818616165662177
 50
191.6689611244096056
 51
263.2423128566983905
  0
ARC
  5
67B1
  8
0
 10
4082.7319707291308077
 20
171.3212074353396872
 30
0.0
 40
1.9539646396891099
 50
267.9854215477888033
 51
277.9520121005328974
  0
ARC
  5
67B2
  8
0
 10
4082.9806113104991709
 20
169.4537587882834941
 30
0.0
 40
0.0711119836708058
 50
287.7487531935033758
 51
358.5609079899605263
  0
ARC
  5
67B3
  8
0
 10
4083.4372502170540429
 20
170.733205429120602
 30
0.0
 40
1.419073643228639
 50
277.3786562379279985
 51
299.3786711421388986
  0
ARC
  5
67B4
  8
0
 10
4084.4706086124288049
 20
169.4155969346994937
 30
0.0
 40
0.0905428095361283
 50
1.120993811352651
 51
82.7922463397928396
  0
ARC
  5
67B5
  8
0
 10
4084.6529174476218031
 20
169.3903361627178015
 30
0.0
 40
0.091297905585282
 50
181.254648558259305
 51
224.9075619802113977
  0
ARC
  5
67B6
  8
0
 10
4085.3266645510529997
 20
169.3997945587786091
 30
0.0
 40
0.0915004164038479
 50
306.1211268724376851
 51
358.7435243816876778
  0
ARC
  5
67B7
  8
0
 10
4090.8347340991131205
 20
37.7058575386919514
 30
0.0
 40
132.6961472535411133
 50
91.8734532778322546
 51
93.5336904821003969
  0
ARC
  5
67B8
  8
0
 10
4082.690756771028191
 20
169.8775386234958091
 30
0.0
 40
0.2743915845711731
 50
97.287980541803762
 51
167.4017913222587879
  0
LINE
  5
67B9
  8
0
 10
4082.4229715530541398
 20
169.9373869210321004
 30
0.0
 11
4082.3536221624540303
 21
169.5597043606321108
 31
0.0
  0
ARC
  5
67BA
  8
0
 10
4082.4180028174969266
 20
169.5454150931419122
 30
0.0
 40
0.0645422980609918
 50
184.0558763696957953
 51
266.1079254733319885
  0
ARC
  5
67BB
  8
0
 10
4082.7853577977330133
 20
168.6232706739922094
 30
0.0
 40
0.1072766648500696
 50
20.8321358734899214
 51
87.2262007475625438
  0
ARC
  5
67BC
  8
0
 10
4084.3255320938378645
 20
168.6821008717950008
 30
0.0
 40
0.0620854953985099
 50
270.8145536654092211
 51
341.7685094281513898
  0
ARC
  5
67BD
  8
0
 10
4086.0838533998298772
 20
168.6869122697169132
 30
0.0
 40
0.1276557739099372
 50
276.2763791001623872
 51
342.8541947635463885
  0
ARC
  5
67BE
  8
0
 10
4086.3130301658379722
 20
168.6195440218924944
 30
0.0
 40
0.1112419797237923
 50
94.638547163406372
 51
164.4964480488038987
  0
ARC
  5
67BF
  8
0
 10
4085.1124042096412268
 20
171.9296400028206904
 30
0.0
 40
3.3470719342474502
 50
252.9064270377731987
 51
264.8011145942653002
  0
LINE
  5
67C0
  8
0
 10
4084.3924181879360731
 20
152.0600203854320966
 30
0.0
 11
4094.2288965761708823
 21
152.0600203854320966
 31
0.0
  0
ARC
  5
67C1
  8
0
 10
4082.3413204436751585
 20
168.3992091518433938
 30
0.0
 40
0.1613518615611349
 50
94.6861076132429673
 51
175.8338803679750129
  0
ARC
  5
67C2
  8
0
 10
4094.6755583855338045
 20
168.5347366192162895
 30
0.0
 40
12.4957767833226594
 50
180.5676837142206921
 51
188.6285428829187936
  0
ARC
  5
67C3
  8
0
 10
4089.1322170883108811
 20
168.0544111768734865
 30
0.0
 40
6.9522741708619584
 50
191.5700572049910022
 51
228.5562598471977935
  0
ARC
  5
67C4
  8
0
 10
4082.6239057245220465
 20
160.80977575649149
 30
0.0
 40
2.7873499442597351
 50
345.5637337489043261
 51
46.8383995420456714
  0
ARC
  5
67C5
  8
0
 10
4087.2618271004957933
 20
161.621272354928692
 30
0.0
 40
2.4550576884513098
 50
183.1866845415823946
 51
217.8493086279746933
  0
LINE
  5
67C6
  8
0
 10
4093.8107491210530497
 20
161.4847970059321085
 30
0.0
 11
4093.7894734407850592
 21
162.5110517785736022
 31
0.0
  0
LINE
  5
67C7
  8
0
 10
4094.2288965761708823
 20
152.0600203854320966
 30
0.0
 11
4093.2980681228541471
 21
160.114881284632105
 31
0.0
  0
LINE
  5
67C8
  8
0
 10
4096.402262939252978
 20
168.8079938043321135
 30
0.0
 11
4096.402262939252978
 21
168.8004216504320993
 31
0.0
  0
LINE
  5
67C9
  8
0
 10
4096.2676926016538346
 20
169.5597043606321108
 30
0.0
 11
4096.2676926015528807
 21
169.5408500621321082
 31
0.0
  0
LINE
  5
67CA
  8
0
 10
4095.5696138995540423
 20
169.4519728639320988
 30
0.0
 11
4095.5691083521369364
 21
169.4810216504320977
 31
0.0
  0
LINE
  5
67CB
  8
0
 10
4094.0601806710537858
 20
169.417368294732114
 30
0.0
 11
4094.0596733337538353
 21
169.3883371039320878
 31
0.0
  0
LINE
  5
67CC
  8
0
 10
4093.910531132054075
 20
168.6067607562281125
 30
0.0
 11
4093.9109083151538471
 21
168.5600216504321054
 31
0.0
  0
LINE
  5
67CD
  8
0
 10
4093.2031717974541607
 20
169.3977881487321042
 30
0.0
 11
4093.2009053744541234
 21
169.5371602585782114
 31
0.0
  0
LINE
  5
67CE
  8
0
 10
4094.2949000526541568
 20
168.6200216504321077
 30
0.0
 11
4095.6786254439539334
 21
168.6200216504321077
 31
0.0
  0
ARC
  5
67CF
  8
0
 10
4095.675845051423039
 20
168.6838870173585008
 30
0.0
 40
0.0639258607705973
 50
272.4928100333759176
 51
339.4252464283732138
  0
ARC
  5
67D0
  8
0
 10
4093.7276794647041243
 20
168.6761778102639937
 30
0.0
 40
0.1162674775997954
 50
272.5074103040533942
 51
346.6231635596371916
  0
ARC
  5
67D1
  8
0
 10
4093.9459439527367977
 20
168.6220163297888917
 30
0.0
 40
0.1086280819455798
 50
93.6699546123130631
 51
165.4650405998922054
  0
ARC
  5
67D2
  8
0
 10
4089.0951266498432233
 20
86.9704029118873763
 30
0.0
 40
83.4157053977117471
 50
87.9186202853070569
 51
89.8519581535276473
  0
LINE
  5
67D3
  8
0
 10
4096.6318420404040808
 20
182.9071611834820885
 30
0.0
 11
4096.7738096129478436
 21
181.8615827517822083
 31
0.0
  0
LINE
  5
67D4
  8
0
 10
4095.357155469231202
 20
170.1858707220659994
 30
0.0
 11
4096.2779409929607937
 21
181.7150154041821111
 31
0.0
  0
ARC
  5
67D5
  8
0
 10
4096.6171033653599807
 20
181.871974994754197
 30
0.0
 40
0.1570504592401008
 50
271.9491535275273009
 51
356.2058878760104221
  0
ARC
  5
67D6
  8
0
 10
4089.4110991604070477
 20
-16.9838407574265808
 30
0.0
 40
200.2082924255315106
 50
87.9934654029395773
 51
89.7138805561751553
  0
ARC
  5
67D7
  8
0
 10
4096.3977047101725475
 20
182.8649280528798045
 30
0.0
 40
0.2379157975597522
 50
10.2249284703777299
 51
84.359727191306078
  0
LINE
  5
67D8
  8
0
 10
4090.2603799546018308
 20
183.221955345882094
 30
0.0
 11
4090.2645965772658201
 21
183.2250216503821036
 31
0.0
  0
ARC
  5
67D9
  8
0
 10
4096.3256195580888743
 20
168.8071182112888948
 30
0.0
 40
0.0769353742026412
 50
274.5156086461445284
 51
355.0065777120274788
  0
LINE
  5
67DA
  8
0
 10
4096.402262939252978
 20
168.8079938043321135
 30
0.0
 11
4096.3350272746538394
 21
169.1771676098321109
 31
0.0
  0
ARC
  5
67DB
  8
0
 10
4096.154038080511782
 20
169.1455590394830892
 30
0.0
 40
0.1837285772965477
 50
9.906420410342152
 51
78.9527474992941336
  0
LINE
  5
67DC
  8
0
 10
4096.2076929025542995
 20
169.4810216504320977
 30
0.0
 11
4095.4244641342779687
 21
169.4810216504320977
 31
0.0
  0
ARC
  5
67DD
  8
0
 10
4096.2067392985409242
 20
244.5295039933546946
 30
0.0
 40
75.0525592928621563
 50
267.7047062398131061
 51
269.4027934909890973
  0
ARC
  5
67DE
  8
0
 10
4088.962603578514063
 20
-14.0590723912906395
 30
0.0
 40
183.645146533611495
 50
88.6775671889246127
 51
89.8914100029310674
  0
ARC
  5
67DF
  8
0
 10
4096.0822080519192241
 20
169.4271695739527104
 30
0.0
 40
0.053974141592929
 50
93.8540950410807113
 51
173.5996494179507863
  0
ARC
  5
67E0
  8
0
 10
4095.9484005748640811
 20
169.4497434099295106
 30
0.0
 40
0.0818616165662177
 50
276.7576871433016095
 51
348.3310388755903091
  0
ARC
  5
67E1
  8
0
 10
4095.8893440349770572
 20
171.3212074353396872
 30
0.0
 40
1.9539646396891099
 50
262.0479878994669889
 51
272.0145784522113104
  0
ARC
  5
67E2
  8
0
 10
4095.6407034536100582
 20
169.4537587882834941
 30
0.0
 40
0.0711119836708058
 50
181.4390920100395022
 51
252.2512468064965958
  0
ARC
  5
67E3
  8
0
 10
4095.184064547053822
 20
170.733205429120602
 30
0.0
 40
1.419073643228639
 50
240.6213288578611014
 51
262.6213437620720015
  0
ARC
  5
67E4
  8
0
 10
4094.15070615167906
 20
169.4155969346994937
 30
0.0
 40
0.0905428095361283
 50
97.2077536602330241
 51
178.8790061886473097
  0
ARC
  5
67E5
  8
0
 10
4093.9683973164860618
 20
169.3903361627178015
 30
0.0
 40
0.091297905585282
 50
315.0924380197885739
 51
358.745351441740695
  0
ARC
  5
67E6
  8
0
 10
4093.2946502130548652
 20
169.3997945587786091
 30
0.0
 40
0.0915004164038479
 50
181.2564756183122086
 51
233.8788731275622013
  0
ARC
  5
67E7
  8
0
 10
4087.7865806649951992
 20
37.7058575386919514
 30
0.0
 40
132.6961472535411133
 50
86.4663095178995746
 51
88.1265467221677596
  0
ARC
  5
67E8
  8
0
 10
4095.9305579930801287
 20
169.8775386234958091
 30
0.0
 40
0.2743915845711731
 50
12.5982086777411606
 51
82.712019458196238
  0
LINE
  5
67E9
  8
0
 10
4096.1983432110528156
 20
169.9373869210321004
 30
0.0
 11
4096.2676926016538346
 21
169.5597043606321108
 31
0.0
  0
ARC
  5
67EA
  8
0
 10
4096.2033119466113931
 20
169.5454150931419122
 30
0.0
 40
0.0645422980609918
 50
273.8920745266680115
 51
355.9441236303042047
  0
ARC
  5
67EB
  8
0
 10
4095.8359569663748516
 20
168.6232706739922094
 30
0.0
 40
0.1072766648500696
 50
92.7737992524374562
 51
159.1678641265100964
  0
ARC
  5
67EC
  8
0
 10
4094.2957826702700004
 20
168.6821008717950008
 30
0.0
 40
0.0620854953985099
 50
198.2314905718484965
 51
269.1854463345907789
  0
ARC
  5
67ED
  8
0
 10
4092.5374613642788972
 20
168.6869122697169132
 30
0.0
 40
0.1276557739099372
 50
197.1458052364534979
 51
263.7236208998376128
  0
ARC
  5
67EE
  8
0
 10
4092.3082845982698927
 20
168.6195440218924944
 30
0.0
 40
0.1112419797237923
 50
15.5035519511960498
 51
85.361452836593628
  0
ARC
  5
67EF
  8
0
 10
4093.5089105544670929
 20
171.9296400028206904
 30
0.0
 40
3.3470719342474502
 50
275.1988854057346998
 51
287.0935729622268013
  0
ARC
  5
67F0
  8
0
 10
4096.2799943204327064
 20
168.3992091518433938
 30
0.0
 40
0.1613518615611349
 50
4.1661196320249383
 51
85.3138923867570327
  0
ARC
  5
67F1
  8
0
 10
4083.9457563785731509
 20
168.5347366192162895
 30
0.0
 40
12.4957767833226594
 50
351.3714571170810927
 51
359.4323162857775742
  0
ARC
  5
67F2
  8
0
 10
4089.4890976757969838
 20
168.0544111768734865
 30
0.0
 40
6.9522741708619584
 50
311.4437401528022065
 51
348.4299427950089125
  0
ARC
  5
67F3
  8
0
 10
4095.9974090395849089
 20
160.80977575649149
 30
0.0
 40
2.7873499442597351
 50
133.1616004579543073
 51
194.4362662510957023
  0
ARC
  5
67F4
  8
0
 10
4091.3594876636120716
 20
161.621272354928692
 30
0.0
 40
2.4550576884513098
 50
322.1506913720252783
 51
356.8133154584176054
  0
ENDSEC
  0
EOF
