  0
SECTION
  2
HEADER
  9
$ACADVER
  1
AC1009
  9
$INSBASE
 10
4164.7439643374063962
 20
155.625437654133691
 30
0.0
  9
$EXTMIN
 10
4133.905419289108977
 20
155.625437654133691
 30
0.0
  9
$EXTMAX
 10
4164.7502256806419609
 20
185.8727751543009958
 30
0.0
  9
$LIMMIN
 10
0.0
 20
0.0
  9
$LIMMAX
 10
11.6929133858000007
 20
8.2677165353999982
  9
$ORTHOMODE
 70
     1
  9
$REGENMODE
 70
     1
  9
$FILLMODE
 70
     1
  9
$QTEXTMODE
 70
     0
  9
$MIRRTEXT
 70
     0
  9
$DRAGMODE
 70
     2
  9
$LTSCALE
 40
0.6431102362
  9
$OSMODE
 70
  4095
  9
$ATTMODE
 70
     1
  9
$TEXTSIZE
 40
0.2
  9
$TRACEWID
 40
0.05
  9
$TEXTSTYLE
  7
STANDARD
  9
$CLAYER
  8
0
  9
$CELTYPE
  6
BYLAYER
  9
$CECOLOR
 62
   256
  9
$DIMSCALE
 40
1.0
  9
$DIMASZ
 40
0.1875
  9
$DIMEXO
 40
0.0625
  9
$DIMDLI
 40
0.4443307087
  9
$DIMRND
 40
0.0
  9
$DIMDLE
 40
0.0
  9
$DIMEXE
 40
0.125
  9
$DIMTP
 40
0.01
  9
$DIMTM
 40
0.01
  9
$DIMTXT
 40
2.0
  9
$DIMCEN
 40
0.1052362205
  9
$DIMTSZ
 40
0.0
  9
$DIMTOL
 70
     1
  9
$DIMLIM
 70
     0
  9
$DIMTIH
 70
     1
  9
$DIMTOH
 70
     1
  9
$DIMSE1
 70
     0
  9
$DIMSE2
 70
     0
  9
$DIMTAD
 70
     0
  9
$DIMZIN
 70
     0
  9
$DIMBLK
  1

  9
$DIMASO
 70
     1
  9
$DIMSHO
 70
     1
  9
$DIMPOST
  1
\X
  9
$DIMAPOST
  1

  9
$DIMALT
 70
     1
  9
$DIMALTD
 70
     2
  9
$DIMALTF
 40
25.3999999999999986
  9
$DIMLFAC
 40
1.0
  9
$DIMTOFL
 70
     0
  9
$DIMTVP
 40
0.0
  9
$DIMTIX
 70
     0
  9
$DIMSOXD
 70
     0
  9
$DIMSAH
 70
     0
  9
$DIMBLK1
  1

  9
$DIMBLK2
  1

  9
$DIMSTYLE
  2
STANDARD
  9
$DIMCLRD
 70
     0
  9
$DIMCLRE
 70
     0
  9
$DIMCLRT
 70
     0
  9
$DIMTFAC
 40
1.0
  9
$DIMGAP
 40
0.09
  9
$LUNITS
 70
     2
  9
$LUPREC
 70
     4
  9
$SKETCHINC
 40
0.1
  9
$FILLETRAD
 40
0.0
  9
$AUNITS
 70
     0
  9
$AUPREC
 70
     0
  9
$MENU
  1
.
  9
$ELEVATION
 40
0.0
  9
$PELEVATION
 40
0.0
  9
$THICKNESS
 40
0.0
  9
$LIMCHECK
 70
     0
  9
$BLIPMODE
 70
     0
  9
$CHAMFERA
 40
0.0
  9
$CHAMFERB
 40
0.0
  9
$SKPOLY
 70
     0
  9
$TDCREATE
 40
2458060.468368056230247
  9
$TDUPDATE
 40
2458925.4540162030607462
  9
$TDINDWG
 40
0.3022755787
  9
$TDUSRTIMER
 40
0.3022755787
  9
$USRTIMER
 70
     1
  9
$ANGBASE
 50
0.0
  9
$ANGDIR
 70
     0
  9
$PDMODE
 70
     0
  9
$PDSIZE
 40
0.3125
  9
$PLINEWID
 40
0.0
  9
$COORDS
 70
     1
  9
$SPLFRAME
 70
     0
  9
$SPLINETYPE
 70
     6
  9
$SPLINESEGS
 70
     8
  9
$ATTDIA
 70
     1
  9
$ATTREQ
 70
     1
  9
$HANDLING
 70
     1
  9
$HANDSEED
  5
6AD6
  9
$SURFTAB1
 70
     6
  9
$SURFTAB2
 70
     6
  9
$SURFTYPE
 70
     6
  9
$SURFU
 70
     6
  9
$SURFV
 70
     6
  9
$UCSNAME
  2

  9
$UCSORG
 10
0.0
 20
0.0
 30
0.0
  9
$UCSXDIR
 10
1.0
 20
0.0
 30
0.0
  9
$UCSYDIR
 10
0.0
 20
1.0
 30
0.0
  9
$PUCSNAME
  2

  9
$PUCSORG
 10
0.0
 20
0.0
 30
0.0
  9
$PUCSXDIR
 10
1.0
 20
0.0
 30
0.0
  9
$PUCSYDIR
 10
0.0
 20
1.0
 30
0.0
  9
$USERI1
 70
     0
  9
$USERI2
 70
     0
  9
$USERI3
 70
     0
  9
$USERI4
 70
     0
  9
$USERI5
 70
     0
  9
$USERR1
 40
0.0
  9
$USERR2
 40
0.0
  9
$USERR3
 40
0.0
  9
$USERR4
 40
0.0
  9
$USERR5
 40
0.0
  9
$WORLDVIEW
 70
     1
  9
$SHADEDGE
 70
     3
  9
$SHADEDIF
 70
    70
  9
$TILEMODE
 70
     1
  9
$MAXACTVP
 70
    64
  9
$PLIMCHECK
 70
     0
  9
$PEXTMIN
 10
1.0000000000000000E+20
 20
1.0000000000000000E+20
 30
1.0000000000000000E+20
  9
$PEXTMAX
 10
-1.0000000000000000E+20
 20
-1.0000000000000000E+20
 30
-1.0000000000000000E+20
  9
$PLIMMIN
 10
0.0
 20
0.0
  9
$PLIMMAX
 10
12.0
 20
9.0
  9
$UNITMODE
 70
     0
  9
$VISRETAIN
 70
     1
  9
$PLINEGEN
 70
     0
  9
$PSLTSCALE
 70
     1
  0
ENDSEC
  0
SECTION
  2
TABLES
  0
TABLE
  2
VPORT
 70
     1
  0
VPORT
  2
*ACTIVE
 70
     0
 10
0.0
 20
0.0
 11
1.0
 21
1.0
 12
0.0
 22
0.0
 13
0.0
 23
0.0
 14
1.0
 24
1.0
 15
0.0
 25
0.0
 16
0.0
 26
0.0
 36
123.7639443467975013
 17
4149.3277495592292325
 27
170.7491073608397869
 37
0.0
 40
43.2072162649721179
 41
2.1481900452488678
 42
50.0
 43
0.0
 44
0.0
 50
0.0
 51
0.0
 71
     0
 72
   100
 73
     1
 74
     1
 75
     0
 76
     0
 77
     0
 78
     0
  0
ENDTAB
  0
TABLE
  2
LTYPE
 70
     2
  0
LTYPE
  2
CONTINUOUS
 70
     0
  3
Solid line
 72
    65
 73
     0
 40
0.0
  0
LTYPE
  2
PHANTOM2
 70
     0
  3
___ _ _ ___ _ _ ___ _ _ ___ _ _
 72
    65
 73
     6
 40
1.25
 49
0.625
 49
-0.125
 49
0.125
 49
-0.125
 49
0.125
 49
-0.125
  0
ENDTAB
  0
TABLE
  2
LAYER
 70
     2
  0
LAYER
  2
0
 70
     0
 62
   255
  6
CONTINUOUS
  0
LAYER
  2
DEFPOINTS
 70
     0
 62
     7
  6
CONTINUOUS
  0
ENDTAB
  0
TABLE
  2
STYLE
 70
     1
  0
STYLE
  2
STANDARD
 70
     0
 40
0.0
 41
0.8
 50
0.0
 71
     0
 42
0.2
  3
txt
  4

  0
ENDTAB
  0
TABLE
  2
VIEW
 70
     0
  0
ENDTAB
  0
TABLE
  2
UCS
 70
     0
  0
ENDTAB
  0
TABLE
  2
APPID
 70
     9
  0
APPID
  2
ACAD
 70
     0
  0
APPID
  2
ACAD_MLEADERVER
 70
     0
  0
APPID
  2
ACAD_EXEMPT_FROM_CAD_STANDARDS
 70
     0
  0
APPID
  2
ACAD_NAV_VCDISPLAY
 70
     0
  0
APPID
  2
ACAECLAYERSTANDARD
 70
     0
  0
APPID
  2
ACCMTRANSPARENCY
 70
     0
  0
APPID
  2
ACAD_DSTYLE_DIMJAG
 70
     0
  0
APPID
  2
ACAD_DSTYLE_DIMTALN
 70
     0
  0
APPID
  2
ACDBATTR
 70
     0
  0
ENDTAB
  0
TABLE
  2
DIMSTYLE
 70
     1
  0
DIMSTYLE
  2
STANDARD
 70
     0
  3

  4

  5

  6

  7

 40
1.0
 41
0.1875
 42
0.0625
 43
0.38
 44
0.125
 45
0.0
 46
0.0
 47
0.01
 48
0.01
140
0.15625
141
0.09
142
0.0
143
25.3999999999999986
144
1.0
145
0.0
146
1.0
147
0.09
 71
     1
 72
     0
 73
     1
 74
     1
 75
     0
 76
     0
 77
     0
 78
     4
170
     0
171
     2
172
     0
173
     0
174
     0
175
     0
176
     0
177
     0
178
     0
  0
ENDTAB
  0
ENDSEC
  0
SECTION
  2
BLOCKS
  0
BLOCK
  8
0
  2
$MODEL_SPACE
 70
     0
 10
0.0
 20
0.0
 30
0.0
  3
$MODEL_SPACE
  1

  0
ENDBLK
  5
21
  8
0
  0
BLOCK
 67
     1
  8
0
  2
$PAPER_SPACE
 70
     0
 10
0.0
 20
0.0
 30
0.0
  3
$PAPER_SPACE
  1

  0
ENDBLK
  5
1D
 67
     1
  8
0
  0
ENDSEC
  0
SECTION
  2
ENTITIES
  0
ATTDEF
  5
3930
  8
DEFPOINTS
 10
4164.7395590139740307
 20
155.6380748435539942
 30
0.0
 40
0.001
  1
402318
  3

  2
MODELNUMBER
 70
     0
1001
ACDBATTR
1070
     0
1070
     1
  0
ATTDEF
  5
3931
  8
DEFPOINTS
 10
4164.7395590139740307
 20
155.6364081768873859
 30
0.0
 40
0.001
  1
VALTON
  3

  2
TRADENAME
 70
     0
1001
ACDBATTR
1070
     0
1070
     1
  0
ATTDEF
  5
3932
  8
DEFPOINTS
 10
4164.7395590139740307
 20
155.6347415102206924
 30
0.0
 40
0.001
  1
TOILET
  3

  2
PRODUCT
 70
     0
1001
ACDBATTR
1070
     0
1070
     1
  0
LINE
  5
691C
  8
0
 10
4133.9523995066101634
 20
171.1560282053337119
 30
0.0
 11
4133.9523995066101634
 21
171.1414282053337956
 31
0.0
  0
LINE
  5
691D
  8
0
 10
4134.2301455741098835
 20
172.0102551565337023
 30
0.0
 11
4134.2301455667102346
 21
171.9920247070336927
 31
0.0
  0
LINE
  5
691E
  8
0
 10
4136.8522938506102946
 20
155.625437654133691
 30
0.0
 11
4159.6501549064114442
 21
155.625437654133691
 31
0.0
  0
LINE
  5
691F
  8
0
 10
4136.6460712182088173
 20
171.7767158910338026
 30
0.0
 11
4136.6468786344112232
 21
171.7304110677337121
 31
0.0
  0
LINE
  5
6920
  8
0
 10
4137.7605641332102095
 20
171.737706286933701
 30
0.0
 11
4137.7624365177098298
 21
171.8450858054337118
 31
0.0
  0
LINE
  5
6921
  8
0
 10
4145.6633992175766252
 20
171.819389434539886
 30
0.0
 11
4145.6639536041102474
 21
171.7874969465337074
 31
0.0
  0
LINE
  5
6922
  8
0
 10
4154.3085853748088994
 20
168.0169695664336871
 30
0.0
 11
4158.0814755002102174
 21
168.0872785543336931
 31
0.0
  0
LINE
  5
6923
  8
0
 10
4159.7923514950089157
 20
168.1180387792337001
 30
0.0
 11
4160.9210962693096008
 21
168.1390642883337989
 31
0.0
  0
LINE
  5
6924
  8
0
 10
4147.865999852108871
 20
157.4360741666336878
 30
0.0
 11
4147.4776169481101533
 21
162.5830932760337078
 31
0.0
  0
LINE
  5
6925
  8
0
 10
4146.9568229611113566
 20
171.7846081274336996
 30
0.0
 11
4146.9568133671091346
 21
171.8191852794330998
 31
0.0
  0
LINE
  5
6926
  8
0
 10
4145.0780625777088062
 20
169.9167699612337117
 30
0.0
 11
4160.1260573622103038
 21
169.916776236833698
 31
0.0
  0
LINE
  5
6927
  8
0
 10
4160.1260566880091574
 20
170.6703195438336991
 30
0.0
 11
4163.7436827504097892
 21
170.6703195438336991
 31
0.0
  0
LINE
  5
6928
  8
0
 10
4136.4623994003095504
 20
170.9210282053336982
 30
0.0
 11
4137.1226263209318859
 21
170.9210282053336982
 31
0.0
  0
LINE
  5
6929
  8
0
 10
4138.1106814467475488
 20
170.9210282053336982
 30
0.0
 11
4148.9942712002030021
 21
170.9210282053336982
 31
0.0
  0
LINE
  5
692A
  8
0
 10
4151.2208679577006478
 20
172.296109025321897
 30
0.0
 11
4151.44522888560914
 21
172.3129146110337899
 31
0.0
  0
LINE
  5
692B
  8
0
 10
4146.7399336572098036
 20
170.961028205333804
 30
0.0
 11
4147.2289607080101632
 21
170.961028205333804
 31
0.0
  0
LINE
  5
692C
  8
0
 10
4161.7399033744095505
 20
171.1207132446338051
 30
0.0
 11
4158.0411791646984057
 21
171.1207132446338051
 31
0.0
  0
LINE
  5
692D
  8
0
 10
4157.8533709478106175
 20
171.1766187564336974
 30
0.0
 11
4156.4609292606091913
 21
171.1766187564336974
 31
0.0
  0
LINE
  5
692E
  8
0
 10
4163.5981114229089144
 20
171.1810282053338028
 30
0.0
 11
4161.9576361137105778
 21
171.1810282053338028
 31
0.0
  0
LINE
  5
692F
  8
0
 10
4153.4847921369100732
 20
171.4833828107337013
 30
0.0
 11
4152.3786237352005628
 21
171.5010282044453902
 31
0.0
  0
LINE
  5
6930
  8
0
 10
4151.0636657724098768
 20
172.1625826966337058
 30
0.0
 11
4151.0649162771460396
 21
172.0983335525608879
 31
0.0
  0
LINE
  5
6931
  8
0
 10
4151.194072130276254
 20
172.1326569606949022
 30
0.0
 11
4151.1891892222884053
 21
172.2931389774126956
 31
0.0
  0
LINE
  5
6932
  8
0
 10
4151.3070241437098957
 20
172.2139829542336997
 30
0.0
 11
4151.3039389489103996
 21
172.302331395125492
 31
0.0
  0
LINE
  5
6933
  8
0
 10
4151.372228002310294
 20
170.9108536812337036
 30
0.0
 11
4151.3666674400101329
 21
171.224912336730398
 31
0.0
  0
LINE
  5
6934
  8
0
 10
4151.5043902871111641
 20
172.3799464450233074
 30
0.0
 11
4151.4997402363096626
 21
172.6654528218336964
 31
0.0
  0
LINE
  5
6935
  8
0
 10
4151.5223995066089628
 20
171.3011582569058078
 30
0.0
 11
4151.5223995066089628
 21
170.9110282053337073
 31
0.0
  0
LINE
  5
6936
  8
0
 10
4151.5343995066095886
 20
171.3075946242335874
 30
0.0
 11
4151.5343995066095886
 21
170.9727884660337054
 31
0.0
  0
LINE
  5
6937
  8
0
 10
4151.7766623978741336
 20
171.5457482213365097
 30
0.0
 11
4151.7278201561102833
 21
171.9693436634337047
 31
0.0
  0
LINE
  5
6938
  8
0
 10
4153.6323995066104544
 20
171.2986802079223025
 30
0.0
 11
4153.6323995066104544
 21
171.3334019577337131
 31
0.0
  0
LINE
  5
6939
  8
0
 10
4156.3749474073847523
 20
171.063694135334913
 30
0.0
 11
4156.3833784799098794
 21
171.1115521983336976
 31
0.0
  0
LINE
  5
693A
  8
0
 10
4159.5899918861096012
 20
156.3510768697337028
 30
0.0
 11
4159.6501549064114442
 21
155.625437654133691
 31
0.0
  0
LINE
  5
693B
  8
0
 10
4158.3161600010089387
 20
167.8323425181336859
 30
0.0
 11
4157.8720294407103211
 21
167.0409205681337141
 31
0.0
  0
LINE
  5
693C
  8
0
 10
4158.8065017638100471
 20
166.6486412136337094
 30
0.0
 11
4159.5786903479101966
 21
168.024693559333798
 31
0.0
  0
LINE
  5
693D
  8
0
 10
4160.98693089390963
 20
168.0395652054336892
 30
0.0
 11
4160.2644970478149844
 21
164.4950230077689071
 31
0.0
  0
LINE
  5
693E
  8
0
 10
4160.4502013142100623
 20
163.7323628821337138
 30
0.0
 11
4161.3309292772100889
 21
168.081655995633696
 31
0.0
  0
LINE
  5
693F
  8
0
 10
4163.7436827504097892
 20
170.6703195438336991
 30
0.0
 11
4163.755826233510561
 21
171.0180633979337017
 31
0.0
  0
ARC
  5
6940
  8
0
 10
4137.1884282402143072
 20
171.0183044793766953
 30
0.0
 40
0.1174417560870622
 50
191.8802487670733115
 51
266.9580448330318063
  0
ARC
  5
6941
  8
0
 10
4136.5525847814969893
 20
171.7709256972680123
 30
0.0
 40
0.093665576349922
 50
3.5441550477626831
 51
86.7549323524506946
  0
ARC
  5
6942
  8
0
 10
4150.471615361277145
 20
164.0832747966422005
 30
0.0
 40
0.3170028176870983
 50
140.0175893212322933
 51
171.7438212492297964
  0
ARC
  5
6943
  8
0
 10
4149.4812901112518375
 20
174.6219887612822106
 30
0.0
 40
2.7999577519977539
 50
270.0041448274408822
 51
299.6036253412149222
  0
ARC
  5
6944
  8
0
 10
4150.8198337353105671
 20
171.8214282053336888
 30
0.0
 40
0.75
 50
270.0
 51
287.7277436537784752
  0
ARC
  5
6945
  8
0
 10
4151.2843587024099179
 20
171.4484835624336938
 30
0.0
 40
0.85
 50
94.2836975782247464
 51
119.6036906005065958
  0
ARC
  5
6946
  8
0
 10
4151.4573995066102725
 20
171.7760282053338017
 30
0.0
 40
0.38
 50
64.5426468400940365
 51
89.9999946292092972
  0
ARC
  5
6947
  8
0
 10
4151.382226479208839
 20
170.9110282053337073
 30
0.0
 40
0.01
 50
181.0000000000005969
 51
270.0
  0
ARC
  5
6948
  8
0
 10
4151.436646120729165
 20
172.2198222514697079
 30
0.0
 40
0.1297534366351472
 50
182.5793545839563023
 51
211.5496410732025936
  0
ARC
  5
6949
  8
0
 10
4151.4363700275998781
 20
172.6609165565907063
 30
0.0
 40
0.0635323622603671
 50
4.094451891509161
 51
87.717529071769917
  0
ARC
  5
694A
  8
0
 10
4152.3925016191096802
 20
172.371019635733802
 30
0.0
 40
0.8701021125
 50
235.720616333509696
 51
269.0861096850013041
  0
ARC
  5
694B
  8
0
 10
4151.7830305809111451
 20
171.4768775689337019
 30
0.0
 40
0.212
 50
55.7206161078042186
 51
96.1547868643866934
  0
ARC
  5
694C
  8
0
 10
4151.5390708116428868
 20
171.9475793577531988
 30
0.0
 40
0.190000000101693
 50
6.577611436798688
 51
64.5432697298558793
  0
ARC
  5
694D
  8
0
 10
4153.4823975821882414
 20
171.3334000002463995
 30
0.0
 40
0.150001924434353
 50
0.0007476955113299
 51
89.0853203541482657
  0
ARC
  5
694E
  8
0
 10
4151.7070747964489783
 20
171.5377311531507019
 30
0.0
 40
0.0700478954314501
 50
335.1358853186791862
 51
6.5719741825086349
  0
ARC
  5
694F
  8
0
 10
4151.5116290885016497
 20
170.9117986231377131
 30
0.0
 40
0.0107979372950274
 50
274.0914731780616194
 51
355.9085494821403017
  0
ARC
  5
6950
  8
0
 10
4165.5923144885227885
 20
-827.1754198555877338
 30
0.0
 40
999.999982954680263
 50
90.8109579906276281
 51
91.781061994767839
  0
ARC
  5
6951
  8
0
 10
4173.3911566626766216
 20
157.1914623640950879
 30
0.0
 40
14.4201049084363699
 50
165.6724334756499957
 51
181.2567479545897982
  0
ARC
  5
6952
  8
0
 10
4173.4122547350316381
 20
157.1902468599915892
 30
0.0
 40
14.1129792947653705
 50
162.7819571728246899
 51
180.8679985516228896
  0
LINE
  5
6953
  8
0
 10
4163.2720697994100192
 20
170.64389130773381
 30
0.0
 11
4161.972163286110117
 21
169.1830354297229064
 31
0.0
  0
LINE
  5
6954
  8
0
 10
4134.1413468115879368
 20
170.901028205333688
 30
0.0
 11
4156.1810807978099547
 21
170.901028205333688
 31
0.0
  0
LINE
  5
6955
  8
0
 10
4134.0223974042237387
 20
171.0714282053338025
 30
0.0
 11
4150.8198337353105671
 21
171.0714282053338025
 31
0.0
  0
LINE
  5
6956
  8
0
 10
4134.271017742766162
 20
171.6668895869325127
 30
0.0
 11
4149.5456407358751676
 21
171.6668895869325127
 31
0.0
  0
LINE
  5
6957
  8
0
 10
4136.8522938506102946
 20
155.625437654133691
 30
0.0
 11
4137.8812831393806846
 21
163.9195652894854049
 31
0.0
  0
ARC
  5
6958
  8
0
 10
4136.2012136233952333
 20
164.1282910086461015
 30
0.0
 40
1.6929855298801271
 50
352.9180679813006805
 51
58.7422286362134685
  0
ARC
  5
6959
  8
0
 10
4139.6896887954271733
 20
170.7232695559359001
 30
0.0
 40
5.7716018503122974
 50
185.1521972541592049
 51
243.1141336292369886
  0
ARC
  5
695A
  8
0
 10
4134.153603386434952
 20
170.6531469383164961
 30
0.0
 40
0.2481840973249949
 50
92.8307042305516887
 51
180.0204753433623068
  0
LINE
  5
695B
  8
0
 10
4133.9054193049578316
 20
170.6530582467140107
 30
0.0
 11
4133.9414061319102984
 21
170.2049700876337965
 31
0.0
  0
ARC
  5
695C
  8
0
 10
4134.0292071701042005
 20
171.1482356643332139
 30
0.0
 40
0.0771087457379633
 50
185.0648874453590054
 51
264.9333917025637106
  0
LINE
  5
695D
  8
0
 10
4133.9523995066101634
 20
171.1560282053337119
 30
0.0
 11
4134.0757306935101951
 21
171.5356025689337116
 31
0.0
  0
ARC
  5
695E
  8
0
 10
4134.2708138606440116
 20
171.4563063835466039
 30
0.0
 40
0.2105833020830782
 50
89.944527477738788
 51
157.8795489337522042
  0
ARC
  5
695F
  8
0
 10
4134.2903645375163251
 20
171.9922404877958115
 30
0.0
 40
0.060219357404764
 50
180.2053053030967078
 51
267.6662772186022039
  0
ARC
  5
6960
  8
0
 10
4139.1955991334343707
 20
298.5274545858957822
 30
0.0
 40
126.6904752335867954
 50
267.7799427384281898
 51
269.3518382457497182
  0
ARC
  5
6961
  8
0
 10
4146.5446010254790963
 20
1657.4485748602060085
 30
0.0
 40
1485.6294467683230778
 50
269.6612991934061938
 51
270.1132662021818192
  0
ARC
  5
6962
  8
0
 10
4151.4383410080527028
 20
172.3786172082207031
 30
0.0
 40
0.0660626530980213
 50
275.9846953088106147
 51
1.1529176468496789
  0
ARC
  5
6963
  8
0
 10
4134.5382101691729986
 20
172.0663891306487869
 30
0.0
 40
0.2763150129569914
 50
95.4586404006292781
 51
158.2727370089029932
  0
LINE
  5
6964
  8
0
 10
4134.2815255335090114
 20
172.1686778602337995
 30
0.0
 11
4134.2301455741098835
 21
172.0102551565337023
 31
0.0
  0
ARC
  5
6965
  8
0
 10
4136.7376776003320629
 20
171.7323434367177128
 30
0.0
 40
0.0908195257768994
 50
181.2191755217972116
 51
226.1125019962321971
  0
ARC
  5
6966
  8
0
 10
4137.6693852107164275
 20
171.7395174523169885
 30
0.0
 40
0.0911969090876454
 50
307.2137156947296148
 51
358.8620342915529022
  0
ARC
  5
6967
  8
0
 10
4146.3001055638624166
 20
198.7030639652510047
 30
0.0
 40
26.9946516301786801
 50
268.8295278395510195
 51
271.259368422438115
  0
ARC
  5
6968
  8
0
 10
4145.7429654736088196
 20
171.793044852168407
 30
0.0
 40
0.0792064061723783
 50
184.0164942188081056
 51
274.1381763810654206
  0
ARC
  5
6969
  8
0
 10
4146.8850722842116738
 20
171.7862164656482094
 30
0.0
 40
0.0717687006095696
 50
276.6662617266554207
 51
358.715892779727028
  0
ARC
  5
696A
  8
0
 10
4150.8160575982128648
 20
172.1527077767665048
 30
0.0
 40
0.247805007962876
 50
2.283816166816536
 51
26.2012836206140918
  0
ARC
  5
696B
  8
0
 10
4150.3284069172741511
 20
173.5416494765229913
 30
0.0
 40
2.5387830172289618
 50
286.4704444736303799
 51
301.4574336198737115
  0
ARC
  5
696C
  8
0
 10
4151.4948966042702523
 20
171.634658966807109
 30
0.0
 40
0.3033164389284311
 50
301.4844583401521163
 51
335.3759233241339075
  0
LINE
  5
696D
  8
0
 10
4153.4523996356101634
 20
170.901028205333688
 30
0.0
 11
4153.4523996356101634
 21
171.1237903414632058
 31
0.0
  0
ARC
  5
696E
  8
0
 10
4153.5400341619870233
 20
171.1306500998493902
 30
0.0
 40
0.0879025966535763
 50
111.2270254672612992
 51
184.475808953707002
  0
ARC
  5
696F
  8
0
 10
4153.3821773734416638
 20
171.6092128113371871
 30
0.0
 40
0.4161661726013213
 50
287.6280628175999823
 51
302.5068330602019273
  0
ARC
  5
6970
  8
0
 10
4153.5780788727770414
 20
171.3054342061512045
 30
0.0
 40
0.0547389052879729
 50
300.4565017860325042
 51
352.9124583742813002
  0
ARC
  5
6971
  8
0
 10
4151.8100333378306459
 20
171.4616898420883047
 30
0.0
 40
0.5612473291000678
 50
240.5864755876164054
 51
267.3822206625379181
  0
ARC
  5
6972
  8
0
 10
4136.5570193045168708
 20
174.119530951872207
 30
0.0
 40
3.199901990043811
 50
252.2811272154991968
 51
268.3055382538082085
  0
ARC
  5
6973
  8
0
 10
4136.9822108550060875
 20
170.9802764367622103
 30
0.0
 40
0.0923359626195772
 50
8.6271041410393821
 51
80.8139486607277746
  0
ARC
  5
6974
  8
0
 10
4138.0438695621432998
 20
171.0208533856325062
 30
0.0
 40
0.120120333607952
 50
274.0173730418998161
 51
347.144333358020674
  0
ARC
  5
6975
  8
0
 10
4138.2524467569373883
 20
170.9801015415235099
 30
0.0
 40
0.0925369248421605
 50
99.2767124732202433
 51
171.282234725000194
  0
ARC
  5
6976
  8
0
 10
4148.804367485648072
 20
175.4544807807056088
 30
0.0
 40
4.5374283106124498
 50
272.3986848151984077
 51
284.9886092816404926
  0
ARC
  5
6977
  8
0
 10
4146.7515655852976124
 20
171.0334648720964026
 30
0.0
 40
0.0733646539059401
 50
192.9230924841457124
 51
260.8772868346011933
  0
ARC
  5
6978
  8
0
 10
4146.5981574856423322
 20
171.0116925483239072
 30
0.0
 40
0.0820772083278952
 50
3.7477115329972399
 51
46.7021383405001203
  0
ARC
  5
6979
  8
0
 10
4147.2240843341478467
 20
171.027235123527106
 30
0.0
 40
0.066386256399256
 50
274.2124306867005998
 51
342.0370911592759171
  0
ARC
  5
697A
  8
0
 10
4147.3721761166143551
 20
170.9867114969136139
 30
0.0
 40
0.0872757156095642
 50
103.9089256473320972
 51
166.718707773377389
  0
ARC
  5
697B
  8
0
 10
4149.4213827143976232
 20
174.857111580683295
 30
0.0
 40
3.1926409797083508
 50
272.2305229031518934
 51
298.5027021203043205
  0
ARC
  5
697C
  8
0
 10
4151.4279828527605787
 20
170.9923097044448923
 30
0.0
 40
1.164090241746903
 50
88.5519751585971733
 51
114.5178967659904998
  0
ARC
  5
697D
  8
0
 10
4156.4674507355839523
 20
171.090097570665705
 30
0.0
 40
0.0867666135247226
 50
94.3104793499680767
 51
165.6840807179052888
  0
ARC
  5
697E
  8
0
 10
4157.8533811741817772
 20
171.0978848867742101
 30
0.0
 40
0.0787338703236702
 50
55.236852803692031
 51
90.0074418787695265
  0
ARC
  5
697F
  8
0
 10
4158.0385246877076497
 20
171.3765486102739999
 30
0.0
 40
0.2558491363291472
 50
236.7579608210874937
 51
270.5944638283452832
  0
ARC
  5
6980
  8
0
 10
4161.7063189721484378
 20
171.5460825570370105
 30
0.0
 40
0.4266930559661114
 50
274.5143384325870102
 51
298.2677250614460149
  0
ARC
  5
6981
  8
0
 10
4161.9648938255477333
 20
171.0296862204702961
 30
0.0
 40
0.1515159092753885
 50
92.7455561896771172
 51
111.8929841713496955
  0
ARC
  5
6982
  8
0
 10
4148.7767052987237548
 20
157.5603225607416107
 30
0.0
 40
0.9191420314244725
 50
187.7689514283354981
 51
266.2904541761236032
  0
ARC
  5
6983
  8
0
 10
4159.1551083477497741
 20
156.327111563839992
 30
0.0
 40
0.4355433707707347
 50
3.1542317011626708
 51
88.8456691826475407
  0
ARC
  5
6984
  8
0
 10
4150.7866408579093331
 20
432.5089562792471156
 30
0.0
 40
275.8736116967747876
 50
269.5702047983718899
 51
271.7401243584586723
  0
LINE
  5
6985
  8
0
 10
4145.0780625777088062
 20
169.9167699612337117
 30
0.0
 11
4145.0141159980230441
 21
170.901028205333688
 31
0.0
  0
ARC
  5
6986
  8
0
 10
4163.5855026708513833
 20
171.0110262745392049
 30
0.0
 40
0.1704688742918496
 50
2.3658986201381782
 51
85.7582366705180874
  0
ARC
  5
6987
  8
0
 10
4156.1657951883926216
 20
171.1161046065107882
 30
0.0
 40
0.2156188957362713
 50
274.0652102657113005
 51
345.9321984159993804
  0
ARC
  5
6988
  8
0
 10
4148.1178385732127936
 20
162.4340127792087003
 30
0.0
 40
0.6573497727871608
 50
122.1623771818108963
 51
166.89182834567751
  0
ARC
  5
6989
  8
0
 10
4158.9835842813199633
 20
165.5068413811029018
 30
0.0
 40
2.733579385704052
 50
72.7906575409767953
 51
109.2693879589750026
  0
ARC
  5
698A
  8
0
 10
4136.4365157516431282
 20
174.1456245750582923
 30
0.0
 40
16.9534038671641092
 50
324.4428287872235046
 51
336.360868751125679
  0
ARC
  5
698B
  8
0
 10
4153.1482684821266957
 20
166.4968059867254055
 30
0.0
 40
1.4555638729839171
 50
95.7877030184376537
 51
144.2248531328073113
  0
ARC
  5
698C
  8
0
 10
4154.0607990105590943
 20
160.6166666276569117
 30
0.0
 40
7.4044501259701061
 50
88.0822662295040431
 51
98.2252120909146669
  0
LINE
  5
698D
  8
0
 10
4150.1578979903097206
 20
164.1287961935337023
 30
0.0
 11
4150.0806462261089109
 21
163.4385817445337068
 31
0.0
  0
ARC
  5
698E
  8
0
 10
4150.3951395201629566
 20
163.4161940927527894
 30
0.0
 40
0.3152891354888057
 50
175.9281872730163059
 51
286.2808488155436066
  0
ARC
  5
698F
  8
0
 10
4149.7552991552711319
 20
165.73147500614661
 30
0.0
 40
2.71732579045343
 50
285.5450066396737157
 51
316.1746680097484727
  0
ARC
  5
6990
  8
0
 10
4179.4650034454225533
 20
139.6126633117328026
 30
0.0
 40
36.843760349010978
 50
133.100238409734601
 51
138.8649284920579987
  0
ARC
  5
6991
  8
0
 10
4156.4631050773277821
 20
162.8969974578988058
 30
0.0
 40
4.2197558981596517
 50
73.2970695500468281
 51
120.9881803294812954
  0
ARC
  5
6992
  8
0
 10
4159.5333021026899587
 20
169.3912890165400995
 30
0.0
 40
3.076534179404498
 50
232.862419189772794
 51
258.1417731245595064
  0
ARC
  5
6993
  8
0
 10
4156.4291478649211058
 20
163.1571938188868103
 30
0.0
 40
4.0619810798866398
 50
8.1403356739446124
 51
52.5146202898929388
  0
ARC
  5
6994
  8
0
 10
4158.1204726135847523
 20
167.8876889576337135
 30
0.0
 40
0.2033636692294535
 50
344.2074577344420732
 51
101.0555412385927951
  0
ARC
  5
6995
  8
0
 10
4157.6920336342282098
 20
167.1470365956820103
 30
0.0
 40
0.2089476050445981
 50
265.5724059938020787
 51
329.4786425742647111
  0
ARC
  5
6996
  8
0
 10
4158.9815732316446883
 20
166.5595891232119072
 30
0.0
 40
0.1964186693229647
 50
153.0393184449193882
 51
245.8147685396280053
  0
ARC
  5
6997
  8
0
 10
4159.751726930510813
 20
167.9198249135662877
 30
0.0
 40
0.2023341092933474
 50
78.417447529608765
 51
148.7820840829957092
  0
ARC
  5
6998
  8
0
 10
4156.8440846420626258
 20
163.3526038167127012
 30
0.0
 40
3.626057694094901
 50
330.3331946729456945
 51
6.0116433952226398
  0
ARC
  5
6999
  8
0
 10
4162.2058158431182164
 20
160.7184474925194024
 30
0.0
 40
2.3649674016400821
 50
159.2102799321658892
 51
164.0631768882346933
  0
ARC
  5
699A
  8
0
 10
4160.8722503758872335
 20
168.0352152537226971
 30
0.0
 40
0.1147629874740305
 50
2.1722473173554722
 51
64.8098266070838065
  0
ARC
  5
699B
  8
0
 10
4161.4063023707485627
 20
168.0662946410263032
 30
0.0
 40
0.0769225223527146
 50
114.9057472548867054
 51
168.4806391700130064
  0
ARC
  5
699C
  8
0
 10
4161.1441668682173258
 20
167.6342612877569138
 30
0.0
 40
0.5518936142844186
 50
65.4001534328803587
 51
113.8404599308783958
  0
ARC
  5
699D
  8
0
 10
4160.927170092833876
 20
169.0857480051207062
 30
0.0
 40
1.0495120851984141
 50
295.1926170535041933
 51
5.3188266667184489
  0
LINE
  5
699E
  8
0
 10
4160.1260573622103038
 20
169.916776236833698
 30
0.0
 11
4160.1260566880091574
 21
170.6703195438336991
 31
0.0
  0
ARC
  5
699F
  8
0
 10
4163.3301255897940791
 20
170.5927499766112021
 30
0.0
 40
0.0773026884601584
 50
95.4695455864295752
 51
138.5492466681764085
  0
LINE
  5
69A0
  8
0
 10
4156.6912232750100884
 20
156.7778949167336862
 30
0.0
 11
4159.1638825913096298
 21
156.7625665448337031
 31
0.0
  0
ARC
  5
69A1
  8
0
 10
4156.6917389567470309
 20
156.9747415056590967
 30
0.0
 40
0.1968472643935255
 50
178.1656868566641094
 51
269.8499017956381181
  0
LINE
  5
69A2
  8
0
 10
4156.4949925627743141
 20
156.9810424557250883
 30
0.0
 11
4156.5656704599614386
 21
159.2887721837215906
 31
0.0
  0
ARC
  5
69A3
  8
0
 10
4157.2800689850791969
 20
159.3558825713240878
 30
0.0
 40
0.7175437664805814
 50
116.7112983226243017
 51
185.3665995216018985
  0
ARC
  5
69A4
  8
0
 10
4159.5188450875903072
 20
153.3205387071826067
 30
0.0
 40
7.1507664894728551
 50
100.614364387757206
 51
110.9888690166852996
  0
ARC
  5
69A5
  8
0
 10
4157.5937723944161917
 20
163.2308351966536861
 30
0.0
 40
2.9453058701233412
 50
281.9115913086844785
 51
305.2017599564862849
  0
ARC
  5
69A6
  8
0
 10
4186.636277068311756
 20
135.3201864958058138
 30
0.0
 40
37.3922777286492689
 50
135.4374786807119904
 51
136.994788960893203
  0
ARC
  5
69A7
  8
0
 10
4159.3354044398329279
 20
160.7518187141670012
 30
0.0
 40
0.0845495995224265
 50
5.5096154454548083
 51
121.1918065691080955
  0
ARC
  5
69A8
  8
0
 10
4158.8581663743434547
 20
156.8802645982696049
 30
0.0
 40
0.1164646640567124
 50
275.7660105653495748
 51
357.5034690927734005
  0
ARC
  5
69A9
  8
0
 10
4159.8341947188046106
 20
157.0206604093708904
 30
0.0
 40
0.5351290690797498
 50
184.7388180757739917
 51
225.281122841899105
  0
ARC
  5
69AA
  8
0
 10
4152.7283788523473049
 20
156.7708156690574981
 30
0.0
 40
0.7720634916101387
 50
56.0980792884013226
 51
115.6752324316357061
  0
ARC
  5
69AB
  8
0
 10
4152.486562239205341
 20
156.7112829175731008
 30
0.0
 40
0.9709116797439026
 50
356.2778814280447932
 51
46.1637816878262512
  0
ARC
  5
69AC
  8
0
 10
4152.8956240045372397
 20
156.7363550686214069
 30
0.0
 40
0.8860525157139232
 50
124.4914531810253067
 51
186.368004203008411
  0
LINE
  5
69AD
  8
0
 10
4151.0799633182095931
 20
156.7809437871337082
 30
0.0
 11
4149.139096585066909
 21
156.7809437871337082
 31
0.0
  0
ARC
  5
69AE
  8
0
 10
4151.0802783972148973
 20
156.9776489066018996
 30
0.0
 40
0.1967053718121423
 50
269.9082246468042854
 51
349.3833177050522067
  0
ARC
  5
69AF
  8
0
 10
4154.1762590469234055
 20
156.4081952791717072
 30
0.0
 40
2.951211595697441
 50
99.313713363199696
 51
169.5908624761154044
  0
ARC
  5
69B0
  8
0
 10
4153.6248087365847823
 20
159.6228696341551938
 30
0.0
 40
0.3112507801376338
 50
283.7208670601499989
 51
357.6812116731179003
  0
ARC
  5
69B1
  8
0
 10
4157.0498607177432859
 20
159.8897691701276926
 30
0.0
 40
3.1265734014464881
 50
97.3267055120688269
 51
185.1286655993690999
  0
ARC
  5
69B2
  8
0
 10
4156.7011709099397194
 20
163.8226120771795991
 30
0.0
 40
0.8333009954014363
 50
266.5578179947607964
 51
317.05977313860609
  0
ARC
  5
69B3
  8
0
 10
4156.8605674894197364
 20
163.5164223158170955
 30
0.0
 40
0.5210035284258385
 50
329.8751857672937149
 51
29.6080336955159602
  0
ARC
  5
69B4
  8
0
 10
4156.2700026372522188
 20
163.3566713102225947
 30
0.0
 40
1.123830701076808
 50
21.7893151415485491
 51
74.2057356596945681
  0
ARC
  5
69B5
  8
0
 10
4156.5229840466981841
 20
163.8824353224524941
 30
0.0
 40
0.5581499432113394
 50
84.5607457028169449
 51
128.3409696985833932
  0
ARC
  5
69B6
  8
0
 10
4170.1019928776531742
 20
149.4038696369443073
 30
0.0
 40
20.4061231875448001
 50
133.0319078906175889
 51
142.0429461601823959
  0
ARC
  5
69B7
  8
0
 10
4149.5527075233203504
 20
165.4988843268070013
 30
0.0
 40
5.6962142548960886
 50
258.7628007258103935
 51
321.5278778528297039
  0
ARC
  5
69B8
  8
0
 10
4148.4126529515351649
 20
159.5991064492559985
 30
0.0
 40
0.3142046549234862
 50
84.5162473077223666
 51
184.9342465842522074
  0
LINE
  5
69B9
  8
0
 10
4148.0996127219095797
 20
159.5720809407337129
 30
0.0
 11
4148.2690189965996979
 21
157.5677680873569955
 31
0.0
  0
ARC
  5
69BA
  8
0
 10
4149.1277735156518247
 20
157.6429047046646872
 30
0.0
 40
0.8620352865468559
 50
185.0003530557411011
 51
270.7526173882189937
  0
ARC
  5
69BB
  8
0
 10
4122.0241731105061262
 20
214.8373398935287071
 30
0.0
 40
57.8864102185289227
 50
296.4059787636466012
 51
299.1592981767760193
  0
ARC
  5
69BC
  8
0
 10
4146.1094645765169844
 20
161.7133867998396113
 30
0.0
 40
1.6211817500295791
 50
32.4432856124727635
 51
58.4613240770074611
  0
ARC
  5
69BD
  8
0
 10
4146.9903798412578908
 20
163.7364197727013106
 30
0.0
 40
0.6421646228519262
 50
197.7563421979502891
 51
267.0617405523216803
  0
ARC
  5
69BE
  8
0
 10
4147.2756185407788507
 20
163.6360249746529121
 30
0.0
 40
0.9018766783743613
 50
131.7422441854575084
 51
186.0750113979416938
  0
ARC
  5
69BF
  8
0
 10
4102.6769342310990396
 20
204.2869085945440872
 30
0.0
 40
59.4481368442340283
 50
317.7408894705378088
 51
320.3752418310643861
  0
ARC
  5
69C0
  8
0
 10
4152.5005301889050315
 20
163.9684340049630862
 30
0.0
 40
4.6968574507746803
 50
121.9413241871727962
 51
149.1996578335715924
  0
ARC
  5
69C1
  8
0
 10
4149.6246316209972065
 20
169.3248723099767119
 30
0.0
 40
1.425412774803599
 50
285.9216826147826964
 51
339.1252907669432943
  0
ARC
  5
69C2
  8
0
 10
4142.4630009420134229
 20
171.8191930864311985
 30
0.0
 40
9.0084755888359531
 50
340.5327821175292797
 51
347.8084183606426905
  0
ARC
  5
69C3
  8
0
 10
4150.0265755554437419
 20
163.0462127604369016
 30
0.0
 40
1.224191671800817
 50
17.991508057293629
 51
81.5472435090876644
  0
ARC
  5
69C4
  8
0
 10
4156.9862494105072983
 20
163.9413094980878043
 30
0.0
 40
1.4219877001394661
 50
188.1934308178614117
 51
229.6607036248317968
  0
ARC
  5
69C5
  8
0
 10
4148.1017023305448674
 20
159.9014456342561914
 30
0.0
 40
1.178790604574333
 50
273.3815628429974822
 51
355.5191564204052952
  0
ARC
  5
69C6
  8
0
 10
4151.2407862447071238
 20
156.7294413815133964
 30
0.0
 40
1.2319791111054481
 50
71.6294770835831258
 51
177.6040741035783981
  0
ARC
  5
69C7
  8
0
 10
4156.4978271174741167
 20
156.7302777955968907
 30
0.0
 40
1.2310484909207431
 50
1.917379447756425
 51
88.7349247227877953
  0
LINE
  5
69C8
  8
0
 10
4158.0332355606087731
 20
171.130713244633796
 30
0.0
 11
4158.0982355606101919
 21
171.130713244633796
 31
0.0
  0
LINE
  5
69C9
  8
0
 10
4158.978235560610301
 20
171.130713244633796
 30
0.0
 11
4161.7832355606087731
 21
171.130713244633796
 31
0.0
  0
LINE
  5
69CA
  8
0
 10
4162.3041845588104479
 20
171.3257132446337891
 30
0.0
 11
4162.0682355606104466
 21
171.3257132446337891
 31
0.0
  0
LINE
  5
69CB
  8
0
 10
4161.7832355606087731
 20
171.3257132446337891
 30
0.0
 11
4161.7227874227100983
 21
171.3257132446337891
 31
0.0
  0
LINE
  5
69CC
  8
0
 10
4159.5840509762101647
 20
171.3257132446337891
 30
0.0
 11
4158.9774095705097352
 21
171.3257132446337891
 31
0.0
  0
LINE
  5
69CD
  8
0
 10
4158.997044921809902
 20
171.355713244633705
 30
0.0
 11
4159.4994306816088283
 21
171.355713244633705
 31
0.0
  0
LINE
  5
69CE
  8
0
 10
4161.7705439259098057
 20
171.355713244633705
 30
0.0
 11
4162.2249071292098961
 21
171.355713244633705
 31
0.0
  0
LINE
  5
69CF
  8
0
 10
4156.4438159409091895
 20
171.4307132446338073
 30
0.0
 11
4163.4741115029091816
 21
171.4307132446338073
 31
0.0
  0
LINE
  5
69D0
  8
0
 10
4156.2930135431088274
 20
171.4907132446338096
 30
0.0
 11
4163.6171016524103834
 21
171.4907132446338096
 31
0.0
  0
LINE
  5
69D1
  8
0
 10
4155.0526745783099614
 20
185.2520890698338007
 30
0.0
 11
4154.930957482309168
 21
184.2022791173338021
 31
0.0
  0
LINE
  5
69D2
  8
0
 10
4156.4013895682101065
 20
171.4482867895337108
 30
0.0
 11
4156.3941115148099925
 21
171.4555660675337094
 31
0.0
  0
LINE
  5
69D3
  8
0
 10
4156.1732422790100827
 20
171.6032713765337121
 30
0.0
 11
4155.3994987063970257
 21
184.0557070068645942
 31
0.0
  0
LINE
  5
69D4
  8
0
 10
4158.0332355606087731
 20
171.4307132446338073
 30
0.0
 11
4158.0332355606087731
 21
171.130713244633796
 31
0.0
  0
LINE
  5
69D5
  8
0
 10
4158.0982355606101919
 20
171.1207132446338051
 30
0.0
 11
4158.0982355606101919
 21
171.4307132446338073
 31
0.0
  0
LINE
  5
69D6
  8
0
 10
4158.0332355606087731
 20
171.130713244633796
 30
0.0
 11
4158.0383708038698387
 21
171.1206995202225869
 31
0.0
  0
LINE
  5
69D7
  8
0
 10
4158.978235560610301
 20
171.1207132446338051
 30
0.0
 11
4158.978235560610301
 21
171.4307132446338073
 31
0.0
  0
LINE
  5
69D8
  8
0
 10
4159.5840509762101647
 20
171.4307132446338073
 30
0.0
 11
4159.5840509762101647
 21
171.3257132446337891
 31
0.0
  0
LINE
  5
69D9
  8
0
 10
4163.5238171571400017
 20
171.455566047607789
 30
0.0
 11
4163.5165379693753493
 21
171.4482869869567025
 31
0.0
  0
LINE
  5
69DA
  8
0
 10
4161.7832355606087731
 20
171.130713244633796
 30
0.0
 11
4161.780786670078669
 21
171.1259379081664918
 31
0.0
  0
LINE
  5
69DB
  8
0
 10
4161.7227874227100983
 20
171.3257132446337891
 30
0.0
 11
4161.7227874227100983
 21
171.4307132446338073
 31
0.0
  0
LINE
  5
69DC
  8
0
 10
4161.7832355606087731
 20
171.3257132446337891
 30
0.0
 11
4161.7832355606087731
 21
171.130713244633796
 31
0.0
  0
LINE
  5
69DD
  8
0
 10
4162.0682355606104466
 20
171.3257132446337891
 30
0.0
 11
4162.0682355606104466
 21
171.1810282053338028
 31
0.0
  0
LINE
  5
69DE
  8
0
 10
4162.3041845588104479
 20
171.4307132446338073
 30
0.0
 11
4162.3041845588104479
 21
171.3257132446337891
 31
0.0
  0
LINE
  5
69DF
  8
0
 10
4162.9482355606105557
 20
171.4307132446338073
 30
0.0
 11
4162.9482355606105557
 21
171.1810282053338028
 31
0.0
  0
LINE
  5
69E0
  8
0
 10
4155.0651595735089359
 20
184.0557070072337069
 30
0.0
 11
4163.214904545009631
 21
184.0557069982336884
 31
0.0
  0
LINE
  5
69E1
  8
0
 10
4163.7124051567961942
 20
184.3056625995751006
 30
0.0
 11
4163.9839643375098603
 21
184.3057132446336936
 31
0.0
  0
LINE
  5
69E2
  8
0
 10
4163.9739773598103056
 20
184.4198649238336998
 30
0.0
 11
4163.9016704850091628
 21
185.2463362848338022
 31
0.0
  0
ARC
  5
69E3
  8
0
 10
4163.610930169794301
 20
171.3674853228718007
 30
0.0
 40
0.1238825695712297
 50
95.8928830528426062
 51
134.6835203412192072
  0
ARC
  5
69E4
  8
0
 10
4163.6086353661439716
 20
171.6193305333401042
 30
0.0
 40
0.1288956359126541
 50
273.7660852094094821
 51
355.2254879068531181
  0
ARC
  5
69E5
  8
0
 10
4163.4741111034099958
 20
171.4907139927948947
 30
0.0
 40
0.0600007481624786
 50
270.0003814899212102
 51
314.9999055539565802
  0
ARC
  5
69E6
  8
0
 10
4162.0382355606097917
 20
171.3257132446337891
 30
0.0
 40
0.03
 50
0.0
 51
90.0
  0
ARC
  5
69E7
  8
0
 10
4161.8158264068515564
 20
171.3231223983916891
 30
0.0
 40
0.0326936651818379
 50
94.545234240842845
 51
175.4547657591508028
  0
ARC
  5
69E8
  8
0
 10
4163.1952116478196331
 20
184.4753610014763012
 30
0.0
 40
0.4201158086019331
 50
272.6867199070654806
 51
320.2117245545276774
  0
ARC
  5
69E9
  8
0
 10
4163.7174370515103874
 20
184.0557132446336936
 30
0.0
 40
0.25
 50
91.1533032001205186
 51
142.9024107312083913
  0
ARC
  5
69EA
  8
0
 10
4163.86143767707199
 20
184.4179672082806007
 30
0.0
 40
0.11255568184305
 50
274.0447602993535838
 51
0.9660662371267971
  0
ARC
  5
69EB
  8
0
 10
4156.2980256617147461
 20
171.6160489438267973
 30
0.0
 40
0.1254358753512197
 50
185.8465948266996008
 51
267.7099875618148985
  0
ARC
  5
69EC
  8
0
 10
4156.3016704999681679
 20
171.3523936818685058
 30
0.0
 40
0.1385275510100977
 50
48.1401045652262027
 51
86.8599012914327631
  0
ARC
  5
69ED
  8
0
 10
4156.4470046316755543
 20
171.4984114739926042
 30
0.0
 40
0.0677732838744223
 50
227.6968048287035913
 51
267.3032737271752808
  0
ARC
  5
69EE
  8
0
 10
4155.0708545713296189
 20
184.1956454510047934
 30
0.0
 40
0.1400542789250904
 50
177.2851715435679978
 51
267.6695511945920885
  0
ARC
  5
69EF
  8
0
 10
4159.4795817730191629
 20
109.4235015210435051
 30
0.0
 40
76.1399784197326568
 50
86.8262604053974343
 51
93.1778075872805829
  0
ARC
  5
69F0
  8
0
 10
4155.2712112277977212
 20
185.2267512243128067
 30
0.0
 40
0.2200006217841529
 50
93.2394377522494437
 51
173.386471486524897
  0
ARC
  5
69F1
  8
0
 10
4163.6538053129306718
 20
185.1974358990300971
 30
0.0
 40
0.2526428135961109
 50
11.1603475733482895
 51
80.618801754031395
  0
LINE
  5
69F2
  8
0
 10
4163.7370837322096122
 20
171.6086019634338129
 30
0.0
 11
4163.9839643374089064
 21
184.3057132448338109
 31
0.0
  0
ARC
  5
69F3
  8
0
 10
4150.9814356558235886
 20
183.0542766923041995
 30
0.0
 40
12.9479139530779808
 50
356.7300099648015816
 51
1.1569607023328481
  0
ARC
  5
69F4
  8
0
 10
4175.2725498057634468
 20
182.6063060435998011
 30
0.0
 40
11.3679963257524594
 50
176.4221958519636928
 51
181.4647748151728877
  0
ARC
  5
69F5
  8
0
 10
4159.4652928296809478
 20
171.1250781707543069
 30
0.0
 40
0.2331478720420069
 50
59.3782350939564125
 51
81.5803985117061643
  0
ARC
  5
69F6
  8
0
 10
4159.0010402652787889
 20
171.3328378380543029
 30
0.0
 40
0.0232216923501617
 50
99.9071603161213915
 51
169.1256241725631071
  0
ARC
  5
69F7
  8
0
 10
4161.7723653532357275
 20
171.2998023513380019
 30
0.0
 40
0.0559405540429686
 50
91.8658833246302464
 51
152.4071002046154035
  0
ARC
  5
69F8
  8
0
 10
4162.2083654077869141
 20
171.1922518920451921
 30
0.0
 40
0.1642962030533017
 50
54.3233810033814066
 51
84.2215376748605564
  0
LINE
  5
69F9
  8
0
 10
4158.7177987264103649
 20
185.5657132446337982
 30
0.0
 11
4158.7177987264103649
 21
185.5992867330336935
 31
0.0
  0
LINE
  5
69FA
  8
0
 10
4160.917798726410183
 20
185.5657132446337982
 30
0.0
 11
4160.917798726410183
 21
185.5992867330336935
 31
0.0
  0
LINE
  5
69FB
  8
0
 10
4158.7177987264103649
 20
185.5657132446337982
 30
0.0
 11
4160.917798726410183
 21
185.5657132446337982
 31
0.0
  0
LINE
  5
69FC
  8
0
 10
4160.6557987264095573
 20
185.7086802296338135
 30
0.0
 11
4158.9797987264091716
 21
185.7086802296338135
 31
0.0
  0
ARC
  5
69FD
  8
0
 10
4159.8177987263097748
 20
183.6934113801694934
 30
0.0
 40
2.1793637741314509
 50
68.8330396952298145
 51
111.166960299411798
  0
ARC
  5
69FE
  8
0
 10
4159.8177987250319347
 20
183.2048799145809994
 30
0.0
 40
2.6408333297734838
 50
108.5740639096703006
 51
114.4763366329464986
  0
ARC
  5
69FF
  8
0
 10
4159.8184123269702468
 20
183.2065612318860985
 30
0.0
 40
2.6390441382645009
 50
65.5208906389975851
 51
71.4269366989990857
  0
ARC
  5
6A00
  8
0
 10
4159.0397896684362422
 20
185.6971169503449914
 30
0.0
 40
0.029982217061972
 50
107.3293417901119966
 51
157.3145810715948869
  0
ARC
  5
6A01
  8
0
 10
4160.5958077843843057
 20
185.6971169503449914
 30
0.0
 40
0.0299822170619694
 50
22.6854189284080903
 51
72.6706582098885008
  0
ARC
  5
6A02
  8
0
 10
4158.7277987262887109
 20
185.599286733069107
 30
0.0
 40
0.0099999998798648
 50
114.4763360919931046
 51
180.0000002023342063
  0
ARC
  5
6A03
  8
0
 10
4158.9797987264091716
 20
185.6986802296337089
 30
0.0
 40
0.01
 50
90.0
 51
108.5740639154981011
  0
ARC
  5
6A04
  8
0
 10
4160.907813577291563
 20
185.5992910985117135
 30
0.0
 40
0.0099851500716028
 50
359.9749504545440004
 51
65.6506944284708567
  0
ARC
  5
6A05
  8
0
 10
4160.6557987263922769
 20
185.6986802293473033
 30
0.0
 40
0.0100000002864749
 50
71.4259365833854645
 51
89.9999998997920585
  0
LINE
  5
6A06
  8
0
 10
4158.7236555525259973
 20
185.60838805762981
 30
0.0
 11
4160.9119304397818269
 21
185.60838805762981
 31
0.0
  0
LINE
  5
6A07
  8
0
 10
4158.8702831942182456
 20
185.5610419922145979
 30
0.0
 11
4158.8638595305492345
 21
185.5657132446337982
 31
0.0
  0
LINE
  5
6A08
  8
0
 10
4160.753999150013442
 20
185.5528137083117883
 30
0.0
 11
4160.7717379222713134
 21
185.5657132446337982
 31
0.0
  0
ENDSEC
  0
EOF
