  0
SECTION
  2
HEADER
  9
$ACADVER
  1
AC1009
  9
$INSBASE
 10
4095.4480534012750468
 20
169.9556188239768915
 30
0.0
  9
$EXTMIN
 10
4066.1390534012748503
 20
169.9556188239735093
 30
0.0
  9
$EXTMAX
 10
4095.4548930532109807
 20
200.2029563241441963
 30
0.0
  9
$LIMMIN
 10
0.0
 20
0.0
  9
$LIMMAX
 10
11.6929133858000007
 20
8.2677165353999982
  9
$ORTHOMODE
 70
     1
  9
$REGENMODE
 70
     1
  9
$FILLMODE
 70
     1
  9
$QTEXTMODE
 70
     0
  9
$MIRRTEXT
 70
     0
  9
$DRAGMODE
 70
     2
  9
$LTSCALE
 40
0.6431102362
  9
$OSMODE
 70
  4095
  9
$ATTMODE
 70
     1
  9
$TEXTSIZE
 40
0.2
  9
$TRACEWID
 40
0.05
  9
$TEXTSTYLE
  7
STANDARD
  9
$CLAYER
  8
0
  9
$CELTYPE
  6
BYLAYER
  9
$CECOLOR
 62
   256
  9
$DIMSCALE
 40
1.0
  9
$DIMASZ
 40
0.1875
  9
$DIMEXO
 40
0.0625
  9
$DIMDLI
 40
0.4443307087
  9
$DIMRND
 40
0.0
  9
$DIMDLE
 40
0.0
  9
$DIMEXE
 40
0.125
  9
$DIMTP
 40
0.01
  9
$DIMTM
 40
0.01
  9
$DIMTXT
 40
2.0
  9
$DIMCEN
 40
0.1052362205
  9
$DIMTSZ
 40
0.0
  9
$DIMTOL
 70
     1
  9
$DIMLIM
 70
     0
  9
$DIMTIH
 70
     1
  9
$DIMTOH
 70
     1
  9
$DIMSE1
 70
     0
  9
$DIMSE2
 70
     0
  9
$DIMTAD
 70
     0
  9
$DIMZIN
 70
     0
  9
$DIMBLK
  1

  9
$DIMASO
 70
     1
  9
$DIMSHO
 70
     1
  9
$DIMPOST
  1
\X
  9
$DIMAPOST
  1

  9
$DIMALT
 70
     1
  9
$DIMALTD
 70
     2
  9
$DIMALTF
 40
25.3999999999999986
  9
$DIMLFAC
 40
1.0
  9
$DIMTOFL
 70
     0
  9
$DIMTVP
 40
0.0
  9
$DIMTIX
 70
     0
  9
$DIMSOXD
 70
     0
  9
$DIMSAH
 70
     0
  9
$DIMBLK1
  1

  9
$DIMBLK2
  1

  9
$DIMSTYLE
  2
STANDARD
  9
$DIMCLRD
 70
     0
  9
$DIMCLRE
 70
     0
  9
$DIMCLRT
 70
     0
  9
$DIMTFAC
 40
1.0
  9
$DIMGAP
 40
0.09
  9
$LUNITS
 70
     2
  9
$LUPREC
 70
     4
  9
$SKETCHINC
 40
0.1
  9
$FILLETRAD
 40
0.0
  9
$AUNITS
 70
     0
  9
$AUPREC
 70
     0
  9
$MENU
  1
.
  9
$ELEVATION
 40
0.0
  9
$PELEVATION
 40
0.0
  9
$THICKNESS
 40
0.0
  9
$LIMCHECK
 70
     0
  9
$BLIPMODE
 70
     0
  9
$CHAMFERA
 40
0.0
  9
$CHAMFERB
 40
0.0
  9
$SKPOLY
 70
     0
  9
$TDCREATE
 40
2458060.468368056230247
  9
$TDUPDATE
 40
2458925.4488310189917684
  9
$TDINDWG
 40
0.3010140046
  9
$TDUSRTIMER
 40
0.3010140046
  9
$USRTIMER
 70
     1
  9
$ANGBASE
 50
0.0
  9
$ANGDIR
 70
     0
  9
$PDMODE
 70
     0
  9
$PDSIZE
 40
0.3125
  9
$PLINEWID
 40
0.0
  9
$COORDS
 70
     1
  9
$SPLFRAME
 70
     0
  9
$SPLINETYPE
 70
     6
  9
$SPLINESEGS
 70
     8
  9
$ATTDIA
 70
     1
  9
$ATTREQ
 70
     1
  9
$HANDLING
 70
     1
  9
$HANDSEED
  5
697A
  9
$SURFTAB1
 70
     6
  9
$SURFTAB2
 70
     6
  9
$SURFTYPE
 70
     6
  9
$SURFU
 70
     6
  9
$SURFV
 70
     6
  9
$UCSNAME
  2

  9
$UCSORG
 10
0.0
 20
0.0
 30
0.0
  9
$UCSXDIR
 10
1.0
 20
0.0
 30
0.0
  9
$UCSYDIR
 10
0.0
 20
1.0
 30
0.0
  9
$PUCSNAME
  2

  9
$PUCSORG
 10
0.0
 20
0.0
 30
0.0
  9
$PUCSXDIR
 10
1.0
 20
0.0
 30
0.0
  9
$PUCSYDIR
 10
0.0
 20
1.0
 30
0.0
  9
$USERI1
 70
     0
  9
$USERI2
 70
     0
  9
$USERI3
 70
     0
  9
$USERI4
 70
     0
  9
$USERI5
 70
     0
  9
$USERR1
 40
0.0
  9
$USERR2
 40
0.0
  9
$USERR3
 40
0.0
  9
$USERR4
 40
0.0
  9
$USERR5
 40
0.0
  9
$WORLDVIEW
 70
     1
  9
$SHADEDGE
 70
     3
  9
$SHADEDIF
 70
    70
  9
$TILEMODE
 70
     1
  9
$MAXACTVP
 70
    64
  9
$PLIMCHECK
 70
     0
  9
$PEXTMIN
 10
1.0000000000000000E+20
 20
1.0000000000000000E+20
 30
1.0000000000000000E+20
  9
$PEXTMAX
 10
-1.0000000000000000E+20
 20
-1.0000000000000000E+20
 30
-1.0000000000000000E+20
  9
$PLIMMIN
 10
0.0
 20
0.0
  9
$PLIMMAX
 10
12.0
 20
9.0
  9
$UNITMODE
 70
     0
  9
$VISRETAIN
 70
     1
  9
$PLINEGEN
 70
     0
  9
$PSLTSCALE
 70
     1
  0
ENDSEC
  0
SECTION
  2
TABLES
  0
TABLE
  2
VPORT
 70
     1
  0
VPORT
  2
*ACTIVE
 70
     0
 10
0.0
 20
0.0
 11
1.0
 21
1.0
 12
0.0
 22
0.0
 13
0.0
 23
0.0
 14
1.0
 24
1.0
 15
0.0
 25
0.0
 16
0.0
 26
0.0
 36
120.6749874379618035
 17
4080.7970266048891972
 27
185.0792846679686932
 37
0.0
 40
42.1463222335919383
 41
2.1481900452488678
 42
50.0
 43
0.0
 44
0.0
 50
0.0
 51
0.0
 71
     0
 72
   100
 73
     1
 74
     1
 75
     0
 76
     0
 77
     0
 78
     0
  0
ENDTAB
  0
TABLE
  2
LTYPE
 70
     2
  0
LTYPE
  2
CONTINUOUS
 70
     0
  3
Solid line
 72
    65
 73
     0
 40
0.0
  0
LTYPE
  2
PHANTOM2
 70
     0
  3
___ _ _ ___ _ _ ___ _ _ ___ _ _
 72
    65
 73
     6
 40
1.25
 49
0.625
 49
-0.125
 49
0.125
 49
-0.125
 49
0.125
 49
-0.125
  0
ENDTAB
  0
TABLE
  2
LAYER
 70
     2
  0
LAYER
  2
0
 70
     0
 62
   255
  6
CONTINUOUS
  0
LAYER
  2
DEFPOINTS
 70
     0
 62
     7
  6
CONTINUOUS
  0
ENDTAB
  0
TABLE
  2
STYLE
 70
     1
  0
STYLE
  2
STANDARD
 70
     0
 40
0.0
 41
0.8
 50
0.0
 71
     0
 42
0.2
  3
txt
  4

  0
ENDTAB
  0
TABLE
  2
VIEW
 70
     0
  0
ENDTAB
  0
TABLE
  2
UCS
 70
     0
  0
ENDTAB
  0
TABLE
  2
APPID
 70
     9
  0
APPID
  2
ACAD
 70
     0
  0
APPID
  2
ACAD_MLEADERVER
 70
     0
  0
APPID
  2
ACAD_EXEMPT_FROM_CAD_STANDARDS
 70
     0
  0
APPID
  2
ACAD_NAV_VCDISPLAY
 70
     0
  0
APPID
  2
ACAECLAYERSTANDARD
 70
     0
  0
APPID
  2
ACCMTRANSPARENCY
 70
     0
  0
APPID
  2
ACAD_DSTYLE_DIMJAG
 70
     0
  0
APPID
  2
ACAD_DSTYLE_DIMTALN
 70
     0
  0
APPID
  2
ACDBATTR
 70
     0
  0
ENDTAB
  0
TABLE
  2
DIMSTYLE
 70
     1
  0
DIMSTYLE
  2
STANDARD
 70
     0
  3

  4

  5

  6

  7

 40
1.0
 41
0.1875
 42
0.0625
 43
0.38
 44
0.125
 45
0.0
 46
0.0
 47
0.01
 48
0.01
140
0.15625
141
0.09
142
0.0
143
25.3999999999999986
144
1.0
145
0.0
146
1.0
147
0.09
 71
     1
 72
     0
 73
     1
 74
     1
 75
     0
 76
     0
 77
     0
 78
     4
170
     0
171
     2
172
     0
173
     0
174
     0
175
     0
176
     0
177
     0
178
     0
  0
ENDTAB
  0
ENDSEC
  0
SECTION
  2
BLOCKS
  0
BLOCK
  8
0
  2
$MODEL_SPACE
 70
     0
 10
0.0
 20
0.0
 30
0.0
  3
$MODEL_SPACE
  1

  0
ENDBLK
  5
21
  8
0
  0
BLOCK
 67
     1
  8
0
  2
$PAPER_SPACE
 70
     0
 10
0.0
 20
0.0
 30
0.0
  3
$PAPER_SPACE
  1

  0
ENDBLK
  5
1D
 67
     1
  8
0
  0
ENDSEC
  0
SECTION
  2
ENTITIES
  0
ATTDEF
  5
3930
  8
DEFPOINTS
 10
4095.444226386542141
 20
169.9692375855736088
 30
0.0
 40
0.001
  1
402317
  3

  2
MODELNUMBER
 70
     0
1001
ACDBATTR
1070
     0
1070
     1
  0
ATTDEF
  5
3931
  8
DEFPOINTS
 10
4095.444226386542141
 20
169.9675709189070005
 30
0.0
 40
0.001
  1
VALTON
  3

  2
TRADENAME
 70
     0
1001
ACDBATTR
1070
     0
1070
     1
  0
ATTDEF
  5
3932
  8
DEFPOINTS
 10
4095.444226386542141
 20
169.965904252240307
 30
0.0
 40
0.001
  1
TOILET
  3

  2
PRODUCT
 70
     0
1001
ACDBATTR
1070
     0
1070
     1
  0
LINE
  5
67A8
  8
0
 10
4092.1134134378748968
 20
185.4780968239768981
 30
0.0
 11
4088.1781145144750553
 21
185.4780968239768981
 31
0.0
  0
LINE
  5
67A9
  8
0
 10
4088.3073246243748144
 20
185.488096823976889
 30
0.0
 11
4088.372324624374869
 21
185.488096823976889
 31
0.0
  0
LINE
  5
67AA
  8
0
 10
4089.2523246243740687
 20
185.488096823976889
 30
0.0
 11
4092.0573246243748144
 21
185.488096823976889
 31
0.0
  0
LINE
  5
67AB
  8
0
 10
4092.5782736225742156
 20
185.6830968239769106
 30
0.0
 11
4092.3423246243742142
 21
185.6830968239769106
 31
0.0
  0
LINE
  5
67AC
  8
0
 10
4092.0573246243748144
 20
185.6830968239769106
 30
0.0
 11
4091.9968764864747754
 21
185.6830968239769106
 31
0.0
  0
LINE
  5
67AD
  8
0
 10
4089.8581400399748418
 20
185.6830968239769106
 30
0.0
 11
4089.2514986342748671
 21
185.6830968239769106
 31
0.0
  0
LINE
  5
67AE
  8
0
 10
4089.2711339855750339
 20
185.7130968239769118
 30
0.0
 11
4089.7735197453748697
 21
185.7130968239769118
 31
0.0
  0
LINE
  5
67AF
  8
0
 10
4092.0446329896749376
 20
185.7130968239769118
 30
0.0
 11
4092.498996192975028
 21
185.7130968239769118
 31
0.0
  0
LINE
  5
67B0
  8
0
 10
4086.7179050046738666
 20
185.7880968239769004
 30
0.0
 11
4093.7482005666738587
 21
185.7880968239769004
 31
0.0
  0
LINE
  5
67B1
  8
0
 10
4086.5671026068748688
 20
185.8480968239769027
 30
0.0
 11
4093.8911907161750605
 21
185.8480968239769027
 31
0.0
  0
LINE
  5
67B2
  8
0
 10
4085.3267636420750932
 20
199.6094726491768938
 30
0.0
 11
4085.2050465460752093
 21
198.5596626966768952
 31
0.0
  0
LINE
  5
67B3
  8
0
 10
4086.6754786319747836
 20
185.8056703688768891
 30
0.0
 11
4086.6682005785751244
 21
185.8129496468768878
 31
0.0
  0
LINE
  5
67B4
  8
0
 10
4086.4473313427752146
 20
185.9606549558768904
 30
0.0
 11
4085.6735877701621575
 21
198.4130905862076872
 31
0.0
  0
LINE
  5
67B5
  8
0
 10
4088.3073246243748144
 20
185.7880968239769004
 30
0.0
 11
4088.3073246243748144
 21
185.488096823976889
 31
0.0
  0
LINE
  5
67B6
  8
0
 10
4088.372324624374869
 20
185.4780968239768981
 30
0.0
 11
4088.372324624374869
 21
185.7880968239769004
 31
0.0
  0
LINE
  5
67B7
  8
0
 10
4088.3073246243748144
 20
185.488096823976889
 30
0.0
 11
4088.3124528294752054
 21
185.4780968239768981
 31
0.0
  0
LINE
  5
67B8
  8
0
 10
4088.1781145144577749
 20
185.4780968239768981
 30
0.0
 11
4088.1673552147749433
 21
185.5429958600768998
 31
0.0
  0
LINE
  5
67B9
  8
0
 10
4089.2523246243740687
 20
185.4780968239768981
 30
0.0
 11
4089.2523246243740687
 21
185.7880968239769004
 31
0.0
  0
LINE
  5
67BA
  8
0
 10
4089.8581400399748418
 20
185.7880968239769004
 30
0.0
 11
4089.8581400399748418
 21
185.6830968239769106
 31
0.0
  0
LINE
  5
67BB
  8
0
 10
4093.7979062209051335
 20
185.8129496269509957
 30
0.0
 11
4093.7906270331400265
 21
185.8056705662997956
 31
0.0
  0
LINE
  5
67BC
  8
0
 10
4092.0573246243748144
 20
185.488096823976889
 30
0.0
 11
4092.0521964191748339
 21
185.4780968239768981
 31
0.0
  0
LINE
  5
67BD
  8
0
 10
4091.9968764864747754
 20
185.6830968239769106
 30
0.0
 11
4091.9968764864747754
 21
185.7880968239769004
 31
0.0
  0
LINE
  5
67BE
  8
0
 10
4092.0573246243748144
 20
185.6830968239769106
 30
0.0
 11
4092.0573246243748144
 21
185.488096823976889
 31
0.0
  0
LINE
  5
67BF
  8
0
 10
4092.173414071075058
 20
185.56320782397691
 30
0.0
 11
4092.173414071075058
 21
185.5373452982769038
 31
0.0
  0
LINE
  5
67C0
  8
0
 10
4092.3423246243742142
 20
185.6830968239769106
 30
0.0
 11
4092.3423246243742142
 21
185.5932078239769112
 31
0.0
  0
LINE
  5
67C1
  8
0
 10
4092.5782736225742156
 20
185.7880968239769004
 30
0.0
 11
4092.5782736225742156
 21
185.6830968239769106
 31
0.0
  0
LINE
  5
67C2
  8
0
 10
4093.2223246243747781
 20
185.7880968239769004
 30
0.0
 11
4093.2223246243747781
 21
185.5932078239769112
 31
0.0
  0
LINE
  5
67C3
  8
0
 10
4085.3392486372740677
 20
198.4130905865769137
 30
0.0
 11
4093.4889936087752176
 21
198.4130905775768952
 31
0.0
  0
LINE
  5
67C4
  8
0
 10
4093.9864942205608713
 20
198.6630461789181936
 30
0.0
 11
4094.2580534012749922
 21
198.6630968239769004
 31
0.0
  0
LINE
  5
67C5
  8
0
 10
4094.2480664235749828
 20
198.7772485031769065
 30
0.0
 11
4094.1757595487738399
 21
199.6037198641768953
 31
0.0
  0
ARC
  5
67C6
  8
0
 10
4093.8850192335589782
 20
185.7248689022148938
 30
0.0
 40
0.1238825695712297
 50
95.8928830528426062
 51
134.6835203412192072
  0
ARC
  5
67C7
  8
0
 10
4093.8827244299091035
 20
185.976714112683311
 30
0.0
 40
0.1288956359126541
 50
273.7660852094094821
 51
355.2254879068531181
  0
ARC
  5
67C8
  8
0
 10
4093.7482001671751277
 20
185.8480975721381014
 30
0.0
 40
0.0600007481624786
 50
270.0003814899212102
 51
314.9999055539565802
  0
ARC
  5
67C9
  8
0
 10
4092.3123246243749236
 20
185.6830968239769106
 30
0.0
 40
0.03
 50
0.0
 51
90.0
  0
ARC
  5
67CA
  8
0
 10
4092.089915470617143
 20
185.6805059777348959
 30
0.0
 40
0.0326936651818379
 50
94.545234240842845
 51
175.4547657591508028
  0
ARC
  5
67CB
  8
0
 10
4092.2034140710748034
 20
185.56320782397691
 30
0.0
 40
0.03
 50
90.0000000003126672
 51
180.0
  0
ARC
  5
67CC
  8
0
 10
4093.4693007115852197
 20
198.832744580819508
 30
0.0
 40
0.4201158086019331
 50
272.6867199070654806
 51
320.2117245545276774
  0
ARC
  5
67CD
  8
0
 10
4093.991526115274155
 20
198.4130968239769004
 30
0.0
 40
0.25
 50
91.1533032001205186
 51
142.9024107312083913
  0
ARC
  5
67CE
  8
0
 10
4094.1355267408371219
 20
198.7753507876238075
 30
0.0
 40
0.11255568184305
 50
274.0447602993535838
 51
0.9660662371267971
  0
LINE
  5
67CF
  8
0
 10
4069.119498931374892
 20
169.9556188239768915
 30
0.0
 11
4091.8033529659751366
 21
169.9556188239768915
 31
0.0
  0
LINE
  5
67D0
  8
0
 10
4066.1390534012748503
 20
185.5141778903769136
 30
0.0
 11
4066.1390534012748503
 21
185.5291728220769016
 31
0.0
  0
LINE
  5
67D1
  8
0
 10
4066.4306324583740206
 20
186.4233707246768859
 30
0.0
 11
4066.4306324583740206
 21
186.4081582942768875
 31
0.0
  0
LINE
  5
67D2
  8
0
 10
4087.461664527711946
 20
171.225839479476889
 30
0.0
 11
4091.2364180159747775
 21
171.2258395191769011
 31
0.0
  0
LINE
  5
67D3
  8
0
 10
4068.8775663341748441
 20
186.1864766515768963
 30
0.0
 11
4068.8788016237749616
 21
186.1386678532768997
 31
0.0
  0
LINE
  5
67D4
  8
0
 10
4068.7481643240748781
 20
185.4096722088769127
 30
0.0
 11
4068.7493258878748748
 21
185.3431256795769002
 31
0.0
  0
LINE
  5
67D5
  8
0
 10
4069.7443394501751754
 20
185.3431256795769002
 30
0.0
 11
4069.7448384397748669
 21
185.3717138118769014
 31
0.0
  0
LINE
  5
67D6
  8
0
 10
4069.9902272245749373
 20
186.1362840094768956
 30
0.0
 11
4069.993271142202957
 21
186.2560765546265884
 31
0.0
  0
LINE
  5
67D7
  8
0
 10
4076.0811786392750946
 20
186.2312079380768921
 30
0.0
 11
4076.081944290975116
 21
186.2017321511769126
 31
0.0
  0
LINE
  5
67D8
  8
0
 10
4075.8650126000211458
 20
185.2841728239768884
 30
0.0
 11
4075.8649722168279368
 21
184.237766823976898
 31
0.0
  0
LINE
  5
67D9
  8
0
 10
4076.7885659686758117
 20
185.4031256795769025
 30
0.0
 11
4076.7881675986000118
 21
185.454209051586389
 31
0.0
  0
LINE
  5
67DA
  8
0
 10
4077.366843320874068
 20
186.2015781424769045
 30
0.0
 11
4077.3675944964738846
 21
186.2304967549769117
 31
0.0
  0
LINE
  5
67DB
  8
0
 10
4088.1851973726747929
 20
182.2947992108769029
 30
0.0
 11
4085.8471664440749009
 21
182.2597899145769134
 31
0.0
  0
LINE
  5
67DC
  8
0
 10
4091.0458191718748822
 20
182.3372648021768896
 30
0.0
 11
4089.8756844347749393
 21
182.3201005856768973
 31
0.0
  0
LINE
  5
67DD
  8
0
 10
4075.8649722168279368
 20
184.237766823976898
 30
0.0
 11
4090.310182197974882
 21
184.237766823976898
 31
0.0
  0
LINE
  5
67DE
  8
0
 10
4090.2811394251748425
 20
184.987766823976898
 30
0.0
 11
4094.0563074694741772
 21
184.987766823976898
 31
0.0
  0
LINE
  5
67DF
  8
0
 10
4081.3796624206429442
 20
186.4883642374296073
 30
0.0
 11
4081.3740110095441196
 21
186.6501994769731994
 31
0.0
  0
LINE
  5
67E0
  8
0
 10
4081.491041759035852
 20
186.6666620674018873
 30
0.0
 11
4081.4924184006699761
 21
186.5983804052557105
 31
0.0
  0
LINE
  5
67E1
  8
0
 10
4081.5561389198751385
 20
185.293998299876904
 30
0.0
 11
4081.5477396397750454
 21
185.7751927379769086
 31
0.0
  0
LINE
  5
67E2
  8
0
 10
4081.7063104241751716
 20
185.8324489230728886
 30
0.0
 11
4081.7063104241751716
 21
185.2941728239769077
 31
0.0
  0
LINE
  5
67E3
  8
0
 10
4081.7183104187752178
 20
185.3559331515768918
 30
0.0
 11
4081.7183104142941374
 21
185.8388726830951043
 31
0.0
  0
LINE
  5
67E4
  8
0
 10
4076.8486347725752239
 20
185.3441728239768906
 30
0.0
 11
4077.333820261674191
 21
185.3441728239768906
 31
0.0
  0
LINE
  5
67E5
  8
0
 10
4086.7021480233602233
 20
185.5932078239769112
 30
0.0
 11
4088.1081552508749155
 21
185.5932078239769112
 31
0.0
  0
LINE
  5
67E6
  8
0
 10
4092.2034140710748034
 20
185.5932078239769112
 30
0.0
 11
4094.0262438334748367
 21
185.5932078239769112
 31
0.0
  0
LINE
  5
67E7
  8
0
 10
4074.0073338183160558
 20
186.2311804007320859
 30
0.0
 11
4079.8262362981749902
 21
186.2312079380768921
 31
0.0
  0
LINE
  5
67E8
  8
0
 10
4083.6687030545749622
 20
185.8665274293769016
 30
0.0
 11
4082.5625356067748726
 21
185.8841728077769062
 31
0.0
  0
LINE
  5
67E9
  8
0
 10
4081.6878091497751484
 20
186.7621963856769014
 30
0.0
 11
4081.6846432284751245
 21
186.852856510976892
 31
0.0
  0
LINE
  5
67EA
  8
0
 10
4081.6846432284751245
 20
186.852856510976892
 30
0.0
 11
4081.6828945023748929
 21
186.9029334736769101
 31
0.0
  0
LINE
  5
67EB
  8
0
 10
4081.5105766307751765
 20
186.6684999694768976
 30
0.0
 11
4081.6329272429748016
 21
186.6792042610769045
 31
0.0
  0
LINE
  5
67EC
  8
0
 10
4081.9554539376749744
 20
186.1155925935769062
 30
0.0
 11
4081.9258896532751351
 21
186.3259534077768933
 31
0.0
  0
LINE
  5
67ED
  8
0
 10
4083.8163104241739347
 20
185.7165466078768929
 30
0.0
 11
4083.8163104241739347
 21
185.6816911538811894
 31
0.0
  0
LINE
  5
67EE
  8
0
 10
4086.6479763440747774
 20
185.5456825470768933
 30
0.0
 11
4086.6142780028749257
 21
185.3871443163768902
 31
0.0
  0
LINE
  5
67EF
  8
0
 10
4088.2625712750750608
 20
182.1454901656769039
 30
0.0
 11
4087.7714140776752174
 21
181.4631665116768886
 31
0.0
  0
LINE
  5
67F0
  8
0
 10
4089.0574662158760475
 20
181.2468589223769015
 30
0.0
 11
4089.8011167063741595
 21
182.2799515748768897
 31
0.0
  0
LINE
  5
67F1
  8
0
 10
4091.8033529659751366
 20
169.9556188239768915
 30
0.0
 11
4091.7322744358762066
 21
170.9034388675769094
 31
0.0
  0
LINE
  5
67F2
  8
0
 10
4090.8468279268749939
 20
175.51462579827691
 30
0.0
 11
4090.8352720448751825
 21
175.230084971776904
 31
0.0
  0
LINE
  5
67F3
  8
0
 10
4091.6016343176747796
 20
181.8949049651768917
 30
0.0
 11
4091.4010469923750861
 21
178.2876155098769004
 31
0.0
  0
LINE
  5
67F4
  8
0
 10
4092.1349267547748241
 20
184.9877680697769051
 30
0.0
 11
4091.8215442024747972
 21
182.977845653076912
 31
0.0
  0
LINE
  5
67F5
  8
0
 10
4094.0563074694741772
 20
184.987766823976898
 30
0.0
 11
4094.0563074694741772
 21
185.56320782397691
 31
0.0
  0
ARC
  5
67F6
  8
0
 10
4082.0933676754070802
 20
-377.6518505686673279
 30
0.0
 40
564.6147515467814628
 50
90.0477428769121957
 51
91.5688429366938976
  0
ARC
  5
67F7
  8
0
 10
4068.8093167495680973
 20
185.3441728239610029
 30
0.0
 40
0.0599999999840592
 50
180.9999999981826022
 51
270.0000000062011054
  0
ARC
  5
67F8
  8
0
 10
4069.6843498032199022
 20
185.3441715878437037
 30
0.0
 40
0.0599987638790573
 50
269.9988399802896879
 51
359.0011600196908148
  0
ARC
  5
67F9
  8
0
 10
4078.3543461855751957
 20
174.3139259262769087
 30
0.0
 40
0.8874561453000001
 50
274.602111267391308
 51
355.7662406614550719
  0
ARC
  5
67FA
  8
0
 10
4076.8485569179729282
 20
185.4041728616994931
 30
0.0
 40
0.0600000882336976
 50
181.0000345703020912
 51
270.0743455802181074
  0
ARC
  5
67FB
  8
0
 10
4077.3338980588710001
 20
185.404172861485705
 30
0.0
 40
0.0600000879454457
 50
269.9257092384119119
 51
358.9999656422339172
  0
ARC
  5
67FC
  8
0
 10
4080.8656000861751636
 20
177.3974855942769011
 30
0.0
 40
1.0273628625999991
 50
19.3594909330759393
 51
74.81829674773671
  0
ARC
  5
67FD
  8
0
 10
4079.826237004172981
 20
187.9812079380849923
 30
0.0
 40
1.750000000008223
 50
269.9999768853186879
 51
285.095179031001976
  0
ARC
  5
67FE
  8
0
 10
4081.8413038631751988
 20
171.2300471686768901
 30
0.0
 40
0.9539561453000001
 50
67.989303391815767
 51
180.159848781846307
  0
ARC
  5
67FF
  8
0
 10
4081.6413104234770799
 20
185.1742079401994943
 30
0.0
 40
1.4999999977720471
 50
95.0000068547361991
 51
112.6198756155630036
  0
ARC
  5
6800
  8
0
 10
4081.6948485051361786
 20
185.2956347427563912
 30
0.0
 40
0.01155477367015
 50
277.2685965608810079
 51
352.7314135971341216
  0
ARC
  5
6801
  8
0
 10
4081.6054104241748064
 20
186.019172823976902
 30
0.0
 40
0.5
 50
64.7312010999065421
 51
85.533846793388534
  0
ARC
  5
6802
  8
0
 10
4081.6123939794752005
 20
186.600801250276902
 30
0.0
 40
0.12
 50
181.1559467714006928
 51
228.5486085696136911
  0
ARC
  5
6803
  8
0
 10
4081.6279195221291047
 20
186.7387608098943872
 30
0.0
 40
0.0597667112623407
 50
274.8063218663278917
 51
0.205899351089673
  0
ARC
  5
6804
  8
0
 10
4081.6181296710901734
 20
186.897921194675888
 30
0.0
 40
0.0649584971892379
 50
4.4254129088796601
 51
85.7965883644505993
  0
ARC
  5
6805
  8
0
 10
4081.9669552681430105
 20
185.8600527534559887
 30
0.0
 40
0.2119669881169471
 50
55.7190228487286632
 51
95.8294837734351859
  0
ARC
  5
6806
  8
0
 10
4081.7377387204751358
 20
186.2995105167769054
 30
0.0
 40
0.19
 50
7.9999999999981553
 51
64.7312011745905806
  0
ARC
  5
6807
  8
0
 10
4081.8959954390288658
 20
186.1072396172586991
 30
0.0
 40
0.060042362334091
 50
336.1000235557065139
 51
7.996814781377708
  0
ARC
  5
6808
  8
0
 10
4082.9913104524748633
 20
182.8346188239769106
 30
0.0
 40
1.9614561452999999
 50
258.2106287779463969
 51
342.116541406871022
  0
ARC
  5
6809
  8
0
 10
4082.5764125367741144
 20
186.7541642543768887
 30
0.0
 40
0.8701021125
 50
235.7206198325870901
 51
269.0861725110144107
  0
ARC
  5
680A
  8
0
 10
4083.6663084998531303
 20
185.7165446189887916
 30
0.0
 40
0.150001924335084
 50
0.0007596895452684
 51
89.0853203534186093
  0
ARC
  5
680B
  8
0
 10
4087.9433104524750888
 20
178.2440471686769001
 30
0.0
 40
1.0234561452999991
 50
163.6660188642327114
 51
243.7644580255480093
  0
ARC
  5
680C
  8
0
 10
4084.8748934159748387
 20
173.590623646676903
 30
0.0
 40
0.9214561452999999
 50
82.3910450500409581
 51
189.0635210461290967
  0
ARC
  5
680D
  8
0
 10
4086.9375168287751876
 20
171.2300471686768901
 30
0.0
 40
0.8874561453000001
 50
359.7283431769823778
 51
62.8425956269076735
  0
ARC
  5
680E
  8
0
 10
4078.6413104241751171
 20
192.3742079380768928
 30
0.0
 40
6.2999999999999989
 50
285.0951855902893044
 51
292.6198624096924163
  0
ARC
  5
680F
  8
0
 10
4073.5725939267967988
 20
439.7477013668261066
 30
0.0
 40
253.5168937201725043
 50
269.1910325974205875
 51
270.0982529124838152
  0
ARC
  5
6810
  8
0
 10
4090.9843535731110933
 20
183.1082969961304059
 30
0.0
 40
0.8472931622522976
 50
335.6620897037332725
 51
351.1433724614926746
  0
ARC
  5
6811
  8
0
 10
4093.1326703281711161
 20
176.8036593081016008
 30
0.0
 40
12.2806617738888804
 50
174.1281588948127137
 51
175.2313293780717061
  0
ARC
  5
6812
  8
0
 10
4129.5883372450343813
 20
185.3951024971277093
 30
0.0
 40
45.9521618382841766
 50
179.8617157212891016
 51
180.1383135855446085
  0
ARC
  5
6813
  8
0
 10
4344.63935150157522
 20
167.5993443775768981
 30
0.0
 40
253.7292032372000108
 50
176.6917131070989058
 51
177.3036700772991026
  0
LINE
  5
6814
  8
0
 10
4081.6876858474752225
 20
186.7389755883768885
 30
0.0
 11
4081.6878091497751484
 21
186.7621963856769014
 31
0.0
  0
LINE
  5
6815
  8
0
 10
4090.2811394251748425
 20
184.987766823976898
 30
0.0
 11
4090.310182197974882
 21
184.237766823976898
 31
0.0
  0
LINE
  5
6816
  8
0
 10
4066.3545110409941117
 20
185.2841728239768884
 30
0.0
 11
4086.4871188050587989
 21
185.2841728239768884
 31
0.0
  0
ARC
  5
6817
  8
0
 10
4195.4895036837751832
 20
160.6002426472936122
 30
0.0
 40
126.7158283898618976
 50
171.9712424204448098
 51
175.7660243714308024
  0
ARC
  5
6818
  8
0
 10
4068.5257221738179396
 20
178.4717395526589883
 30
0.0
 40
1.5000292871462699
 50
353.374094308318206
 51
60.5116459668448314
  0
ARC
  5
6819
  8
0
 10
4072.0238375333851764
 20
184.9587941743197064
 30
0.0
 40
5.8704732376568227
 50
178.8302579725009878
 51
241.9589741668326042
  0
ARC
  5
681A
  8
0
 10
4066.3863531264028097
 20
185.0532003011969095
 30
0.0
 40
0.2331570816876542
 50
97.8493714507404064
 51
173.7368571429813073
  0
LINE
  5
681B
  8
0
 10
4066.1390534012748503
 20
185.5291728239768929
 30
0.0
 11
4066.2655970971168244
 21
185.9269807695835084
 31
0.0
  0
LINE
  5
681C
  8
0
 10
4066.4279162726747927
 20
186.0618315439768935
 30
0.0
 11
4079.4846519657198769
 21
186.0618315439768935
 31
0.0
  0
ARC
  5
681D
  8
0
 10
4066.4582147320497825
 20
185.8602446852960099
 30
0.0
 40
0.2038510687570485
 50
98.5475627253734245
 51
160.8903727742790011
  0
ARC
  5
681E
  8
0
 10
4086.4678332853309257
 20
185.4379884645026095
 30
0.0
 40
0.1550199423994792
 50
277.1464948529020944
 51
340.8535092637065986
  0
ARC
  5
681F
  8
0
 10
4086.7070698791280847
 20
185.5329612190236048
 30
0.0
 40
0.0604473165046374
 50
94.670415781349945
 51
167.8510908042626113
  0
ARC
  5
6820
  8
0
 10
4094.0262848749589466
 20
185.5631852490261053
 30
0.0
 40
0.030022603003127
 50
0.0430825244864306
 51
90.0783244731611035
  0
ARC
  5
6821
  8
0
 10
4091.3191365477919135
 20
170.8613425411290052
 30
0.0
 40
0.4152770343641121
 50
5.8180241135704298
 51
43.441570449570861
  0
ARC
  5
6822
  8
0
 10
4103.0693174798443579
 20
174.5644515664099004
 30
0.0
 40
11.9478651696179892
 50
183.2562086242571127
 51
196.6209801991498978
  0
ARC
  5
6823
  8
0
 10
4105.449716970298141
 20
174.8888258993790998
 30
0.0
 40
14.3440868174638592
 50
174.1372464698461897
 51
184.0097372984091066
  0
ARC
  5
6824
  8
0
 10
4088.1572982989650882
 20
177.6779736139876036
 30
0.0
 40
3.300540687159792
 50
336.3509260452237868
 51
10.6442080283908798
  0
ARC
  5
6825
  8
0
 10
4096.1303069243567734
 20
181.5301155462472877
 30
0.0
 40
4.5433409401751099
 50
164.3056695999476062
 51
175.3947069863210118
  0
ARC
  5
6826
  8
0
 10
4091.0313518912839754
 20
183.0998022247241863
 30
0.0
 40
0.7626746508129969
 50
271.0869167307528187
 51
284.0361715102642961
  0
ARC
  5
6827
  8
0
 10
4091.221548906676162
 20
182.2483747159409972
 30
0.0
 40
0.1116463822869079
 50
356.5498509089014192
 51
92.6809430900683253
  0
ARC
  5
6828
  8
0
 10
4089.8855881579538618
 20
182.2123857840560106
 30
0.0
 40
0.108169137100354
 50
95.2532298403330913
 51
141.3448947427251881
  0
ARC
  5
6829
  8
0
 10
4089.1479498119510936
 20
181.1928228191158041
 30
0.0
 40
0.105390614451442
 50
149.1546779718136122
 51
241.1419261619500958
  0
ARC
  5
682A
  8
0
 10
4088.1524642216600114
 20
182.1831338560747042
 30
0.0
 40
0.1163641295178809
 50
341.1253322120472262
 51
73.6622322442629951
  0
ARC
  5
682B
  8
0
 10
4087.6884835286978159
 20
181.5201110214700009
 30
0.0
 40
0.1005989719090417
 50
269.6768504196951994
 51
325.5244439931843772
  0
ARC
  5
682C
  8
0
 10
4088.9868306113007748
 20
183.8854954720515025
 30
0.0
 40
2.7871571760056679
 50
242.2227352415187909
 51
272.2670761487394202
  0
ARC
  5
682D
  8
0
 10
4089.0627000905801651
 20
180.152083304835088
 30
0.0
 40
2.3154356985101132
 50
69.4444676653860995
 51
112.2704863184920043
  0
ARC
  5
682E
  8
0
 10
4087.3024096651001855
 20
177.6026096373890084
 30
0.0
 40
3.8363226518354079
 50
84.2326961763302648
 51
127.3759590995563968
  0
ARC
  5
682F
  8
0
 10
4099.1612512374485959
 20
165.1834063379818929
 30
0.0
 40
20.9891083895162787
 50
132.5282055205344989
 51
140.0269221682509908
  0
ARC
  5
6830
  8
0
 10
4079.9085294096239522
 20
181.6052057758199965
 30
0.0
 40
4.3203808288138434
 50
293.7101243243179169
 51
317.1571135807756718
  0
ARC
  5
6831
  8
0
 10
4080.0170977116949871
 20
181.4361322141608071
 30
0.0
 40
4.1220418863795159
 50
287.9258297444204118
 51
293.2734127783559188
  0
ARC
  5
6832
  8
0
 10
4081.1934457262727847
 20
177.7995905946015114
 30
0.0
 40
0.2999705134058124
 50
175.2200411501204087
 51
287.9319395819558167
  0
ARC
  5
6833
  8
0
 10
4081.2224395091348015
 20
178.0275971673270874
 30
0.0
 40
0.3077094866550768
 50
132.923730259156514
 51
173.9523643912737043
  0
ARC
  5
6834
  8
0
 10
4076.3724803702871213
 20
182.5279076380585082
 30
0.0
 40
6.3094246073040274
 50
317.3470662260447739
 51
321.9330595088038081
  0
ARC
  5
6835
  8
0
 10
4073.8662116777318261
 20
184.1351575184118019
 30
0.0
 40
9.2778125459943066
 50
323.6621493214141765
 51
337.7948798190208208
  0
ARC
  5
6836
  8
0
 10
4084.80615722365701
 20
179.696075097741101
 30
0.0
 40
2.5285451158746501
 50
93.9790274170365478
 51
158.3522429638001938
  0
ARC
  5
6837
  8
0
 10
4085.8697165409548688
 20
163.6438750387767129
 30
0.0
 40
18.6159285336485212
 50
90.0694043110645737
 51
93.8162502761993693
  0
LINE
  5
6838
  8
0
 10
4079.3490340431671939
 20
171.225839642658002
 30
0.0
 11
4081.6117083582262239
 21
171.2281137629082934
 31
0.0
  0
ARC
  5
6839
  8
0
 10
4081.6114982270250948
 20
171.527942259392205
 30
0.0
 40
0.2998285701178662
 50
270.0401550527424774
 51
343.5592921294776829
  0
ARC
  5
683A
  8
0
 10
4084.3449588760668121
 20
170.7536635382394081
 30
0.0
 40
2.541197323822868
 50
140.568792376953013
 51
164.2585128111751089
  0
ARC
  5
683B
  8
0
 10
4084.9020839040881583
 20
170.3681092887865987
 30
0.0
 40
3.2168876818826431
 50
94.8529773310182946
 51
141.5673474246503076
  0
ARC
  5
683C
  8
0
 10
4084.6007586003502183
 20
173.8909159553404891
 30
0.0
 40
0.3187895393595943
 50
275.2517040568413904
 51
352.8420358794062963
  0
ARC
  5
683D
  8
0
 10
4092.0599170879340818
 20
173.3088163581481069
 30
0.0
 40
7.1634159598128679
 50
167.7999420670728057
 51
175.6577049427974941
  0
ARC
  5
683E
  8
0
 10
4088.3538945926839006
 20
174.4027370071503071
 30
0.0
 40
3.3222542336132341
 50
147.3588439004419115
 51
172.7390683109533995
  0
ARC
  5
683F
  8
0
 10
4087.6008143328717779
 20
174.7725734453881898
 30
0.0
 40
2.490434456386692
 50
103.7318669341544961
 51
145.1780785907700988
  0
ARC
  5
6840
  8
0
 10
4052.4816309455159171
 20
301.9402355331845911
 30
0.0
 40
129.4385931713052003
 50
285.471084911195419
 51
285.9603134075204025
  0
ARC
  5
6841
  8
0
 10
4087.947080173888935
 20
177.9249530688234984
 30
0.0
 40
0.4518231968923058
 50
286.2548280557185763
 51
339.3330851402947133
  0
ARC
  5
6842
  8
0
 10
4087.7939577427241602
 20
177.8424678586451932
 30
0.0
 40
0.5809921499259461
 50
352.3861792102488835
 51
30.6272018514352808
  0
ARC
  5
6843
  8
0
 10
4087.1477526990352089
 20
177.5654797382194943
 30
0.0
 40
1.2813887976222369
 50
26.56105608061144
 51
66.5317313647794037
  0
ARC
  5
6844
  8
0
 10
4087.4613759756498439
 20
178.220068044498106
 30
0.0
 40
0.556704813934376
 50
69.3112997294480948
 51
125.605593244956907
  0
ARC
  5
6845
  8
0
 10
4089.765075388727837
 20
175.2058832836613931
 30
0.0
 40
4.3501932094917839
 50
127.1618345400185035
 51
138.0305343666688884
  0
ARC
  5
6846
  8
0
 10
4038.255361409546822
 20
219.2578539606614925
 30
0.0
 40
63.4290330497816583
 50
317.1853315133175784
 51
319.5605748927616219
  0
ARC
  5
6847
  8
0
 10
4080.1957326723368169
 20
180.6855054148668955
 30
0.0
 40
6.4519184928616919
 50
271.9427003769284852
 51
315.3296708813101077
  0
ARC
  5
6848
  8
0
 10
4080.1097473270588125
 20
204.1477132189627923
 30
0.0
 40
29.9119699404189809
 50
267.7279908422644894
 51
270.58366741978449
  0
ARC
  5
6849
  8
0
 10
4078.8976257941039876
 20
173.7626188743944908
 30
0.0
 40
0.4973347395027358
 50
86.9684582235226458
 51
185.0618243171105064
  0
ARC
  5
684A
  8
0
 10
4242.6689714712692876
 20
186.8101139689599961
 30
0.0
 40
164.7875791881589009
 50
184.5566043572054866
 51
185.1723630812865906
  0
ARC
  5
684B
  8
0
 10
4079.3480559897589046
 20
172.0246005184457943
 30
0.0
 40
0.7987614745828738
 50
185.0599564564265904
 51
270.0701565462358076
  0
ARC
  5
684C
  8
0
 10
4081.7120673119911771
 20
399.1050239111917222
 30
0.0
 40
228.0781355928322114
 50
269.3105867347817934
 51
272.3933193932452923
  0
ARC
  5
684D
  8
0
 10
4079.0091942128738083
 20
171.8775086743540896
 30
0.0
 40
0.8351374518187409
 50
186.7654650580562077
 51
267.1572934529971235
  0
ARC
  5
684E
  8
0
 10
4179.3102746149688755
 20
181.2889298239419134
 30
0.0
 40
101.5765460444855961
 50
182.7419748367109094
 51
185.3720158430865013
  0
ARC
  5
684F
  8
0
 10
4078.3476997311308878
 20
176.4747673301963005
 30
0.0
 40
0.4997132852607395
 50
108.9255776149683044
 51
185.1756787181820982
  0
ARC
  5
6850
  8
0
 10
4076.2752861477670194
 20
183.9211461868414972
 30
0.0
 40
7.230601321139499
 50
285.3195193864099792
 51
308.9714045584419182
  0
ARC
  5
6851
  8
0
 10
4080.9273206612938338
 20
178.1512952169449022
 30
0.0
 40
0.181444491279803
 50
80.4067251136719818
 51
125.1552756680579961
  0
ARC
  5
6852
  8
0
 10
4080.8655604133559791
 20
178.2059014118877087
 30
0.0
 40
0.1546429516614132
 50
17.70109341448169
 51
53.4938384312861928
  0
ARC
  5
6853
  8
0
 10
4087.6563570555358638
 20
177.5704602713157101
 30
0.0
 40
3.8127436787294959
 50
10.8415888145042096
 51
67.7981044694129196
  0
ARC
  5
6854
  8
0
 10
4095.8770963912288607
 20
179.6702481080550058
 30
0.0
 40
4.6879821283564951
 50
181.6484175887358106
 51
191.1528279511809956
  0
ARC
  5
6855
  8
0
 10
4087.4640115133320251
 20
171.5277640309928131
 30
0.0
 40
0.301933673427718
 50
154.0907928941117859
 51
269.5546249501978764
  0
ARC
  5
6856
  8
0
 10
4084.9389571655960935
 20
172.8110031743169941
 30
0.0
 40
2.5305408372904772
 50
332.9372460402021261
 51
350.2501264515112211
  0
ARC
  5
6857
  8
0
 10
4081.9350307113281815
 20
173.6472982327055092
 30
0.0
 40
5.6415337191754338
 50
347.0441234611914183
 51
0.1911461011629306
  0
ARC
  5
6858
  8
0
 10
4088.5651730996742117
 20
173.6586963607063865
 30
0.0
 40
0.9886679281260922
 50
137.4044250779475078
 51
179.5698307497488884
  0
ARC
  5
6859
  8
0
 10
4088.4398035534268274
 20
173.6173123809803087
 30
0.0
 40
0.9315518357783382
 50
105.465599805437094
 51
130.2935092675427882
  0
ARC
  5
685A
  8
0
 10
4085.3370123356189652
 20
187.5259412200317115
 30
0.0
 40
13.3202337457925495
 50
282.3738365787910993
 51
290.094910755804392
  0
ARC
  5
685B
  8
0
 10
4090.7393863188431169
 20
175.5079963792898923
 30
0.0
 40
0.1076459396939957
 50
3.5308182184061789
 51
124.3143307448764006
  0
ARC
  5
685C
  8
0
 10
4088.8531992817861465
 20
177.2092590735840076
 30
0.0
 40
2.4355987335547908
 50
295.8073446857085855
 51
318.5478757313554183
  0
ARC
  5
685D
  8
0
 10
4101.6452737728086504
 20
174.6334133711866059
 30
0.0
 40
10.8264562208846797
 50
176.8406934099901093
 51
197.6168185908246073
  0
ARC
  5
685E
  8
0
 10
4091.2295502571791985
 20
171.3270662566615954
 30
0.0
 40
0.1014594425948896
 50
273.8813017139182762
 51
17.0352956367307584
  0
ARC
  5
685F
  8
0
 10
4091.2675185003299703
 20
170.4026635608792049
 30
0.0
 40
0.8237632538821932
 50
64.6154197606865495
 51
92.1636678705789052
  0
ARC
  5
6860
  8
0
 10
4088.7533979545878537
 20
177.4183150292838036
 30
0.0
 40
2.6503442611568619
 50
316.5884170824783155
 51
336.3236142887732854
  0
ARC
  5
6861
  8
0
 10
4090.4865364198590214
 20
183.9119495910647117
 30
0.0
 40
1.715067127649885
 50
295.1833957701015834
 51
317.7643248871476089
  0
ARC
  5
6862
  8
0
 10
4083.0133098330038592
 20
171.1824817163200123
 30
0.0
 40
0.7675615283324327
 50
56.6358280609293914
 51
119.4182570618819028
  0
ARC
  5
6863
  8
0
 10
4083.0107190528337924
 20
171.3003399642815054
 30
0.0
 40
0.6659555179325031
 50
124.2102563418234951
 51
169.7804916879740915
  0
ARC
  5
6864
  8
0
 10
4087.0484131613370664
 20
170.4110638978978898
 30
0.0
 40
4.7999954244284391
 50
167.8845976371181052
 51
172.620055864010709
  0
ARC
  5
6865
  8
0
 10
4082.9924739422140192
 20
171.2776295082987872
 30
0.0
 40
0.7030203476426441
 50
5.9616763945094746
 51
50.9435673203582624
  0
ARC
  5
6866
  8
0
 10
4077.8735404009098602
 20
170.2303163754988873
 30
0.0
 40
5.9250342258695419
 50
7.8146396616813147
 51
10.8993512866528892
  0
ARC
  5
6867
  8
0
 10
4079.5072273383448191
 20
190.0473368016795064
 30
0.0
 40
3.9855691948106502
 50
269.6754590308440243
 51
290.818993120728976
  0
ARC
  5
6868
  8
0
 10
4081.6843461250568907
 20
184.945634042716307
 30
0.0
 40
1.572529368061351
 50
91.457596837687575
 51
118.9251686413560947
  0
ARC
  5
6869
  8
0
 10
4081.4800399753507918
 20
186.2902836358449861
 30
0.0
 40
0.5144913696125037
 50
320.1538784438799894
 51
336.2305368209284211
  0
ARC
  5
686A
  8
0
 10
4081.4149643518280755
 20
186.3911220685484977
 30
0.0
 40
0.6300779454542118
 50
282.165039018579705
 51
316.9035253331387025
  0
ARC
  5
686B
  8
0
 10
4080.0333870607478275
 20
190.1393178594132962
 30
0.0
 40
4.6193995074205629
 50
272.6504345080426219
 51
289.1367877947075726
  0
ARC
  5
686C
  8
0
 10
4079.3904722156039497
 20
190.6065236536549037
 30
0.0
 40
5.1533429730032418
 50
271.1446566237507909
 51
279.5674138069584274
  0
LINE
  5
686D
  8
0
 10
4066.1878206848859918
 20
185.454209051586389
 30
0.0
 11
4079.4934189917239564
 21
185.454209051586389
 31
0.0
  0
ARC
  5
686E
  8
0
 10
4066.2038679436018356
 20
185.5170722999226882
 30
0.0
 40
0.0648791376614015
 50
182.5569469077786096
 51
255.6797891337479882
  0
ARC
  5
686F
  8
0
 10
4083.7719273104207787
 20
185.684679082428687
 30
0.0
 40
0.0444835756588652
 50
311.5674800146123857
 51
356.1485855030533116
  0
ARC
  5
6870
  8
0
 10
4083.6499997677669853
 20
185.8296154111930889
 30
0.0
 40
0.2338726418433545
 50
287.8682375178556754
 51
310.3565702756728797
  0
ARC
  5
6871
  8
0
 10
4083.7720152778651936
 20
185.4270615699726932
 30
0.0
 40
0.1868477802693464
 50
105.6030306828833005
 51
131.1578599071596898
  0
ARC
  5
6872
  8
0
 10
4083.7536238452657926
 20
185.513985814445391
 30
0.0
 40
0.1175855035152393
 50
152.7971497480615142
 51
183.8900056668169896
  0
ARC
  5
6873
  8
0
 10
4077.5896388398191448
 20
192.796438081589514
 30
0.0
 40
7.7419254988194783
 50
284.5869142400442229
 51
290.0745646361659738
  0
ARC
  5
6874
  8
0
 10
4069.4076621880990388
 20
601.4569012620427202
 30
0.0
 40
416.1334205649104092
 50
269.8787779986752184
 51
269.9098360767650888
  0
ARC
  5
6875
  8
0
 10
4154.788845299472996
 20
43904.351421138002479
 30
0.0
 40
43719.1121206295792945
 50
269.8885399008159993
 51
269.901382351270172
  0
ARC
  5
6876
  8
0
 10
4067.0291036118351258
 20
182.0253636136289117
 30
0.0
 40
3.6232765051751521
 50
65.5766501920876834
 51
71.1447977308590964
  0
ARC
  5
6877
  8
0
 10
4069.8555578632940524
 20
185.3702524804118923
 30
0.0
 40
0.1107290667993605
 50
130.6928074783241982
 51
179.2438249637835952
  0
ARC
  5
6878
  8
0
 10
4068.6413232291902204
 20
185.4064643088437947
 30
0.0
 40
0.1068892425775991
 50
1.7197870492186491
 51
26.5305488751952012
  0
ARC
  5
6879
  8
0
 10
4077.4708386351380796
 20
185.4062607685667956
 30
0.0
 40
0.077013465818048
 50
141.4940361366172965
 51
182.3330597312993859
  0
LINE
  5
687A
  8
0
 10
4066.5055481957751908
 20
186.6544320879768861
 30
0.0
 11
4066.4306324583740206
 21
186.4233707246768859
 31
0.0
  0
ARC
  5
687B
  8
0
 10
4066.4909491168627937
 20
186.4086995941881923
 30
0.0
 40
0.0603190873332253
 50
180.5141758276731991
 51
268.6609964651743212
  0
ARC
  5
687C
  8
0
 10
4070.90602337356313
 20
287.4294398520747791
 30
0.0
 40
101.177480486288502
 50
267.4981951729122898
 51
269.4831106712030078
  0
ARC
  5
687D
  8
0
 10
4077.293804165327856
 20
186.2042428875843996
 30
0.0
 40
0.0730877493804642
 50
280.2802313366769908
 51
357.9105596277170207
  0
ARC
  5
687E
  8
0
 10
4076.7467536019748877
 20
207.3022913011913886
 30
0.0
 40
21.1773707726370617
 50
268.3598939140341031
 51
271.5155216964337228
  0
ARC
  5
687F
  8
0
 10
4076.1535155312340066
 20
186.2040355585035911
 30
0.0
 40
0.0716082964291566
 50
181.8433379189216907
 51
259.6325088766121212
  0
ARC
  5
6880
  8
0
 10
4069.8988655727907826
 20
186.1390066664548897
 30
0.0
 40
0.0914022115586213
 50
302.3980312649593998
 51
358.2930409464028116
  0
ARC
  5
6881
  8
0
 10
4068.9698560796528
 20
186.1411321725489074
 30
0.0
 40
0.0910877972326159
 50
181.5502880510728971
 51
240.5279171496511026
  0
ARC
  5
6882
  8
0
 10
4068.7869098689789098
 20
186.183633485832587
 30
0.0
 40
0.0907010378841024
 50
1.7963199894839399
 51
84.9907771716942477
  0
ARC
  5
6883
  8
0
 10
4066.6393585303080727
 20
186.6104651935175127
 30
0.0
 40
0.140848476868823
 50
91.6451295073331664
 51
161.8107063127484935
  0
ARC
  5
6884
  8
0
 10
4081.002503413994873
 20
186.4290589055451903
 30
0.0
 40
0.2489517891191047
 50
6.433977417954269
 51
44.0064134329220309
  0
ARC
  5
6885
  8
0
 10
4082.0235914874610899
 20
185.9481196216177068
 30
0.0
 40
0.666244209128574
 50
242.7282110300068894
 51
265.2404578418647247
  0
ARC
  5
6886
  8
0
 10
4081.5669356793241604
 20
185.2949852856322934
 30
0.0
 40
0.0108417782441451
 50
185.223176404841297
 51
265.7855393950998746
  0
ARC
  5
6887
  8
0
 10
4081.4492651302871309
 20
178.4129589643058011
 30
0.0
 40
4.1094890371271022
 50
185.366423965272503
 51
208.8558481315147048
  0
ARC
  5
6888
  8
0
 10
4079.1967268254579722
 20
178.2222880286456927
 30
0.0
 40
1.8491086235115031
 50
132.0481001989728895
 51
186.0119664402074022
  0
ARC
  5
6889
  8
0
 10
4057.4239911415079405
 20
200.3532034337115988
 30
0.0
 40
29.1983420728703287
 50
314.6898641588051078
 51
320.7624561465423199
  0
ARC
  5
688A
  8
0
 10
4083.5100851805650564
 20
178.2882234760427025
 30
0.0
 40
4.9979362403931997
 50
116.419501255908699
 51
133.9878695732444953
  0
ARC
  5
688B
  8
0
 10
4080.3359905714110027
 20
183.8445108795731926
 30
0.0
 40
1.4388243098642739
 50
311.3363889718538076
 51
341.3406799829576244
  0
ARC
  5
688C
  8
0
 10
4077.1414516425188594
 20
184.9745423841063996
 30
0.0
 40
4.8272379411868691
 50
340.764151591693917
 51
351.2206994599284826
  0
ARC
  5
688D
  8
0
 10
4088.107817991200136
 20
185.5328057992938113
 30
0.0
 40
0.0604029662343374
 50
9.7123202669468398
 51
89.6800876240576059
  0
ARC
  5
688E
  8
0
 10
4092.1107130892710302
 20
185.5408368610092111
 30
0.0
 40
0.0627981220212565
 50
272.4645051962555726
 51
356.8127227862856898
  0
ARC
  5
688F
  8
0
 10
4086.572114725479878
 20
185.9734325231700041
 30
0.0
 40
0.1254358753512197
 50
185.8465948266996008
 51
267.7099875618148985
  0
ARC
  5
6890
  8
0
 10
4086.575759563732845
 20
185.7097772612117126
 30
0.0
 40
0.1385275510100977
 50
48.1401045652262027
 51
86.8599012914327631
  0
ARC
  5
6891
  8
0
 10
4086.7210936954411409
 20
185.855795053335811
 30
0.0
 40
0.0677732838744223
 50
227.6968048287035913
 51
267.3032737271752808
  0
ARC
  5
6892
  8
0
 10
4085.3449436350952055
 20
198.5530290303478864
 30
0.0
 40
0.1400542789250904
 50
177.2851715435695894
 51
267.6695511945920885
  0
ARC
  5
6893
  8
0
 10
4089.7536708367838401
 20
123.7808851003866977
 30
0.0
 40
76.1399784197326568
 50
86.8262604053974343
 51
93.1778075872805829
  0
ARC
  5
6894
  8
0
 10
4085.5453002915628531
 20
199.5841348036560134
 30
0.0
 40
0.2200006217841529
 50
93.2394377522494437
 51
173.386471486524897
  0
ARC
  5
6895
  8
0
 10
4093.9278943766958037
 20
199.5548194783733038
 30
0.0
 40
0.2526428135961109
 50
11.1603475733482895
 51
80.618801754031395
  0
LINE
  5
6896
  8
0
 10
4094.0111727959751988
 20
185.965985542776906
 30
0.0
 11
4094.2580534011749478
 21
198.663096824176904
 31
0.0
  0
ARC
  5
6897
  8
0
 10
4081.2555247195891752
 20
197.4116602716474063
 30
0.0
 40
12.9479139530779808
 50
356.7300099648015816
 51
1.1569607023328481
  0
ARC
  5
6898
  8
0
 10
4105.5466388695276692
 20
196.9636896229430079
 30
0.0
 40
11.3679963257524594
 50
176.4221958519636928
 51
181.4647748151728877
  0
ARC
  5
6899
  8
0
 10
4089.7393818934451701
 20
185.4824617500975137
 30
0.0
 40
0.2331478720420069
 50
59.3782350939564125
 51
81.5803985117061643
  0
ARC
  5
689A
  8
0
 10
4089.2751293290439207
 20
185.6902214173975096
 30
0.0
 40
0.0232216923501617
 50
99.9071603161213915
 51
169.1256241725646987
  0
ARC
  5
689B
  8
0
 10
4092.0464544170008594
 20
185.6571859306812087
 30
0.0
 40
0.0559405540429686
 50
91.8658833246302464
 51
152.4071002046140109
  0
ARC
  5
689C
  8
0
 10
4092.482454471552046
 20
185.5496354713883989
 30
0.0
 40
0.1642962030533017
 50
54.3233810033814066
 51
84.2215376748605564
  0
LINE
  5
689D
  8
0
 10
4088.9918877901741325
 20
199.9230968239768913
 30
0.0
 11
4088.9918877901741325
 21
199.9566703123769003
 31
0.0
  0
LINE
  5
689E
  8
0
 10
4091.1918877901748601
 20
199.9230968239768913
 30
0.0
 11
4091.1918877901748601
 21
199.9566703123769003
 31
0.0
  0
LINE
  5
689F
  8
0
 10
4088.9918877901741325
 20
199.9230968239768913
 30
0.0
 11
4091.1918877901748601
 21
199.9230968239768913
 31
0.0
  0
LINE
  5
68A0
  8
0
 10
4090.9298877901751439
 20
200.0660638089769066
 30
0.0
 11
4089.2538877901738488
 21
200.0660638089769066
 31
0.0
  0
ARC
  5
68A1
  8
0
 10
4090.0918877900521693
 20
197.5591673304703022
 30
0.0
 40
2.6437889936738381
 50
72.6831282825027216
 51
107.3168717122010065
  0
ARC
  5
68A2
  8
0
 10
4090.0918877887970666
 20
197.5622634939240925
 30
0.0
 40
2.6408333297734838
 50
108.5740639096703006
 51
114.4763366329464986
  0
ARC
  5
68A3
  8
0
 10
4090.0925013907349239
 20
197.5639448112291916
 30
0.0
 40
2.6390441382645009
 50
65.5208906389975851
 51
71.4269366989990857
  0
ARC
  5
68A4
  8
0
 10
4089.3138787322009193
 20
200.0545005296881982
 30
0.0
 40
0.029982217061972
 50
107.3293417901119966
 51
157.3145810715948869
  0
ARC
  5
68A5
  8
0
 10
4090.8698968481489828
 20
200.0545005296881982
 30
0.0
 40
0.0299822170619694
 50
22.685418928406591
 51
72.6706582098885008
  0
ARC
  5
68A6
  8
0
 10
4089.001887790055207
 20
199.9566703124122
 30
0.0
 40
0.0099999998798648
 50
114.4763360919931046
 51
180.0000002023342063
  0
ARC
  5
68A7
  8
0
 10
4089.2538877901738488
 20
200.0560638089770009
 30
0.0
 40
0.01
 50
90.0
 51
108.5740639154981011
  0
ARC
  5
68A8
  8
0
 10
4091.1819026410580591
 20
199.9566746778548918
 30
0.0
 40
0.0099851500716028
 50
359.9749504545440004
 51
65.6506944284715246
  0
ARC
  5
68A9
  8
0
 10
4090.929887790156954
 20
200.0560638086905101
 30
0.0
 40
0.0100000002864749
 50
71.4259365833854645
 51
89.9999998997920585
  0
LINE
  5
68AA
  8
0
 10
4088.9977446162911292
 20
199.9657716369729883
 30
0.0
 11
4091.1860195035469587
 21
199.9657716369729883
 31
0.0
  0
LINE
  5
68AB
  8
0
 10
4089.1443722579829227
 20
199.9184255715578047
 30
0.0
 11
4089.1379485943139116
 21
199.9230968239768913
 31
0.0
  0
LINE
  5
68AC
  8
0
 10
4091.0280882137781191
 20
199.9101972876549951
 30
0.0
 11
4091.0458269860359906
 21
199.9230968239768913
 31
0.0
  0
ENDSEC
  0
EOF
