  0
SECTION
  2
HEADER
  9
$ACADVER
  1
AC1009
  9
$INSBASE
 10
45.766250918599987
 20
-10.2052111198
 30
0.0
  9
$EXTMIN
 10
18.092407161444338
 20
-10.20911625647026
 30
-0.0000000349181948
  9
$EXTMAX
 10
45.790356965365874
 20
18.35047351233862
 30
0.0000000814935746
  9
$LIMMIN
 10
0.0
 20
0.0
  9
$LIMMAX
 10
11.692913385800001
 20
8.2677165353999982
  9
$ORTHOMODE
 70
     1
  9
$REGENMODE
 70
     1
  9
$FILLMODE
 70
     1
  9
$QTEXTMODE
 70
     0
  9
$MIRRTEXT
 70
     0
  9
$DRAGMODE
 70
     2
  9
$LTSCALE
 40
0.6431102362
  9
$OSMODE
 70
   231
  9
$ATTMODE
 70
     1
  9
$TEXTSIZE
 40
0.2
  9
$TRACEWID
 40
0.05
  9
$TEXTSTYLE
  7
STANDARD
  9
$CLAYER
  8
0
  9
$CELTYPE
  6
BYLAYER
  9
$CECOLOR
 62
   256
  9
$DIMSCALE
 40
1.0
  9
$DIMASZ
 40
0.1875
  9
$DIMEXO
 40
0.0625
  9
$DIMDLI
 40
0.4443307087
  9
$DIMRND
 40
0.0
  9
$DIMDLE
 40
0.0
  9
$DIMEXE
 40
0.125
  9
$DIMTP
 40
0.0
  9
$DIMTM
 40
0.0
  9
$DIMTXT
 40
0.15625
  9
$DIMCEN
 40
0.1052362205
  9
$DIMTSZ
 40
0.0
  9
$DIMTOL
 70
     0
  9
$DIMLIM
 70
     0
  9
$DIMTIH
 70
     1
  9
$DIMTOH
 70
     1
  9
$DIMSE1
 70
     0
  9
$DIMSE2
 70
     0
  9
$DIMTAD
 70
     0
  9
$DIMZIN
 70
     0
  9
$DIMBLK
  1

  9
$DIMASO
 70
     1
  9
$DIMSHO
 70
     1
  9
$DIMPOST
  1

  9
$DIMAPOST
  1

  9
$DIMALT
 70
     0
  9
$DIMALTD
 70
     2
  9
$DIMALTF
 40
25.399999999999999
  9
$DIMLFAC
 40
1.0
  9
$DIMTOFL
 70
     0
  9
$DIMTVP
 40
0.0
  9
$DIMTIX
 70
     0
  9
$DIMSOXD
 70
     0
  9
$DIMSAH
 70
     0
  9
$DIMBLK1
  1

  9
$DIMBLK2
  1

  9
$DIMSTYLE
  2
STANDARD
  9
$DIMCLRD
 70
     0
  9
$DIMCLRE
 70
     0
  9
$DIMCLRT
 70
     0
  9
$DIMTFAC
 40
1.0
  9
$DIMGAP
 40
0.09
  9
$LUNITS
 70
     2
  9
$LUPREC
 70
     4
  9
$SKETCHINC
 40
0.1
  9
$FILLETRAD
 40
0.0
  9
$AUNITS
 70
     0
  9
$AUPREC
 70
     0
  9
$MENU
  1
.
  9
$ELEVATION
 40
0.0
  9
$PELEVATION
 40
0.0
  9
$THICKNESS
 40
0.0
  9
$LIMCHECK
 70
     0
  9
$BLIPMODE
 70
     0
  9
$CHAMFERA
 40
0.0
  9
$CHAMFERB
 40
0.0
  9
$SKPOLY
 70
     0
  9
$TDCREATE
 40
2457931.698439213
  9
$TDUPDATE
 40
2457938.4883583798
  9
$TDINDWG
 40
0.8490523032
  9
$TDUSRTIMER
 40
0.8490523032
  9
$USRTIMER
 70
     1
  9
$ANGBASE
 50
0.0
  9
$ANGDIR
 70
     0
  9
$PDMODE
 70
     0
  9
$PDSIZE
 40
0.3125
  9
$PLINEWID
 40
0.0
  9
$COORDS
 70
     1
  9
$SPLFRAME
 70
     0
  9
$SPLINETYPE
 70
     6
  9
$SPLINESEGS
 70
     8
  9
$ATTDIA
 70
     1
  9
$ATTREQ
 70
     1
  9
$HANDLING
 70
     1
  9
$HANDSEED
  5
21B0
  9
$SURFTAB1
 70
     6
  9
$SURFTAB2
 70
     6
  9
$SURFTYPE
 70
     6
  9
$SURFU
 70
     6
  9
$SURFV
 70
     6
  9
$UCSNAME
  2

  9
$UCSORG
 10
0.0
 20
0.0
 30
0.0
  9
$UCSXDIR
 10
1.0
 20
0.0
 30
0.0
  9
$UCSYDIR
 10
0.0
 20
1.0
 30
0.0
  9
$PUCSNAME
  2

  9
$PUCSORG
 10
0.0
 20
0.0
 30
0.0
  9
$PUCSXDIR
 10
1.0
 20
0.0
 30
0.0
  9
$PUCSYDIR
 10
0.0
 20
1.0
 30
0.0
  9
$USERI1
 70
     0
  9
$USERI2
 70
     0
  9
$USERI3
 70
     0
  9
$USERI4
 70
     0
  9
$USERI5
 70
     0
  9
$USERR1
 40
0.0
  9
$USERR2
 40
0.0
  9
$USERR3
 40
0.0
  9
$USERR4
 40
0.0
  9
$USERR5
 40
0.0
  9
$WORLDVIEW
 70
     1
  9
$SHADEDGE
 70
     3
  9
$SHADEDIF
 70
    70
  9
$TILEMODE
 70
     1
  9
$MAXACTVP
 70
    48
  9
$PLIMCHECK
 70
     0
  9
$PEXTMIN
 10
1.0000000000000000E+020
 20
1.0000000000000000E+020
 30
1.0000000000000000E+020
  9
$PEXTMAX
 10
-1.0000000000000000E+020
 20
-1.0000000000000000E+020
 30
-1.0000000000000000E+020
  9
$PLIMMIN
 10
0.0
 20
0.0
  9
$PLIMMAX
 10
12.0
 20
9.0
  9
$UNITMODE
 70
     0
  9
$VISRETAIN
 70
     1
  9
$PLINEGEN
 70
     0
  9
$PSLTSCALE
 70
     1
  0
ENDSEC
  0
SECTION
  2
TABLES
  0
TABLE
  2
VPORT
 70
     1
  0
VPORT
  2
*ACTIVE
 70
     0
 10
0.0
 20
0.0
 11
1.0
 21
1.0
 12
11.52693633035511
 22
-14.562990912265819
 13
0.0
 23
0.0
 14
1.0
 24
1.0
 15
0.0
 25
0.0
 16
-0.0000000000000462
 26
0.0
 36
208.30253145089989
 17
20.414445733050002
 27
18.6336695402
 37
0.0
 40
28.74466810890857
 41
1.786624203821656
 42
50.0
 43
0.0
 44
0.0
 50
0.0
 51
0.0
 71
     0
 72
   100
 73
     1
 74
     1
 75
     0
 76
     1
 77
     0
 78
     0
  0
ENDTAB
  0
TABLE
  2
LTYPE
 70
     2
  0
LTYPE
  2
CONTINUOUS
 70
     0
  3
Solid line
 72
    65
 73
     0
 40
0.0
  0
LTYPE
  2
PHANTOM2
 70
     0
  3
___ _ _ ___ _ _ ___ _ _ ___ _ _
 72
    65
 73
     6
 40
1.25
 49
0.625
 49
-0.125
 49
0.125
 49
-0.125
 49
0.125
 49
-0.125
  0
ENDTAB
  0
TABLE
  2
LAYER
 70
     2
  0
LAYER
  2
0
 70
     0
 62
     7
  6
CONTINUOUS
  0
LAYER
  2
DEFPOINTS
 70
     0
 62
     7
  6
CONTINUOUS
  0
ENDTAB
  0
TABLE
  2
STYLE
 70
     1
  0
STYLE
  2
STANDARD
 70
     0
 40
0.0
 41
0.8
 50
0.0
 71
     0
 42
0.2
  3
txt
  4

  0
ENDTAB
  0
TABLE
  2
VIEW
 70
     0
  0
ENDTAB
  0
TABLE
  2
UCS
 70
     0
  0
ENDTAB
  0
TABLE
  2
APPID
 70
     5
  0
APPID
  2
ACAD
 70
     0
  0
APPID
  2
ACAD_MLEADERVER
 70
     0
  0
APPID
  2
ACAD_NAV_VCDISPLAY
 70
     0
  0
APPID
  2
ACAD_EXEMPT_FROM_CAD_STANDARDS
 70
     0
  0
APPID
  2
ACDBATTR
 70
     0
  0
ENDTAB
  0
TABLE
  2
DIMSTYLE
 70
     1
  0
DIMSTYLE
  2
STANDARD
 70
     0
  3

  4

  5

  6

  7

 40
1.0
 41
0.1875
 42
0.0625
 43
0.38
 44
0.125
 45
0.0
 46
0.0
 47
1.5
 48
1.5
140
0.15625
141
0.09
142
0.0
143
25.399999999999999
144
1.0
145
0.0
146
1.0
147
0.09
 71
     0
 72
     0
 73
     1
 74
     1
 75
     0
 76
     0
 77
     0
 78
     4
170
     0
171
     2
172
     0
173
     0
174
     0
175
     0
176
     0
177
     0
178
     0
  0
ENDTAB
  0
ENDSEC
  0
SECTION
  2
BLOCKS
  0
BLOCK
  8
0
  2
$MODEL_SPACE
 70
     0
 10
0.0
 20
0.0
 30
0.0
  3
$MODEL_SPACE
  1

  0
ENDBLK
  5
21
  8
0
  0
BLOCK
 67
     1
  8
0
  2
$PAPER_SPACE
 70
     0
 10
0.0
 20
0.0
 30
0.0
  3
$PAPER_SPACE
  1

  0
ENDBLK
  5
1D
 67
     1
  8
0
  0
ENDSEC
  0
SECTION
  2
ENTITIES
  0
LINE
  5
BFA
  8
0
 10
20.638389427100002
 20
-10.2052111198
 30
0.0
 11
39.858359539399999
 21
-10.2052111198
 31
0.0
  0
LINE
  5
C1E
  8
0
 10
29.148603577300001
 20
-8.803523071599999
 30
0.0
 11
31.208073409000001
 21
-8.8035254930999987
 31
0.0
  0
LINE
  5
C32
  8
0
 10
18.608389427100001
 20
5.0397888801999988
 30
0.0
 11
18.608389427100001
 21
5.0247939462999991
 31
0.0
  0
LINE
  5
C33
  8
0
 10
18.902711461199999
 20
5.9339867809999998
 30
0.0
 11
18.902711461199999
 21
5.9190016232999998
 31
0.0
  0
LINE
  5
C34
  8
0
 10
18.9776279274
 20
6.1650504008000002
 30
0.0
 11
18.902711583599999
 21
5.9339875394000003
 31
0.0
  0
LINE
  5
C35
  8
0
 10
18.737615115899999
 20
5.4376348082000003
 30
0.0
 11
18.608389448099999
 21
5.0397889449999989
 31
0.0
  0
LINE
  5
C51
  8
0
 10
31.484048804699999
 20
-8.7118766016000002
 30
0.0
 11
29.751367545299999
 21
-8.1821424674000003
 31
0.0
  0
LINE
  5
C73
  8
0
 10
29.058095577300001
 20
-6.8891017987999987
 30
0.0
 11
28.8912037648
 21
-6.9110735226999989
 31
0.0
  0
LINE
  5
C80
  8
0
 10
34.478389427099998
 20
-6.729041797299999
 30
0.0
 11
37.110727401200002
 21
-6.7290421097999991
 31
0.0
  0
LINE
  5
C91
  8
0
 10
32.1799055866
 20
-7.9895539102999988
 30
0.0
 11
30.128899659000002
 21
-7.3624984702999994
 31
0.0
  0
LINE
  5
CAC
  8
0
 10
22.216418452999999
 20
4.853741735899999
 30
0.0
 11
22.2169169742
 21
4.8823019924000004
 31
0.0
  0
LINE
  5
CAE
  8
0
 10
22.462306010900001
 20
5.646891684699999
 30
0.0
 11
22.465835895205011
 21
5.7835014702956746
 31
0.0
  0
LINE
  5
CB6
  8
0
 10
21.532985463700001
 20
-2.9193110847999999
 30
0.0
 11
20.638389389299999
 21
-10.2052114273
 31
0.0
  0
LINE
  5
D4A
  8
0
 10
36.982859887399997
 20
-3.5152111198
 30
0.0
 11
37.321902539200011
 21
-3.5152111198
 31
0.0
  0
LINE
  5
DB4
  8
0
 10
27.6535349812
 20
-8.3411292633999992
 30
0.0
 11
27.509178624600001
 21
-3.0517112957000001
 31
0.0
  0
LINE
  5
DE2
  8
0
 10
29.132009293100001
 20
-7.4505322097000004
 30
0.0
 11
29.058095574799999
 21
-6.889101779999999
 31
0.0
  0
LINE
  5
DE7
  8
0
 10
28.533570769499999
 20
-8.2275266520999981
 30
0.0
 11
28.461275231799998
 21
-6.8480456155999994
 31
0.0
  0
LINE
  5
DE8
  8
0
 10
28.553603113621829
 20
5.7285237803224609
 30
0.0
 11
28.554023883199999
 21
5.7123255169
 31
0.0
  0
LINE
  5
E04
  8
0
 10
30.002722391599999
 20
-7.2134519478999994
 30
0.0
 11
29.9842311146
 21
-7.0729967546000001
 31
0.0
  0
LINE
  5
F15
  8
0
 10
42.341223067299993
 20
3.9347888801999988
 30
0.0
 11
42.892425178699987
 21
3.9347888801999988
 31
0.0
  0
LINE
  5
F17
  8
0
 10
38.8821396441
 20
3.9797888801999992
 30
0.0
 11
39.1946392101
 21
3.9797888801999992
 31
0.0
  0
LINE
  5
F18
  8
0
 10
42.857134123299993
 20
3.9797888801999992
 30
0.0
 11
43.169633689299999
 21
3.9797888801999992
 31
0.0
  0
LINE
  5
1048
  8
0
 10
36.698389427099997
 20
4.3547888802000001
 30
0.0
 11
43.72354481739999
 21
4.3547888802000001
 31
0.0
  0
LINE
  5
104A
  8
0
 10
18.816630895700001
 20
4.7947888801999987
 30
0.0
 11
43.558088567699997
 21
4.7947888801999987
 31
0.0
  0
LINE
  5
1050
  8
0
 10
29.320638847000001
 20
4.8547888802000001
 30
0.0
 11
29.805974135300001
 21
4.8547888802000001
 31
0.0
  0
LINE
  5
1060
  8
0
 10
38.465389572514241
 20
5.104788861563323
 30
0.0
 11
43.830587375999997
 21
5.1047894529000004
 31
0.0
  0
LINE
  5
10B0
  8
0
 10
36.140782006599999
 20
5.3771434864999987
 30
0.0
 11
35.034613708099997
 21
5.3947888784999991
 31
0.0
  0
LINE
  5
111B
  8
0
 10
34.02821792280001
 20
4.8046143562000001
 30
0.0
 11
34.019818629900001
 21
5.2858095244000003
 31
0.0
  0
LINE
  5
113F
  8
0
 10
37.167708156300002
 20
17.7676206097
 30
0.0
 11
37.008555463
 21
17.169655325200001
 31
0.0
  0
LINE
  5
12B6
  8
0
 10
36.288461330499999
 20
5.1924499596000002
 30
0.0
 11
36.2883894271
 21
5.2271626580000001
 31
0.0
  0
LINE
  5
12B7
  8
0
 10
36.108389525700012
 20
4.7953191736000003
 30
0.0
 11
36.108389427100001
 21
5.0171117256999986
 31
0.0
  0
LINE
  5
12C0
  8
0
 10
32.1799055866
 20
-7.9895539102999988
 30
0.0
 11
32.219483736500003
 21
-7.8600996151000002
 31
0.0
  0
LINE
  5
12E7
  8
0
 10
37.598274279499996
 20
0.6858817263
 30
0.0
 11
37.594381264699997
 21
0.7406963686
 31
0.0
  0
LINE
  5
12EC
  8
0
 10
37.207770693899988
 20
4.2293258148000001
 30
0.0
 11
37.2274812884
 21
3.6648882389999988
 31
0.0
  0
LINE
  5
12FF
  8
0
 10
37.489297565800001
 20
3.6648882392000002
 30
0.0
 11
37.509008160299999
 21
4.2293258148000001
 31
0.0
  0
LINE
  5
1327
  8
0
 10
39.858359586399999
 20
-10.2052111198
 30
0.0
 11
39.7475703243
 21
-9.4151327709999997
 31
0.0
  0
LINE
  5
1339
  8
0
 10
38.538387517399997
 20
4.8047888801999994
 30
0.0
 11
38.538387517399997
 21
5.1047888802000001
 31
0.0
  0
LINE
  5
133E
  8
0
 10
38.8821396441
 20
3.9797888801999992
 30
0.0
 11
38.8821396441
 21
4.3547888802000001
 31
0.0
  0
LINE
  5
133F
  8
0
 10
39.1946392101
 20
3.9797888801999992
 30
0.0
 11
39.1946392101
 21
4.3547888802000001
 31
0.0
  0
LINE
  5
1355
  8
0
 10
39.7677706857
 20
4.2293260496
 30
0.0
 11
39.785645467099997
 21
3.7174592820999992
 31
0.0
  0
LINE
  5
137F
  8
0
 10
40.0511121702
 20
3.7168517091000002
 30
0.0
 11
40.069008168599993
 21
4.2293260522000002
 31
0.0
  0
LINE
  5
139B
  8
0
 10
41.849858597500003
 20
3.546467597099999
 30
0.0
 11
42.457160892200001
 21
4.3059741143999988
 31
0.0
  0
LINE
  5
13C7
  8
0
 10
41.598625086099993
 20
4.1770290198999991
 30
0.0
 11
41.590001583499991
 21
3.7617868181
 31
0.0
  0
LINE
  5
140F
  8
0
 10
42.857134123299993
 20
3.9797888801999992
 30
0.0
 11
42.857134123299993
 21
4.3547888802000001
 31
0.0
  0
LINE
  5
1410
  8
0
 10
42.902434643699991
 20
3.9447888801999991
 30
0.0
 11
42.902434643699991
 21
3.9797888801999992
 31
0.0
  0
LINE
  5
1411
  8
0
 10
43.169633689299999
 20
3.9797888801999992
 30
0.0
 11
43.169633689299999
 21
4.3547888802000001
 31
0.0
  0
LINE
  5
1412
  8
0
 10
42.160214561099998
 20
1.4864443233
 30
0.0
 11
42.359262865600002
 21
4.1787975339000001
 31
0.0
  0
LINE
  5
1413
  8
0
 10
42.154334468499989
 20
1.4302030149
 30
0.0
 11
42.160214561099998
 21
1.4864443233
 31
0.0
  0
LINE
  5
141F
  8
0
 10
41.284031571500002
 20
-0.3835366733
 30
0.0
 11
40.866573739000003
 21
-1.9415105142999991
 31
0.0
  0
LINE
  5
145E
  8
0
 10
37.271894343500001
 20
16.1365337117
 30
0.0
 11
37.505768611262312
 21
16.153260980122429
 31
0.0
  0
LINE
  5
145F
  8
0
 10
37.271894343500001
 20
14.894470698499999
 30
0.0
 11
37.515056542300002
 21
14.877079134100001
 31
0.0
  0
LINE
  5
1461
  8
0
 10
43.80774624619999
 20
4.5578728692999988
 30
0.0
 11
43.813425873999989
 21
4.4494991163000002
 31
0.0
  0
LINE
  5
1467
  8
0
 10
43.453383906299997
 20
4.7947888801999987
 30
0.0
 11
43.453383906299997
 21
5.1047888802000001
 31
0.0
  0
LINE
  5
1485
  8
0
 10
31.484049731700001
 20
-8.7118765729999996
 30
0.0
 11
31.208073379599998
 21
-8.8035254840999997
 31
0.0
  0
LINE
  5
1496
  8
0
 10
37.158391639000001
 20
16.974788927399999
 30
0.0
 11
44.04619677489999
 21
16.974804330800001
 31
0.0
  0
LINE
  5
149B
  8
0
 10
44.651940419495538
 20
17.224767125389441
 30
0.0
 11
44.766250918599987
 21
17.224788880199998
 31
0.0
  0
LINE
  5
14A3
  8
0
 10
44.765693062099999
 20
18.0654140822
 30
0.0
 11
44.766250918599987
 21
17.224788880199998
 31
0.0
  0
LINE
  5
14A5
  8
0
 10
44.765086448699989
 20
17.1347822627
 30
0.0
 11
44.76397463499999
 21
15.5850634561
 31
0.0
  0
ARC
  5
1528
  8
0
 10
21.2813957525
 20
4.8547888802000001
 30
0.0
 40
0.06
 50
181.0000077748
 51
270.0
  0
ARC
  5
1529
  8
0
 10
22.156427591300002
 20
4.8547888802000001
 30
0.0
 40
0.06
 50
270.0
 51
359.0
  0
ARC
  5
1531
  8
0
 10
34.038216399699998
 20
4.8047888801999994
 30
0.0
 40
0.01
 50
181.0
 51
270.0
  0
ARC
  5
153E
  8
0
 10
38.469840552599997
 20
5.7947888634999991
 30
0.0
 40
0.6899999997
 50
182.77144655870001
 51
269.99999755549999
  0
ARC
  5
153F
  8
0
 10
43.5580888625
 20
4.5447888801999987
 30
0.0
 40
0.25
 50
3.0
 51
90.0
  0
ARC
  5
1542
  8
0
 10
43.723549215799999
 20
4.4447888801999991
 30
0.0
 40
0.09
 50
270.0
 51
2.999999998799999
  0
ARC
  5
1545
  8
0
 10
42.8924346437
 20
3.9447888801999991
 30
0.0
 40
0.01
 50
270.0
 51
360.0
  0
ARC
  5
1546
  8
0
 10
37.158340451999997
 20
17.129787017000002
 30
0.0
 40
0.1549980896
 50
165.0958451132
 51
270.00000502249998
  0
ARC
  5
1548
  8
0
 10
274.58476447679999
 20
17.224788364399998
 30
0.0
 40
237.0814173476
 50
180.0604183543
 51
182.77144655859999
  0
ARC
  5
175F
  8
0
 10
37.892521684275017
 20
17.574691609897261
 30
0.0
 40
0.7500508311444528
 50
96.212688620122933
 51
165.09475638190619
  0
ARC
  5
1760
  8
0
 10
40.587609780815832
 20
-110.81625520298191
 30
0.0
 40
129.16643202190261
 50
89.853577428563128
 51
91.231590339264173
  0
ARC
  5
1761
  8
0
 10
41.012647959749764
 20
-181.7999204567592
 30
0.0
 40
200.14969801179501
 50
88.999417848335838
 51
90.027179823447895
  0
ARC
  5
1762
  8
0
 10
44.509309511994772
 20
18.062865681555401
 30
0.0
 40
0.2563971943906371
 50
0.5690478884586092
 51
90.342880033087681
  0
ARC
  5
1763
  8
0
 10
37.297503013856712
 20
15.04840769085725
 30
0.0
 40
0.1561183875889349
 50
194.8635096443993
 51
259.981267349463
  0
ARC
  5
1764
  8
0
 10
39.133881045454572
 20
15.53195987997662
 30
0.0
 40
2.0550933637223991
 50
168.79252815112559
 51
194.76062348898509
  0
ARC
  5
1765
  8
0
 10
37.425357247106923
 20
15.88910343719413
 30
0.0
 40
0.3102739814471289
 50
133.0354420724436
 51
172.16643943203931
  0
ARC
  5
176D
  8
0
 10
37.280844069511261
 20
16.018655225158671
 30
0.0
 40
0.1182177447972691
 50
94.34175609866395
 51
124.66142865862059
  0
ARC
  5
176E
  8
0
 10
44.044673305898087
 20
17.82050566783472
 30
0.0
 40
0.8457027092425105
 50
270.1032140376102
 51
291.36607918736138
  0
ARC
  5
176F
  8
0
 10
44.160501127791193
 20
17.5341038028422
 30
0.0
 40
0.5367973011624589
 50
290.98997344673307
 51
311.9295780571091
  0
ARC
  5
1770
  8
0
 10
44.206408710131917
 20
17.39954900413063
 30
0.0
 40
0.4098275271345062
 50
319.74906228162803
 51
329.78807585883101
  0
ARC
  5
1771
  8
0
 10
44.611174871525662
 20
17.16010968962977
 30
0.0
 40
0.0605125230653221
 50
105.36830868893701
 51
146.4292019040461
  0
ARC
  5
1774
  8
0
 10
44.66054562230083
 20
16.888410754364038
 30
0.0
 40
0.3364664290010176
 50
85.067437440361104
 51
101.2094803463683
  0
ARC
  5
1775
  8
0
 10
44.675087881525059
 20
17.134788974496331
 30
0.0
 40
0.0899996946326822
 50
359.99566377936139
 51
80.800691219099548
  0
ARC
  5
17B7
  8
0
 10
43.827523945893716
 20
5.986864061421997
 30
0.0
 40
0.882079860893193
 50
270.19909553537741
 51
359.33361397343549
  0
ARC
  5
17B8
  8
0
 10
-806.91579580957261
 20
15.60577620173213
 30
0.0
 40
851.67977584996152
 50
359.35219476627037
 51
359.99878184532889
  0
ARC
  5
17B9
  8
0
 10
18.817871138435461
 20
4.542948061764835
 30
0.0
 40
0.2518438728830276
 50
90.282188124291224
 51
157.6856861287942
  0
ARC
  5
17BA
  8
0
 10
22.93459636659739
 20
2.518206506687465
 30
0.0
 40
4.8387669977717573
 50
154.01846903098959
 51
185.12491266432559
  0
ARC
  5
17FC
  8
0
 10
25.175697993215991
 20
3.524154801143506
 30
0.0
 40
7.205515016256939
 50
191.51342835061871
 51
229.3380302599663
  0
ARC
  5
17FD
  8
0
 10
38.138313427246281
 20
22.545955037595199
 30
0.0
 40
30.190063387237618
 50
234.20518503895499
 51
236.2566723334179
  0
ARC
  5
17FE
  8
0
 10
21.152892963886739
 20
-2.8743324548417539
 30
0.0
 40
0.3827445434710169
 50
353.25123032081478
 51
55.707836839228669
  0
ARC
  5
17FF
  8
0
 10
39.252110455422361
 20
-9.4854932041864455
 30
0.0
 40
0.5004391679393705
 50
7.988098523231228
 51
43.34111281604811
  0
ARC
  5
1800
  8
0
 10
39.725304491902392
 20
-9.0389454767598583
 30
0.0
 40
0.1501893506345455
 50
188.61307934220289
 51
223.33853975569761
  0
ARC
  5
1801
  8
0
 10
-6561.6446362665984
 20
-934.5162846494577
 30
0.0
 40
6665.7776171957294
 50
7.9805391135302646
 51
7.9871693347579233
  0
ARC
  5
1843
  8
0
 10
39.618228360907302
 20
-8.2766337836296202
 30
0.0
 40
0.150000288818073
 50
152.7030212338947
 51
188.01670222605361
  0
ARC
  5
1844
  8
0
 10
35.532130924584621
 20
-6.1835224255977774
 30
0.0
 40
4.4410032843817842
 50
332.8819167725598
 51
352.78032386306398
  0
ARC
  5
1845
  8
0
 10
-87281.376190827781
 20
31776.109843219139
 30
0.0
 40
92925.569932716287
 50
339.99971474800492
 51
340.00097356474339
  0
ARC
  5
1846
  8
0
 10
40.76810914332696
 20
-4.873677592854694
 30
0.0
 40
0.1412543819181487
 50
143.888240374199
 51
159.03901203275839
  0
ARC
  5
1847
  8
0
 10
40.205431826580018
 20
-4.4551782281139136
 30
0.0
 40
0.5600002413364834
 50
323.22605991322069
 51
353.26527239747492
  0
ARC
  5
1848
  8
0
 10
117.50674401402119
 20
-12.268427171623591
 30
0.0
 40
77.135251276277756
 50
173.0549025401651
 51
174.23540843645171
  0
ARC
  5
1849
  8
0
 10
6.2039956680793047
 20
-0.1099089598669133
 30
0.0
 40
34.848697787774782
 50
355.3395710895777
 51
355.50119270149031
  0
ARC
  5
184A
  8
0
 10
37.686869826349543
 20
-2.756961618237014
 30
0.0
 40
3.2595994770330732
 50
358.48074421448359
 51
12.840913977140319
  0
ARC
  5
184B
  8
0
 10
41.056499825928839
 20
-1.9904248604111601
 30
0.0
 40
0.1961237683174211
 50
165.5577216268795
 51
192.39793432056339
  0
ARC
  5
184C
  8
0
 10
41.475301870883463
 20
-0.4371810236180707
 30
0.0
 40
0.1986473356664602
 50
135.84293160774729
 51
164.41840007782929
  0
ARC
  5
184D
  8
0
 10
39.290177617313759
 20
1.7312285790598529
 30
0.0
 40
2.879932439915013
 50
315.17707956753969
 51
354.00018700327752
  0
LINE
  5
184E
  8
0
 10
18.911049517599999
 20
5.5688229215999989
 30
0.0
 11
31.9492736881
 21
5.5734255909000003
 31
0.0
  0
ARC
  5
184F
  8
0
 10
31.934775108144819
 20
9.900463774977279
 30
0.0
 40
4.327062474159983
 50
270.19197989391841
 51
284.10841935406188
  0
ARC
  5
1850
  8
0
 10
32.159589893599538
 20
9.0433720449911217
 30
0.0
 40
3.4410356474581332
 50
283.95671501401148
 51
294.73722861111139
  0
ARC
  5
1851
  8
0
 10
34.125576627233407
 20
4.7439167662999333
 30
0.0
 40
1.286639376010815
 50
95.526763650615123
 51
114.13347970672859
  0
ARC
  5
1852
  8
0
 10
34.075357390199478
 20
5.5197666662591161
 30
0.0
 40
0.510159584259739
 50
70.598395489985478
 51
98.306039217477164
  0
ARC
  5
1853
  8
0
 10
34.200867782196923
 20
5.8064773034073554
 30
0.0
 40
0.1993847854159572
 50
8.6805383730810242
 51
77.263388261009197
  0
ARC
  5
1854
  8
0
 10
128.13794499513611
 20
18.96018338037987
 30
0.0
 40
94.654175959668166
 50
187.9696223675497
 51
188.0982099093107
  0
ARC
  5
1855
  8
0
 10
34.352634853703762
 20
5.6197732059489018
 30
0.0
 40
0.0752965917196793
 50
329.48788826618949
 51
4.912488839893169
  0
ARC
  5
1856
  8
0
 10
33.94453030412221
 20
5.804901940161149
 30
0.0
 40
0.5230617150084502
 50
322.5045943052744
 51
334.72134423059248
  0
ARC
  5
1857
  8
0
 10
34.066230475412588
 20
5.7109173904613373
 30
0.0
 40
0.369296671171867
 50
312.57019312099152
 51
322.58044885927001
  0
ARC
  5
1899
  8
0
 10
18.963254262354528
 20
5.9195240216540688
 30
0.0
 40
0.0605364707954626
 50
180.4945361165567
 51
268.18358220962239
  0
ARC
  5
189A
  8
0
 10
28.970722795926431
 20
388.99842225021638
 30
0.0
 40
383.2701254493391
 50
268.50354984683548
 51
270.49811769160419
  0
ARC
  5
189B
  8
0
 10
21.219653548930189
 20
5.6775372091301186
 30
0.0
 40
0.1314556562324344
 50
8.5593186847582654
 51
78.022339447641954
  0
ARC
  5
189C
  8
0
 10
22.845559847216961
 20
5.7043231110561257
 30
0.0
 40
1.4956210107677199
 50
180.27669568781229
 51
182.10811650760419
  0
ARC
  5
189D
  8
0
 10
21.44167094535355
 20
5.6518068668815964
 30
0.0
 40
0.090806313229882
 50
181.58016919403201
 51
244.7116544903138
  0
ARC
  5
189E
  8
0
 10
22.371718036260859
 20
5.6494119172817321
 30
0.0
 40
0.0906230253384166
 50
298.88084499261839
 51
358.40639496137078
  0
ARC
  5
189F
  8
0
 10
28.625993394993252
 20
5.714943700725474
 30
0.0
 40
0.0720661044866614
 50
182.09280717412071
 51
263.52271562941621
  0
ARC
  5
18A0
  8
0
 10
29.304678539454351
 20
35.054744727256541
 30
0.0
 40
29.419425262330531
 50
268.66227268295302
 51
270.80789328287869
  0
ARC
  5
18A1
  8
0
 10
29.71107587836682
 20
6.2004793965342122
 30
0.0
 40
0.5622983401131184
 50
270.85743476489142
 51
275.78501527743452
  0
ARC
  5
18A2
  8
0
 10
29.763631245902399
 20
5.716336993552094
 30
0.0
 40
0.0754049650079145
 50
273.13371165705058
 51
356.85062153242961
  0
LINE
  5
18A3
  8
0
 10
29.838922326300001
 20
5.7121942938998647
 30
0.0
 11
29.839366174540061
 21
5.7292811487798181
 31
0.0
  0
ARC
  5
18A4
  8
0
 10
19.111403917103111
 20
6.1211262993368019
 30
0.0
 40
0.1408024844753997
 50
91.631982306004275
 51
161.82385101913169
  0
ARC
  5
18A5
  8
0
 10
34.672903984722687
 20
-570.85632811908408
 30
0.0
 40
577.32807319146059
 50
90.057354686103665
 51
91.544955393507493
  0
ARC
  5
18A6
  8
0
 10
34.095010051221202
 20
6.4114557077957759
 30
0.0
 40
0.0599999992043719
 50
2.0001080013426611
 51
90.026358083850894
  0
ARC
  5
18A7
  8
0
 10
27.219933065659831
 20
6.123611071276974
 30
0.0
 40
6.9410986334301441
 50
1.0400552644490351
 51
2.3940157851043589
  0
ARC
  5
18A8
  8
0
 10
34.099587824658371
 20
6.249877385365151
 30
0.0
 40
0.0603009778136968
 50
275.14701209544558
 51
359.73720566189132
  0
ARC
  5
18A9
  8
0
 10
37.536887899677829
 20
-33.389138613962153
 30
0.0
 40
39.727469101744823
 50
94.955720222955151
 51
95.161137483214986
  0
ARC
  5
18AA
  8
0
 10
18.918336925070999
 20
5.378952150032509
 30
0.0
 40
0.1900105686620676
 50
92.197983636145167
 51
162.01073086521549
  0
ARC
  5
18AB
  8
0
 10
18.668389511669261
 20
5.0247940296732807
 30
0.0
 40
0.0600000845693182
 50
180.0000818425369
 51
270.00569997739711
  0
ARC
  5
18AC
  8
0
 10
20.624207160796029
 20
-2584.6898218254692
 30
0.0
 40
2589.655354324721
 50
89.999076329161056
 51
90.043272076826312
  0
ARC
  5
18AD
  8
0
 10
19.57271449119375
 20
1.681900461555681
 30
0.0
 40
3.4608398545625652
 50
65.656129457487353
 51
71.585518216973
  0
ARC
  5
18AE
  8
0
 10
21.02322370455747
 20
4.8961518039101906
 30
0.0
 40
0.0656390501353677
 50
248.6364122699573
 51
270.06575441301732
  0
ARC
  5
18AF
  8
0
 10
21.285339479170851
 20
48.845796829760367
 30
0.0
 40
44.016064041205468
 50
269.65889952709051
 51
269.92387727683979
  0
ARC
  5
18B0
  8
0
 10
22.3263545066504
 20
4.8812729292911827
 30
0.0
 40
0.1094423485245378
 50
129.62430222599039
 51
179.45978767787449
  0
LINE
  5
18B1
  8
0
 10
20.66595524684929
 20
4.9655321627401463
 30
0.0
 11
31.929373845299999
 21
4.9657172329000003
 31
0.0
  0
ARC
  5
18B2
  8
0
 10
32.310416709113952
 20
7.4169516919382223
 30
0.0
 40
1.6741883554109871
 50
269.7376983267568
 51
285.44089467988317
  0
ARC
  5
18B3
  8
0
 10
31.092140674388801
 20
11.941509105852241
 30
0.0
 40
6.3605107383102606
 50
285.17074293776972
 51
292.22361031385361
  0
ARC
  5
18B4
  8
0
 10
34.130817256544667
 20
4.6185891899018321
 30
0.0
 40
1.568316493447337
 50
102.934472223906
 51
113.8041097807328
  0
ARC
  5
18B5
  8
0
 10
34.105128733947723
 20
4.7410437332629813
 30
0.0
 40
1.4432209470337141
 50
95.646831108861377
 51
103.0286834647271
  0
ARC
  5
18B6
  8
0
 10
34.439020501408017
 20
5.3706382440128486
 30
0.0
 40
0.2119999998886086
 50
55.720552963226382
 51
96.005790115445805
  0
ARC
  5
18B7
  8
0
 10
35.048491539471989
 20
6.2647803103368211
 30
0.0
 40
0.8701021122104397
 50
235.7206314855047
 51
269.08610586571803
  0
ARC
  5
18B9
  8
0
 10
36.137030268576787
 20
5.2258249181775351
 30
0.0
 40
0.1513650709233289
 50
0.5064288947530306
 51
88.579713569261003
  0
ARC
  5
18BA
  8
0
 10
36.198021262184369
 20
5.222121502817731
 30
0.0
 40
0.0951830154694493
 50
286.75197077041668
 51
341.83639087075841
  0
ARC
  5
18BB
  8
0
 10
35.691206071287517
 20
6.3600068872638236
 30
0.0
 40
1.3401249826760351
 50
290.25367716755568
 51
293.49422495526329
  0
ARC
  5
18BC
  8
0
 10
36.169330275645152
 20
5.0470181318047622
 30
0.0
 40
0.0575065097515243
 50
104.2993292193691
 51
162.50416140625009
  0
ARC
  5
18BD
  8
0
 10
36.276223129803242
 20
5.0194290374939881
 30
0.0
 40
0.1678496997318091
 50
164.4922879197824
 51
180.7910434883394
  0
ARC
  5
18C7
  8
0
 10
28.419149858806939
 20
-8.3352458264014828
 30
0.0
 40
0.7656374855375998
 50
180.44023493281301
 51
271.01516957753228
  0
LINE
  5
18C8
  8
0
 10
28.432714753515668
 20
-9.1007631370430389
 30
0.0
 11
37.9065808756
 21
-9.027267633300001
 31
0.0
  0
ARC
  5
18C9
  8
0
 10
37.941097757011313
 20
27.703944650768449
 30
0.0
 40
36.731228502085301
 50
269.94615829639957
 51
271.84360907208071
  0
ARC
  5
18CA
  8
0
 10
39.244393528388827
 20
-9.5362664325795201
 30
0.0
 40
0.5418168950360666
 50
46.687802738073422
 51
102.9690608910368
  0
ARC
  5
1950
  8
0
 10
31.79572966506333
 20
11.136295011498561
 30
0.0
 40
6.1720248613113569
 50
271.24073479083978
 51
278.58351174272519
  0
ARC
  5
1951
  8
0
 10
30.054176851776312
 20
24.548650175819461
 30
0.0
 40
19.696068292043901
 50
277.76966840332773
 51
280.85244387354908
  0
ARC
  5
1952
  8
0
 10
32.889538094577453
 20
8.4536694394789222
 30
0.0
 40
3.36406245601207
 50
285.03611751949131
 51
292.74873500472341
  0
ARC
  5
1953
  8
0
 10
33.925790445505918
 20
5.864578148148202
 30
0.0
 40
0.5774669265059145
 50
297.27142351239712
 51
312.51825371291022
  0
ARC
  5
1954
  8
0
 10
29.08104806220447
 20
4.9368251219227233
 30
0.0
 40
0.1792939531134343
 50
3.158851734440721
 51
9.2590811543276441
  0
ARC
  5
1955
  8
0
 10
-9556.4029404273606
 20
-162.39640494804169
 30
0.0
 40
9587.1236070902432
 50
0.9999508009377323
 51
1.0001478302776949
  0
ARC
  5
1956
  8
0
 10
29.320635833457409
 20
4.9147888803208524
 30
0.0
 40
0.0600000001965273
 50
180.99766401940229
 51
270.00287772118708
  0
ARC
  5
1957
  8
0
 10
29.805977149099999
 20
4.9147888801999988
 30
0.0
 40
0.0599999999999996
 50
270.0
 51
359.0
  0
ARC
  5
1958
  8
0
 10
29.943860342097398
 20
4.9165652151455772
 30
0.0
 40
0.0779434879192596
 50
140.9366226447645
 51
182.07597651981661
  0
ARC
  5
199A
  8
0
 10
37.417038355159647
 20
3.667015754200166
 30
0.0
 40
0.1895690042192906
 50
180.64304967274441
 51
216.01581100382859
  0
ARC
  5
199B
  8
0
 10
37.358374781608553
 20
3.624713774904869
 30
0.0
 40
0.1172451016194951
 50
216.15192002833049
 51
319.26857837829442
  0
ARC
  5
199C
  8
0
 10
37.296883181357963
 20
3.6683513463724902
 30
0.0
 40
0.1924455467177571
 50
321.36997426222302
 51
358.96889203703591
  0
ARC
  5
199D
  8
0
 10
37.077849886454622
 20
4.2247888803351872
 30
0.0
 40
0.1299999998648151
 50
1.999994089736072
 51
90.000000024072776
  0
ARC
  5
199E
  8
0
 10
37.638928967791763
 20
4.224788880220423
 30
0.0
 40
0.1299999999795754
 50
89.999999996364195
 51
177.9999999960468
  0
ARC
  5
199F
  8
0
 10
39.640107918396602
 20
4.2257942208172352
 30
0.0
 40
0.1277116142262425
 50
1.5845953160771391
 51
90.960901334338729
  0
ARC
  5
19A0
  8
0
 10
40.199383198508748
 20
4.2236806243558362
 30
0.0
 40
0.131112024165718
 50
90.577667991088944
 51
174.79903803026679
  0
ARC
  5
19A1
  8
0
 10
40.047696304256007
 20
3.7134666957374249
 30
0.0
 40
0.2620807500849387
 50
179.1271079621595
 51
221.48164193840429
  0
ARC
  5
19A2
  8
0
 10
39.918772940060549
 20
3.6132605350793989
 30
0.0
 40
0.0996572374160496
 50
227.42845827513301
 51
305.55939186395
  0
ARC
  5
19A3
  8
0
 10
39.796119319604273
 20
3.7119329375103418
 30
0.0
 40
0.2550402396974217
 50
315.12708109953599
 51
1.1048921099490649
  0
ARC
  5
19A4
  8
0
 10
42.559720723633482
 20
4.2226536292429326
 30
0.0
 40
0.1321394078035387
 50
90.455768513550652
 51
140.90892915509241
  0
ARC
  5
19A5
  8
0
 10
41.57832489663199
 20
3.6791065739270312
 30
0.0
 40
0.3415390483018573
 50
320.40775323081289
 51
351.3021175827659
  0
ARC
  5
19A6
  8
0
 10
41.761592878423933
 20
3.521209522729825
 30
0.0
 40
0.0998010709217337
 50
264.04614897816617
 51
323.20765520767799
  0
ARC
  5
19A7
  8
0
 10
41.780123590317032
 20
3.570479364531546
 30
0.0
 40
0.1513147098347895
 50
203.9298028735582
 51
258.99588082601667
  0
ARC
  5
19A8
  8
0
 10
42.137124117094608
 20
3.7423227749655612
 30
0.0
 40
0.547468643615443
 50
177.9625452380684
 51
205.21369899399551
  0
ARC
  5
19A9
  8
0
 10
41.813313805684722
 20
4.1797227847084626
 30
0.0
 40
0.2147059294193138
 50
135.8648969917495
 51
180.71886204171619
  0
ARC
  5
19AA
  8
0
 10
41.72426181367689
 20
4.2594895061357061
 30
0.0
 40
0.0953665832580099
 50
92.154265452072252
 51
133.0021012599021
  0
ARC
  5
19AD
  8
0
 10
33.991631714488037
 20
-101.0630061614239
 30
0.0
 40
105.4526238593493
 50
88.527381489168718
 51
91.245167552295442
  0
ARC
  5
19AE
  8
0
 10
36.357287408210397
 20
-5.3589381975016792
 30
0.0
 40
9.7197142097113911
 50
87.988858627424094
 51
105.6596204849443
  0
ARC
  5
19AF
  8
0
 10
32.974049486898409
 20
5.6829214379099167
 30
0.0
 40
1.8464353036185981
 50
226.3576828633451
 51
294.29453197416069
  0
ARC
  5
19B0
  8
0
 10
31.55649005756403
 20
4.358060858003304
 30
0.0
 40
0.1436807142733316
 50
355.4751879747119
 51
2.654412456619752
  0
ARC
  5
19F2
  8
0
 10
37.682352198946127
 20
-3.9752925388872411
 30
0.0
 40
4.465933766290191
 50
94.387868248772705
 51
116.5113334490357
  0
ARC
  5
19F3
  8
0
 10
40.497304245702487
 20
-8.4828051243908202
 30
0.0
 40
9.7691477720637572
 50
119.48567434422181
 51
135.91467204509729
  0
ARC
  5
19F4
  8
0
 10
137.7149532257794
 20
-116.7961058212215
 30
0.0
 40
155.2907457159574
 50
132.1616021907459
 51
133.2187533338851
  0
ARC
  5
19F5
  8
0
 10
30.476597591763131
 20
-2.7776538130172579
 30
0.0
 40
1.2369158911218441
 50
273.79149188999543
 51
316.5190049671358
  0
ARC
  5
19F6
  8
0
 10
30.381746804363821
 20
4.5312499085960978
 30
0.0
 40
8.5449363030297896
 50
267.96548533358231
 51
271.18451413076099
  0
ARC
  5
19F7
  8
0
 10
30.148726232408858
 20
-3.0028897109363908
 30
0.0
 40
1.0079124601572811
 50
246.21235738783241
 51
266.37105165436162
  0
ARC
  5
19F8
  8
0
 10
29.868204754840232
 20
-3.7004755741103881
 30
0.0
 40
0.2576258969541132
 50
158.50588115727359
 51
240.7152097975324
  0
ARC
  5
19F9
  8
0
 10
29.29979429489843
 20
-3.4636885768940009
 30
0.0
 40
0.3581315178856864
 50
336.66768755900807
 51
358.118458844325
  0
ARC
  5
19FA
  8
0
 10
30.325973865539272
 20
-3.518759189063521
 30
0.0
 40
0.6696433926188323
 50
134.20142212829421
 51
176.29144457002789
  0
ARC
  5
19FB
  8
0
 10
32.024843698282659
 20
-5.6914569683799918
 30
0.0
 40
3.4245498563558581
 50
108.85796006572239
 51
129.22845886046511
  0
ARC
  5
19FC
  8
0
 10
28.650121425157181
 20
2.2840587065230431
 30
0.0
 40
5.2498805592995303
 50
295.59310090768241
 51
325.2917657241361
  0
ARC
  5
19FD
  8
0
 10
29.92826697548805
 20
1.6077516148363999
 30
0.0
 40
3.8179453835824471
 50
322.71266788042681
 51
346.13901242762631
  0
ARC
  5
19FE
  8
0
 10
34.002412708261772
 20
0.5953830081201678
 30
0.0
 40
0.3801526907292616
 50
88.626291685561725
 51
165.10600811469229
  0
ARC
  5
19FF
  8
0
 10
206.45205086990359
 20
6882.2901664848869
 30
0.0
 40
6883.4750111500816
 50
268.56451168084919
 51
268.59301769551541
  0
ARC
  5
1A00
  8
0
 10
37.426863689517532
 20
0.7221527582120008
 30
0.0
 40
0.1685408065758495
 50
6.3167252940837217
 51
87.176623495222216
  0
ARC
  5
1A01
  8
0
 10
37.405289806066037
 20
0.6770375336158134
 30
0.0
 40
0.193187726011977
 50
275.5997253996988
 51
2.6239500484864382
  0
ARC
  5
1A02
  8
0
 10
37.663515091871652
 20
-2.7685089925178308
 30
0.0
 40
3.2620753401742748
 50
94.208204750542123
 51
95.679765602441279
  0
ARC
  5
1A03
  8
0
 10
36.989962327676182
 20
-3.1363110654839561
 30
0.0
 40
0.3866488699412604
 50
126.4526327939567
 51
193.11841760775599
  0
ARC
  5
1A04
  8
0
 10
36.982845224816231
 20
-3.1352537286890358
 30
0.0
 40
0.3799573913938748
 50
193.91344907351129
 51
270.00221104835907
  0
ARC
  5
1A05
  8
0
 10
37.318729656918279
 20
-2.7493007090198769
 30
0.0
 40
0.7659169827881805
 50
270.23735377029601
 51
309.36425627775742
  0
ARC
  5
1A06
  8
0
 10
48.761566371448232
 20
-12.575264276045591
 30
0.0
 40
14.32900263107477
 50
137.65024957577361
 51
139.878242769303
  0
ARC
  5
1A0D
  8
0
 10
38.071816885303207
 20
-2.8337841106961861
 30
0.0
 40
0.1336224448720746
 50
318.41846492862908
 51
359.40215885065152
  0
ARC
  5
1A0E
  8
0
 10
37.76447623185048
 20
-2.8362639024348861
 30
0.0
 40
0.440951915148942
 50
0.139273944460285
 51
97.408088382879185
  0
ARC
  5
1A0F
  8
0
 10
37.957224449768177
 20
-4.2195078244999449
 30
0.0
 40
1.8375464762923011
 50
97.80689050693249
 51
130.6478505633728
  0
ARC
  5
1A10
  8
0
 10
36.692876425203657
 20
-3.2393366274827429
 30
0.0
 40
4.3422052034933518
 50
16.24414365081465
 51
29.42079539776968
  0
ARC
  5
1A11
  8
0
 10
40.642906058778188
 20
-1.011681183375869
 30
0.0
 40
0.19267990085656
 50
117.5894810762195
 51
209.4308721640345
  0
ARC
  5
1A12
  8
0
 10
38.99805830606325
 20
2.2078666123799922
 30
0.0
 40
3.4227138827464518
 50
297.03253590972071
 51
311.29773630288457
  0
ARC
  5
1A13
  8
0
 10
46.366018404380348
 20
-6.2668908384691102
 30
0.0
 40
7.8071483656511242
 50
130.1428415206401
 51
130.87481958687661
  0
ARC
  5
1A14
  8
0
 10
41.033553945296283
 20
3.6851020269601031
 30
0.0
 40
4.8238965572020929
 50
221.56219187019249
 51
263.35196314566377
  0
ARC
  5
1A15
  8
0
 10
29.14383774388816
 20
-8.1922535634168057
 30
0.0
 40
0.6112855067921474
 50
183.3079834388048
 51
270.44670595661262
  0
ARC
  5
1A16
  8
0
 10
23.447359528847709
 20
-4.2302490613857326
 30
0.0
 40
9.5073495627244053
 50
331.68516875763783
 51
336.70843217465352
  0
ARC
  5
1A17
  8
0
 10
32.258379423670952
 20
-1.4584101315429181
 30
0.0
 40
7.2946809385754348
 50
263.90658412085452
 51
266.53263135071222
  0
ARC
  5
1A18
  8
0
 10
32.229703997259712
 20
-7.8184196511367201
 30
0.0
 40
0.0429146976906187
 50
256.22244414955441
 51
323.98930983128378
  0
ARC
  5
1A19
  8
0
 10
34.478409542040673
 20
-9.4852186933330778
 30
0.0
 40
2.7561767275361211
 50
90.00041815214297
 51
143.44484828173
  0
ARC
  5
1A1A
  8
0
 10
37.116692824479657
 20
-6.6750205512513867
 30
0.0
 40
0.0543506339879473
 50
263.69862769509223
 51
345.69658462098681
  0
ARC
  5
1A1B
  8
0
 10
37.113167020725129
 20
-6.6864792959192147
 30
0.0
 40
0.0564659604770468
 50
357.94322736258198
 51
21.926460980858749
  0
ARC
  5
1A1C
  8
0
 10
1116.473543544274
 20
272.40994042373518
 30
0.0
 40
1114.8043732182341
 50
194.46630493451249
 51
194.49737813237931
  0
ARC
  5
1A1D
  8
0
 10
39.938772751362521
 20
-5.3424243519963071
 30
0.0
 40
3.015998534923471
 50
145.5312427368624
 51
194.1557410727917
  0
ARC
  5
1A1E
  8
0
 10
36.928131658037408
 20
-2.6201918438115759
 30
0.0
 40
1.142621170756368
 50
297.30462411884861
 51
323.42682297805152
  0
ARC
  5
1A1F
  8
0
 10
28.490644096364111
 20
-6.8463044171897129
 30
0.0
 40
0.0294204346957887
 50
74.173850460024951
 51
183.39293599070061
  0
ARC
  5
1A20
  8
0
 10
30.5491841247966
 20
0.9556654152529059
 30
0.0
 40
8.0395571814280942
 50
255.22326696612299
 51
258.09861700002028
  0
ARC
  5
1A21
  8
0
 10
28.986128572990062
 20
-9.6756029848624632
 30
0.0
 40
2.7874303775368721
 50
69.018120998810929
 51
88.520550007653227
  0
ARC
  5
1A22
  8
0
 10
30.211705983986509
 20
-7.1644659212629351
 30
0.0
 40
0.2146481072444135
 50
193.192094140743
 51
247.30799732045099
  0
ARC
  5
1A23
  8
0
 10
30.041741597340049
 20
-7.308350448956844
 30
0.0
 40
0.9207759378125416
 50
188.88286924867981
 51
251.61755847980189
  0
ARC
  5
1A24
  8
0
 10
30.174165584303321
 20
-7.0532257046223821
 30
0.0
 40
0.1909606360667923
 50
93.795691821619059
 51
185.94275906714219
  0
ARC
  5
1A25
  8
0
 10
30.472370447029508
 20
82.852939212947874
 30
0.0
 40
89.716161658552167
 50
269.80148274919981
 51
270.0549346397342
  0
ARC
  5
1A26
  8
0
 10
30.475193354819211
 20
-2.55490047204102
 30
0.0
 40
4.3090839529826743
 50
271.10634583499581
 51
295.52543073068171
  0
ARC
  5
1A27
  8
0
 10
30.4571284942046
 20
-2.5237042253343409
 30
0.0
 40
4.3450205620306406
 50
295.56312837187852
 51
310.74993966010339
  0
ARC
  5
1A28
  8
0
 10
-1173.4399974330411
 20
1396.3633331531871
 30
0.0
 40
1849.9487851313711
 50
310.71571386454337
 51
310.85641084879433
  0
ARC
  5
1A29
  8
0
 10
34.06040317278174
 20
-9.0820828496907016
 30
0.0
 40
1.174112374627224
 50
143.27991975847181
 51
179.2573434210544
  0
ARC
  5
1A2A
  8
0
 10
33.60838942705
 20
-8.8854528109748117
 30
0.0
 40
0.7033074165659834
 50
70.252330796407833
 51
134.06306959498741
  0
ARC
  5
1A2B
  8
0
 10
33.609321357101472
 20
-8.8679887019721022
 30
0.0
 40
0.6865738759547001
 50
1.0020921344794149
 51
69.833097035623226
  0
ARC
  5
1A2C
  8
0
 10
25.623133856659742
 20
-10.38716600221842
 30
0.0
 40
8.8067868825719238
 50
8.6222105198077958
 51
10.012566874393389
  0
ARC
  5
1A2D
  8
0
 10
36.166293656036082
 20
-6.2172065504111371
 30
0.0
 40
3.8056998077012132
 50
351.86769748539422
 51
11.89244093806137
  0
ARC
  5
1A37
  8
0
 10
35.654640665384029
 20
-6.231313824779054
 30
0.0
 40
4.3102521734319881
 50
10.6742608650575
 51
13.1119146131142
  0
ARC
  5
1A38
  8
0
 10
39.92302019766047
 20
-5.237938218432892
 30
0.0
 40
0.0722013839516698
 50
112.8101765932292
 51
192.46026368186281
  0
ARC
  5
1A39
  8
0
 10
-890.61623430911754
 20
2439.8570452999038
 30
0.0
 40
2616.1079306352572
 50
290.83547163810579
 51
290.84676818118493
  0
ARC
  5
1A3A
  8
0
 10
40.113871335545198
 20
-4.3300936688708793
 30
0.0
 40
0.7095768339380332
 50
291.8409343522444
 51
319.57730381911392
  0
ARC
  5
1A3B
  8
0
 10
27.059865795874838
 20
-3.356887058548212
 30
0.0
 40
0.5431521557418257
 50
34.184564295267649
 51
98.977789142214903
  0
ARC
  5
1A3C
  8
0
 10
26.14166108872579
 20
7.6248676006351408
 30
0.0
 40
10.47845170652856
 50
262.18273662338538
 51
274.56206401140747
  0
ARC
  5
1A3D
  8
0
 10
27.873278154997571
 20
17.947087351439841
 30
0.0
 40
20.942587995315709
 50
256.27002621367529
 51
261.33032991774797
  0
ARC
  5
1A3E
  8
0
 10
22.585603435368991
 20
-3.2024952552446382
 30
0.0
 40
0.8655749196775788
 50
68.514564900442039
 51
128.0516521771109
  0
ARC
  5
1A3F
  8
0
 10
19.640261202404169
 20
0.0841200845103913
 30
0.0
 40
3.5500709782021271
 50
302.21861050228262
 51
312.7947845207263
  0
ARC
  5
1A40
  8
0
 10
33.465443800033484
 20
5.9333820565863027
 30
0.0
 40
0.2599144795570679
 50
7.2206609850640993
 51
43.584637867086741
  0
ARC
  5
1A41
  8
0
 10
34.165756454501079
 20
6.1472001500248661
 30
0.0
 40
0.2048530017071661
 50
171.5616956697142
 51
216.76975751178981
  0
ARC
  5
1EDC
  8
0
 10
21.08095721295307
 20
4.8583104661228429
 30
0.0
 40
0.140521968463634
 50
358.13683530184858
 51
49.736799484430421
  0
ATTDEF
  5
20AB
  8
DEFPOINTS
 10
45.77795668076503
 20
-10.203544453133331
 30
0.0
 40
0.001
  1
402015
  3

  2
MODELNUMBER
 70
     0
1001
ACDBATTR
1070
     0
1070
     1
  0
ATTDEF
  5
20AC
  8
DEFPOINTS
 10
45.77795668076503
 20
-10.2052111198
 30
0.0
 40
0.001
  1
WINDHAM
  3

  2
TRADENAME
 70
     0
1001
ACDBATTR
1070
     0
1070
     1
  0
ATTDEF
  5
20AD
  8
DEFPOINTS
 10
45.77795668076503
 20
-10.206877786466659
 30
0.0
 40
0.001
  1
TOILET
  3

  2
PRODUCT
 70
     0
1001
ACDBATTR
1070
     0
1070
     1
  0
ATTDEF
  5
20AE
  8
DEFPOINTS
 10
45.77795668076503
 20
-10.20854445313333
 30
0.0
 40
0.001
  1
VITREOUS CHINA
  3

  2
MATERIAL
 70
     0
1001
ACDBATTR
1070
     0
1070
     1
  0
ENDSEC
  0
EOF
