  0
SECTION
  2
HEADER
  9
$ACADVER
  1
AC1009
  9
$INSBASE
 10
4595.5170349648951742
 20
218.9883161789983035
 30
0.0
  9
$EXTMIN
 10
4586.5170349648960837
 20
209.6103483004982877
 30
0.0
  9
$EXTMAX
 10
4625.7430343608348267
 20
223.3697287450808915
 30
0.0
  9
$LIMMIN
 10
0.0
 20
0.0
  9
$LIMMAX
 10
11.6929133858000007
 20
8.2677165353999982
  9
$ORTHOMODE
 70
     0
  9
$REGENMODE
 70
     1
  9
$FILLMODE
 70
     1
  9
$QTEXTMODE
 70
     0
  9
$MIRRTEXT
 70
     0
  9
$DRAGMODE
 70
     2
  9
$LTSCALE
 40
0.6431102362
  9
$OSMODE
 70
  4095
  9
$ATTMODE
 70
     1
  9
$TEXTSIZE
 40
0.2
  9
$TRACEWID
 40
0.05
  9
$TEXTSTYLE
  7
STANDARD
  9
$CLAYER
  8
0
  9
$CELTYPE
  6
BYLAYER
  9
$CECOLOR
 62
   256
  9
$DIMSCALE
 40
1.0
  9
$DIMASZ
 40
0.1875
  9
$DIMEXO
 40
0.0625
  9
$DIMDLI
 40
0.4443307087
  9
$DIMRND
 40
0.0
  9
$DIMDLE
 40
0.0
  9
$DIMEXE
 40
0.125
  9
$DIMTP
 40
0.01
  9
$DIMTM
 40
0.01
  9
$DIMTXT
 40
2.0
  9
$DIMCEN
 40
0.1052362205
  9
$DIMTSZ
 40
0.0
  9
$DIMTOL
 70
     1
  9
$DIMLIM
 70
     0
  9
$DIMTIH
 70
     1
  9
$DIMTOH
 70
     1
  9
$DIMSE1
 70
     0
  9
$DIMSE2
 70
     0
  9
$DIMTAD
 70
     0
  9
$DIMZIN
 70
     0
  9
$DIMBLK
  1

  9
$DIMASO
 70
     1
  9
$DIMSHO
 70
     1
  9
$DIMPOST
  1
\X
  9
$DIMAPOST
  1

  9
$DIMALT
 70
     1
  9
$DIMALTD
 70
     2
  9
$DIMALTF
 40
25.3999999999999986
  9
$DIMLFAC
 40
1.0
  9
$DIMTOFL
 70
     0
  9
$DIMTVP
 40
0.0
  9
$DIMTIX
 70
     0
  9
$DIMSOXD
 70
     0
  9
$DIMSAH
 70
     0
  9
$DIMBLK1
  1

  9
$DIMBLK2
  1

  9
$DIMSTYLE
  2
STANDARD
  9
$DIMCLRD
 70
     0
  9
$DIMCLRE
 70
     0
  9
$DIMCLRT
 70
     0
  9
$DIMTFAC
 40
1.0
  9
$DIMGAP
 40
0.09
  9
$LUNITS
 70
     2
  9
$LUPREC
 70
     4
  9
$SKETCHINC
 40
0.1
  9
$FILLETRAD
 40
0.0
  9
$AUNITS
 70
     0
  9
$AUPREC
 70
     0
  9
$MENU
  1
.
  9
$ELEVATION
 40
0.0
  9
$PELEVATION
 40
0.0
  9
$THICKNESS
 40
0.0
  9
$LIMCHECK
 70
     0
  9
$BLIPMODE
 70
     0
  9
$CHAMFERA
 40
0.0
  9
$CHAMFERB
 40
0.0
  9
$SKPOLY
 70
     0
  9
$TDCREATE
 40
2458060.468368056230247
  9
$TDUPDATE
 40
2459759.6704050931148231
  9
$TDINDWG
 40
0.5083866898
  9
$TDUSRTIMER
 40
0.5083866898
  9
$USRTIMER
 70
     1
  9
$ANGBASE
 50
0.0
  9
$ANGDIR
 70
     0
  9
$PDMODE
 70
     0
  9
$PDSIZE
 40
0.3125
  9
$PLINEWID
 40
0.0
  9
$COORDS
 70
     1
  9
$SPLFRAME
 70
     0
  9
$SPLINETYPE
 70
     6
  9
$SPLINESEGS
 70
     8
  9
$ATTDIA
 70
     1
  9
$ATTREQ
 70
     1
  9
$HANDLING
 70
     1
  9
$HANDSEED
  5
10008
  9
$SURFTAB1
 70
     6
  9
$SURFTAB2
 70
     6
  9
$SURFTYPE
 70
     6
  9
$SURFU
 70
     6
  9
$SURFV
 70
     6
  9
$UCSNAME
  2

  9
$UCSORG
 10
0.0
 20
0.0
 30
0.0
  9
$UCSXDIR
 10
1.0
 20
0.0
 30
0.0
  9
$UCSYDIR
 10
0.0
 20
1.0
 30
0.0
  9
$PUCSNAME
  2

  9
$PUCSORG
 10
0.0
 20
0.0
 30
0.0
  9
$PUCSXDIR
 10
1.0
 20
0.0
 30
0.0
  9
$PUCSYDIR
 10
0.0
 20
1.0
 30
0.0
  9
$USERI1
 70
     0
  9
$USERI2
 70
     0
  9
$USERI3
 70
     0
  9
$USERI4
 70
     0
  9
$USERI5
 70
     0
  9
$USERR1
 40
0.0
  9
$USERR2
 40
0.0
  9
$USERR3
 40
0.0
  9
$USERR4
 40
0.0
  9
$USERR5
 40
0.0
  9
$WORLDVIEW
 70
     1
  9
$SHADEDGE
 70
     3
  9
$SHADEDIF
 70
    70
  9
$TILEMODE
 70
     1
  9
$MAXACTVP
 70
    64
  9
$PLIMCHECK
 70
     0
  9
$PEXTMIN
 10
1.0000000000000000E+20
 20
1.0000000000000000E+20
 30
1.0000000000000000E+20
  9
$PEXTMAX
 10
-1.0000000000000000E+20
 20
-1.0000000000000000E+20
 30
-1.0000000000000000E+20
  9
$PLIMMIN
 10
0.0
 20
0.0
  9
$PLIMMAX
 10
12.0
 20
9.0
  9
$UNITMODE
 70
     0
  9
$VISRETAIN
 70
     1
  9
$PLINEGEN
 70
     0
  9
$PSLTSCALE
 70
     1
  0
ENDSEC
  0
SECTION
  2
TABLES
  0
TABLE
  2
VPORT
 70
     1
  0
VPORT
  2
*ACTIVE
 70
     0
 10
0.0
 20
0.0
 11
1.0
 21
1.0
 12
798.504613090326643
 22
90.878981920422973
 13
0.0
 23
0.0
 14
1.0
 24
1.0
 15
0.0
 25
0.0
 16
0.0
 26
0.0
 36
17.1152628219792007
 17
3803.5440673828129547
 27
125.9952621967499056
 37
0.0
 40
28.0942439717778214
 41
2.0416666666666661
 42
50.0
 43
0.0
 44
0.0
 50
0.0
 51
0.0
 71
     0
 72
   100
 73
     1
 74
     1
 75
     0
 76
     0
 77
     0
 78
     0
  0
ENDTAB
  0
TABLE
  2
LTYPE
 70
     2
  0
LTYPE
  2
CONTINUOUS
 70
     0
  3
Solid line
 72
    65
 73
     0
 40
0.0
  0
LTYPE
  2
PHANTOM2
 70
     0
  3
___ _ _ ___ _ _ ___ _ _ ___ _ _
 72
    65
 73
     6
 40
1.25
 49
0.625
 49
-0.125
 49
0.125
 49
-0.125
 49
0.125
 49
-0.125
  0
ENDTAB
  0
TABLE
  2
LAYER
 70
     2
  0
LAYER
  2
0
 70
     0
 62
   255
  6
CONTINUOUS
  0
LAYER
  2
DEFPOINTS
 70
     0
 62
     7
  6
CONTINUOUS
  0
ENDTAB
  0
TABLE
  2
STYLE
 70
     1
  0
STYLE
  2
STANDARD
 70
     0
 40
0.0
 41
0.8
 50
0.0
 71
     0
 42
0.2
  3
txt
  4

  0
ENDTAB
  0
TABLE
  2
VIEW
 70
     0
  0
ENDTAB
  0
TABLE
  2
UCS
 70
     0
  0
ENDTAB
  0
TABLE
  2
APPID
 70
     9
  0
APPID
  2
ACAD
 70
     0
  0
APPID
  2
ACAD_MLEADERVER
 70
     0
  0
APPID
  2
ACAD_EXEMPT_FROM_CAD_STANDARDS
 70
     0
  0
APPID
  2
ACAD_NAV_VCDISPLAY
 70
     0
  0
APPID
  2
ACAECLAYERSTANDARD
 70
     0
  0
APPID
  2
ACCMTRANSPARENCY
 70
     0
  0
APPID
  2
ACAD_DSTYLE_DIMJAG
 70
     0
  0
APPID
  2
ACAD_DSTYLE_DIMTALN
 70
     0
  0
APPID
  2
ACDBATTR
 70
     0
  0
ENDTAB
  0
TABLE
  2
DIMSTYLE
 70
     1
  0
DIMSTYLE
  2
STANDARD
 70
     0
  3

  4

  5

  6

  7

 40
1.0
 41
0.1875
 42
0.0625
 43
0.38
 44
0.125
 45
0.0
 46
0.0
 47
0.01
 48
0.01
140
0.15625
141
0.09
142
0.0
143
25.3999999999999986
144
1.0
145
0.0
146
1.0
147
0.09
 71
     1
 72
     0
 73
     1
 74
     1
 75
     0
 76
     0
 77
     0
 78
     4
170
     0
171
     2
172
     0
173
     0
174
     0
175
     0
176
     0
177
     0
178
     0
  0
ENDTAB
  0
ENDSEC
  0
SECTION
  2
BLOCKS
  0
BLOCK
  8
0
  2
$MODEL_SPACE
 70
     0
 10
0.0
 20
0.0
 30
0.0
  3
$MODEL_SPACE
  1

  0
ENDBLK
  5
21
  8
0
  0
BLOCK
 67
     1
  8
0
  2
$PAPER_SPACE
 70
     0
 10
0.0
 20
0.0
 30
0.0
  3
$PAPER_SPACE
  1

  0
ENDBLK
  5
1D
 67
     1
  8
0
  0
BLOCK
  8
0
  2
_FILLED
 70
     0
 10
0.0
 20
0.0
 30
0.0
  3
_FILLED
  1

  0
SOLID
  5
C56D
  8
0
  6
BYBLOCK
 62
     0
 10
0.0
 20
0.0
 30
0.0
 11
-1.0
 21
0.1666666667
 31
0.0
 12
-1.0
 22
-0.1666666667
 32
0.0
 13
-1.0
 23
-0.1666666667
 33
0.0
  0
ENDBLK
  5
C56E
  8
0
  6
BYBLOCK
 62
     0
  0
ENDSEC
  0
SECTION
  2
ENTITIES
  0
ATTDEF
  5
3930
  8
DEFPOINTS
 10
4595.5108825050619998
 20
218.9922872498931952
 30
0.0
 40
0.001
  1
32029
  3

  2
MODELNUMBER
 70
     0
1001
ACDBATTR
1070
     0
1070
     1
  0
ATTDEF
  5
3931
  8
DEFPOINTS
 10
4595.5108825050619998
 20
218.9906205832265869
 30
0.0
 40
0.001
  1

  3

  2
TRADENAME
 70
     0
1001
ACDBATTR
1070
     0
1070
     1
  0
ATTDEF
  5
3932
  8
DEFPOINTS
 10
4595.5108825050619998
 20
218.9889539165598933
 30
0.0
 40
0.001
  1
KITCHEN SINK
  3

  2
PRODUCT
 70
     0
1001
ACDBATTR
1070
     0
1070
     1
  0
LINE
  5
FE67
  8
0
 10
4586.5170349648960837
 20
218.9883161789983035
 30
0.0
 11
4604.5170349648960837
 21
218.9883161789983035
 31
0.0
  0
LINE
  5
FE68
  8
0
 10
4586.5170349648960837
 20
218.9403161789983017
 30
0.0
 11
4604.5170349648960837
 21
218.9403161789983017
 31
0.0
  0
LINE
  5
FE69
  8
0
 10
4586.5170349648960837
 20
218.9403161789983017
 30
0.0
 11
4586.5170349648960837
 21
218.9883161789983035
 31
0.0
  0
LINE
  5
FE6A
  8
0
 10
4604.5170349648960837
 20
218.9403161789983017
 30
0.0
 11
4604.5170349648960837
 21
218.9883161789983035
 31
0.0
  0
LINE
  5
FE6B
  8
0
 10
4587.3440349648963092
 20
210.179542130735399
 30
0.0
 11
4587.3440349648963092
 21
218.8773161789983135
 31
0.0
  0
LINE
  5
FE6C
  8
0
 10
4603.6900349648958581
 20
210.179542130735399
 30
0.0
 11
4603.6900349648958581
 21
218.8773161789983135
 31
0.0
  0
ARC
  5
FE6D
  8
0
 10
4587.2810349648962074
 20
218.8773161789983135
 30
0.0
 40
0.063
 50
359.9999999999951115
 51
90.0
  0
ARC
  5
FE6E
  8
0
 10
4603.75303496489596
 20
218.8773161789983135
 30
0.0
 40
0.063
 50
90.0
 51
180.0
  0
LINE
  5
FE6F
  8
0
 10
4587.4552475580067039
 20
210.0683416507982884
 30
0.0
 11
4593.136392271096156
 21
209.8518270396982075
 31
0.0
  0
ARC
  5
FE70
  8
0
 10
4593.1351740051095476
 20
209.8198608581500935
 30
0.0
 40
0.0319893878463432
 50
37.8714307251298976
 51
87.8174517300134028
  0
ARC
  5
FE71
  8
0
 10
4532.1106165592791513
 20
165.3565848162135126
 30
0.0
 40
75.5368048726202943
 50
36.0111925395061832
 51
36.0783210101291516
  0
ARC
  5
FE72
  8
0
 10
4593.2755684502863005
 20
209.8138381516880884
 30
0.0
 40
0.0780000004046786
 50
216.0447568218033041
 51
251.9999998430023993
  0
ARC
  5
FE73
  8
0
 10
4591.4231957251740823
 20
203.4357585525575018
 30
0.0
 40
6.5636642803422811
 50
70.1733261576545431
 51
73.8266738403181364
  0
LINE
  5
FE74
  8
0
 10
4593.6494325116964319
 20
209.6103483004982877
 30
0.0
 11
4597.3846374179947816
 21
209.6103483004982877
 31
0.0
  0
LINE
  5
FE75
  8
0
 10
4597.3846374179947816
 20
209.6103483004982877
 30
0.0
 11
4597.7826048052957049
 21
209.7396557430982114
 31
0.0
  0
ARC
  5
FE76
  8
0
 10
4597.7585014798105476
 20
209.8138381511315913
 30
0.0
 40
0.0779999997505601
 50
288.0000000010074928
 51
323.9726267407634168
  0
LINE
  5
FE77
  8
0
 10
4597.821582894295716
 20
209.7679607589982993
 30
0.0
 11
4597.8732142892959018
 21
209.8389508046982996
 31
0.0
  0
ARC
  5
FE78
  8
0
 10
4597.8985213379210109
 20
209.8205408635407139
 30
0.0
 40
0.0312949299971211
 50
91.3552207826699174
 51
143.9654974052346006
  0
LINE
  5
FE79
  8
0
 10
4597.8977811859349458
 20
209.8518270396982075
 30
0.0
 11
4603.5788223720137466
 21
210.0683416507982884
 31
0.0
  0
LINE
  5
FE7A
  8
0
 10
4593.136392271096156
 20
209.8518270396982075
 30
0.0
 11
4597.8977811859349458
 21
209.8518270396982075
 31
0.0
  0
LINE
  5
FE7C
  8
0
 10
4603.5788349648946678
 20
210.0683416507982884
 30
0.0
 11
4587.4552349648947711
 21
210.0683416507982884
 31
0.0
  0
ARC
  5
FE7D
  8
0
 10
4603.5788349648946678
 20
210.1795416507983134
 30
0.0
 40
0.1112
 50
270.0
 51
0.0000000000016284
  0
ARC
  5
FE7E
  8
0
 10
4587.4552349648947711
 20
210.1795416507983134
 30
0.0
 40
0.1112
 50
180.0000000000015916
 51
270.0
  0
ENDSEC
  0
EOF
