  0
SECTION
  2
HEADER
  9
$ACADVER
  1
AC1009
  9
$INSBASE
 10
4675.3650680123655548
 20
219.4381758310510975
 30
0.0
  9
$EXTMIN
 10
4666.2150680123659185
 20
213.6502079525511135
 30
0.0
  9
$EXTMAX
 10
4684.5150680123670099
 20
219.4492962974300951
 30
0.0
  9
$LIMMIN
 10
0.0
 20
0.0
  9
$LIMMAX
 10
11.6929133858000007
 20
8.2677165353999982
  9
$ORTHOMODE
 70
     0
  9
$REGENMODE
 70
     1
  9
$FILLMODE
 70
     1
  9
$QTEXTMODE
 70
     0
  9
$MIRRTEXT
 70
     0
  9
$DRAGMODE
 70
     2
  9
$LTSCALE
 40
0.6431102362
  9
$OSMODE
 70
  4095
  9
$ATTMODE
 70
     1
  9
$TEXTSIZE
 40
0.2
  9
$TRACEWID
 40
0.05
  9
$TEXTSTYLE
  7
STANDARD
  9
$CLAYER
  8
0
  9
$CELTYPE
  6
BYLAYER
  9
$CECOLOR
 62
   256
  9
$DIMSCALE
 40
1.0
  9
$DIMASZ
 40
0.1875
  9
$DIMEXO
 40
0.0625
  9
$DIMDLI
 40
0.4443307087
  9
$DIMRND
 40
0.0
  9
$DIMDLE
 40
0.0
  9
$DIMEXE
 40
0.125
  9
$DIMTP
 40
0.01
  9
$DIMTM
 40
0.01
  9
$DIMTXT
 40
2.0
  9
$DIMCEN
 40
0.1052362205
  9
$DIMTSZ
 40
0.0
  9
$DIMTOL
 70
     1
  9
$DIMLIM
 70
     0
  9
$DIMTIH
 70
     1
  9
$DIMTOH
 70
     1
  9
$DIMSE1
 70
     0
  9
$DIMSE2
 70
     0
  9
$DIMTAD
 70
     0
  9
$DIMZIN
 70
     0
  9
$DIMBLK
  1

  9
$DIMASO
 70
     1
  9
$DIMSHO
 70
     1
  9
$DIMPOST
  1
\X
  9
$DIMAPOST
  1

  9
$DIMALT
 70
     1
  9
$DIMALTD
 70
     2
  9
$DIMALTF
 40
25.3999999999999986
  9
$DIMLFAC
 40
1.0
  9
$DIMTOFL
 70
     0
  9
$DIMTVP
 40
0.0
  9
$DIMTIX
 70
     0
  9
$DIMSOXD
 70
     0
  9
$DIMSAH
 70
     0
  9
$DIMBLK1
  1

  9
$DIMBLK2
  1

  9
$DIMSTYLE
  2
STANDARD
  9
$DIMCLRD
 70
     0
  9
$DIMCLRE
 70
     0
  9
$DIMCLRT
 70
     0
  9
$DIMTFAC
 40
1.0
  9
$DIMGAP
 40
0.09
  9
$LUNITS
 70
     2
  9
$LUPREC
 70
     4
  9
$SKETCHINC
 40
0.1
  9
$FILLETRAD
 40
0.0
  9
$AUNITS
 70
     0
  9
$AUPREC
 70
     0
  9
$MENU
  1
.
  9
$ELEVATION
 40
0.0
  9
$PELEVATION
 40
0.0
  9
$THICKNESS
 40
0.0
  9
$LIMCHECK
 70
     0
  9
$BLIPMODE
 70
     0
  9
$CHAMFERA
 40
0.0
  9
$CHAMFERB
 40
0.0
  9
$SKPOLY
 70
     0
  9
$TDCREATE
 40
2458060.468368056230247
  9
$TDUPDATE
 40
2459760.694479166995734
  9
$TDINDWG
 40
0.4882940972
  9
$TDUSRTIMER
 40
0.4882940972
  9
$USRTIMER
 70
     1
  9
$ANGBASE
 50
0.0
  9
$ANGDIR
 70
     0
  9
$PDMODE
 70
     0
  9
$PDSIZE
 40
0.3125
  9
$PLINEWID
 40
0.0
  9
$COORDS
 70
     1
  9
$SPLFRAME
 70
     0
  9
$SPLINETYPE
 70
     6
  9
$SPLINESEGS
 70
     8
  9
$ATTDIA
 70
     1
  9
$ATTREQ
 70
     1
  9
$HANDLING
 70
     1
  9
$HANDSEED
  5
FCD5
  9
$SURFTAB1
 70
     6
  9
$SURFTAB2
 70
     6
  9
$SURFTYPE
 70
     6
  9
$SURFU
 70
     6
  9
$SURFV
 70
     6
  9
$UCSNAME
  2

  9
$UCSORG
 10
0.0
 20
0.0
 30
0.0
  9
$UCSXDIR
 10
1.0
 20
0.0
 30
0.0
  9
$UCSYDIR
 10
0.0
 20
1.0
 30
0.0
  9
$PUCSNAME
  2

  9
$PUCSORG
 10
0.0
 20
0.0
 30
0.0
  9
$PUCSXDIR
 10
1.0
 20
0.0
 30
0.0
  9
$PUCSYDIR
 10
0.0
 20
1.0
 30
0.0
  9
$USERI1
 70
     0
  9
$USERI2
 70
     0
  9
$USERI3
 70
     0
  9
$USERI4
 70
     0
  9
$USERI5
 70
     0
  9
$USERR1
 40
0.0
  9
$USERR2
 40
0.0
  9
$USERR3
 40
0.0
  9
$USERR4
 40
0.0
  9
$USERR5
 40
0.0
  9
$WORLDVIEW
 70
     1
  9
$SHADEDGE
 70
     3
  9
$SHADEDIF
 70
    70
  9
$TILEMODE
 70
     1
  9
$MAXACTVP
 70
    64
  9
$PLIMCHECK
 70
     0
  9
$PEXTMIN
 10
1.0000000000000000E+20
 20
1.0000000000000000E+20
 30
1.0000000000000000E+20
  9
$PEXTMAX
 10
-1.0000000000000000E+20
 20
-1.0000000000000000E+20
 30
-1.0000000000000000E+20
  9
$PLIMMIN
 10
0.0
 20
0.0
  9
$PLIMMAX
 10
12.0
 20
9.0
  9
$UNITMODE
 70
     0
  9
$VISRETAIN
 70
     1
  9
$PLINEGEN
 70
     0
  9
$PSLTSCALE
 70
     1
  0
ENDSEC
  0
SECTION
  2
TABLES
  0
TABLE
  2
VPORT
 70
     1
  0
VPORT
  2
*ACTIVE
 70
     0
 10
0.0
 20
0.0
 11
1.0
 21
1.0
 12
911.709650057393219
 22
81.2095735724687557
 13
0.0
 23
0.0
 14
1.0
 24
1.0
 15
0.0
 25
0.0
 16
0.0
 26
0.0
 36
17.1152628219792007
 17
3803.5440673828129547
 27
125.9952621967499056
 37
0.0
 40
140.7644136253225042
 41
2.0416666666666661
 42
50.0
 43
0.0
 44
0.0
 50
0.0
 51
0.0
 71
     0
 72
   100
 73
     1
 74
     1
 75
     0
 76
     0
 77
     0
 78
     0
  0
ENDTAB
  0
TABLE
  2
LTYPE
 70
     2
  0
LTYPE
  2
CONTINUOUS
 70
     0
  3
Solid line
 72
    65
 73
     0
 40
0.0
  0
LTYPE
  2
PHANTOM2
 70
     0
  3
___ _ _ ___ _ _ ___ _ _ ___ _ _
 72
    65
 73
     6
 40
1.25
 49
0.625
 49
-0.125
 49
0.125
 49
-0.125
 49
0.125
 49
-0.125
  0
ENDTAB
  0
TABLE
  2
LAYER
 70
     2
  0
LAYER
  2
0
 70
     0
 62
   255
  6
CONTINUOUS
  0
LAYER
  2
DEFPOINTS
 70
     0
 62
     7
  6
CONTINUOUS
  0
ENDTAB
  0
TABLE
  2
STYLE
 70
     1
  0
STYLE
  2
STANDARD
 70
     0
 40
0.0
 41
0.8
 50
0.0
 71
     0
 42
0.2
  3
txt
  4

  0
ENDTAB
  0
TABLE
  2
VIEW
 70
     0
  0
ENDTAB
  0
TABLE
  2
UCS
 70
     0
  0
ENDTAB
  0
TABLE
  2
APPID
 70
     9
  0
APPID
  2
ACAD
 70
     0
  0
APPID
  2
ACAD_MLEADERVER
 70
     0
  0
APPID
  2
ACAD_EXEMPT_FROM_CAD_STANDARDS
 70
     0
  0
APPID
  2
ACAD_NAV_VCDISPLAY
 70
     0
  0
APPID
  2
ACAECLAYERSTANDARD
 70
     0
  0
APPID
  2
ACCMTRANSPARENCY
 70
     0
  0
APPID
  2
ACAD_DSTYLE_DIMJAG
 70
     0
  0
APPID
  2
ACAD_DSTYLE_DIMTALN
 70
     0
  0
APPID
  2
ACDBATTR
 70
     0
  0
ENDTAB
  0
TABLE
  2
DIMSTYLE
 70
     1
  0
DIMSTYLE
  2
STANDARD
 70
     0
  3

  4

  5

  6

  7

 40
1.0
 41
0.1875
 42
0.0625
 43
0.38
 44
0.125
 45
0.0
 46
0.0
 47
0.01
 48
0.01
140
0.15625
141
0.09
142
0.0
143
25.3999999999999986
144
1.0
145
0.0
146
1.0
147
0.09
 71
     1
 72
     0
 73
     1
 74
     1
 75
     0
 76
     0
 77
     0
 78
     4
170
     0
171
     2
172
     0
173
     0
174
     0
175
     0
176
     0
177
     0
178
     0
  0
ENDTAB
  0
ENDSEC
  0
SECTION
  2
BLOCKS
  0
BLOCK
  8
0
  2
$MODEL_SPACE
 70
     0
 10
0.0
 20
0.0
 30
0.0
  3
$MODEL_SPACE
  1

  0
ENDBLK
  5
21
  8
0
  0
BLOCK
 67
     1
  8
0
  2
$PAPER_SPACE
 70
     0
 10
0.0
 20
0.0
 30
0.0
  3
$PAPER_SPACE
  1

  0
ENDBLK
  5
1D
 67
     1
  8
0
  0
ENDSEC
  0
SECTION
  2
ENTITIES
  0
ATTDEF
  5
3930
  8
DEFPOINTS
 10
4675.348560825509594
 20
219.4482962974300051
 30
0.0
 40
0.001
  1
32026
  3

  2
MODELNUMBER
 70
     0
1001
ACDBATTR
1070
     0
1070
     1
  0
ATTDEF
  5
3931
  8
DEFPOINTS
 10
4675.348560825509594
 20
219.4466296307633115
 30
0.0
 40
0.001
  1

  3

  2
TRADENAME
 70
     0
1001
ACDBATTR
1070
     0
1070
     1
  0
ATTDEF
  5
3932
  8
DEFPOINTS
 10
4675.348560825509594
 20
219.4449629640967032
 30
0.0
 40
0.001
  1
KITCHEN SINK
  3

  2
PRODUCT
 70
     0
1001
ACDBATTR
1070
     0
1070
     1
  0
LINE
  5
FB2E
  8
0
 10
4667.1530680123669299
 20
214.1991683354011116
 30
0.0
 11
4683.5770680123669081
 21
214.1991683354011116
 31
0.0
  0
ARC
  5
FB2F
  8
0
 10
4667.1530680123669299
 20
214.3101683354011016
 30
0.0
 40
0.111
 50
180.0
 51
270.0
  0
LINE
  5
FB30
  8
0
 10
4666.2150680123659185
 20
219.4381758310510975
 30
0.0
 11
4684.5150680123670099
 21
219.4381758310510975
 31
0.0
  0
LINE
  5
FB31
  8
0
 10
4666.2150680123659185
 20
219.3901758310510957
 30
0.0
 11
4684.5150680123670099
 21
219.3901758310510957
 31
0.0
  0
ARC
  5
FB32
  8
0
 10
4683.7510680123668863
 20
219.3271758310511075
 30
0.0
 40
0.063
 50
90.0
 51
180.0
  0
LINE
  5
FB33
  8
0
 10
4666.2150680123659185
 20
219.4381758310510975
 30
0.0
 11
4666.2150680123659185
 21
219.3901758310510957
 31
0.0
  0
ARC
  5
FB34
  8
0
 10
4666.9790680123660422
 20
219.3271758310511075
 30
0.0
 40
0.0630000000000077
 50
0.0000000000065138
 51
90.0
  0
LINE
  5
FB35
  8
0
 10
4667.0420680123661441
 20
219.3271758310511075
 30
0.0
 11
4667.0420680123661441
 21
214.3101683354011016
 31
0.0
  0
LINE
  5
FB36
  8
0
 10
4684.5150680123670099
 20
219.4381758310510975
 30
0.0
 11
4684.5150680123670099
 21
219.3901758310510957
 31
0.0
  0
LINE
  5
FB37
  8
0
 10
4683.6880680123667844
 20
219.3271758310511075
 30
0.0
 11
4683.6880680123667844
 21
214.3101683354011016
 31
0.0
  0
ARC
  5
FB38
  8
0
 10
4683.5770680123669081
 20
214.3101683354011016
 30
0.0
 40
0.111
 50
270.0
 51
0.0
  0
LINE
  5
FB39
  8
0
 10
4667.1420851773673348
 20
214.199741595551103
 30
0.0
 11
4675.8453801257137457
 21
213.9020609543455009
 31
0.0
  0
LINE
  5
FB3A
  8
0
 10
4683.5770680123669081
 20
214.1991683354011116
 30
0.0
 11
4680.5872144618988386
 21
213.9019098028666974
 31
0.0
  0
ARC
  5
FB3B
  8
0
 10
4680.5917239759355652
 20
213.877930138916696
 30
0.0
 40
0.024400000000034
 50
100.6504136778191025
 51
143.9726265858973022
  0
LINE
  5
FB3C
  8
0
 10
4675.86427921552513
 20
213.8920266035569
 30
0.0
 11
4675.9255200829002206
 21
213.8078204110051104
 31
0.0
  0
ARC
  5
FB3D
  8
0
 10
4675.8445460550738062
 20
213.8776752141235988
 30
0.0
 40
0.0244
 50
36.0273734140470268
 51
88.0410639685522796
  0
LINE
  5
FB3E
  8
0
 10
4675.9644981718820418
 20
213.7795153951873885
 30
0.0
 11
4676.3624655591647752
 21
213.6502079525511135
 31
0.0
  0
ARC
  5
FB3F
  8
0
 10
4675.9886014974517821
 20
213.8536978034557023
 30
0.0
 40
0.078
 50
216.0273734140469912
 51
251.9999999935139101
  0
LINE
  5
FB40
  8
0
 10
4676.3624655591647752
 20
213.6502079525511135
 30
0.0
 11
4680.0736190719962906
 21
213.6502079525511135
 31
0.0
  0
LINE
  5
FB41
  8
0
 10
4675.9644981719948191
 20
213.779515395151094
 30
0.0
 11
4680.4715864591671561
 21
213.779515395151094
 31
0.0
  0
LINE
  5
FB42
  8
0
 10
4675.8497993445671455
 20
213.9019098028666974
 30
0.0
 11
4680.5872144618988386
 21
213.9019098028666974
 31
0.0
  0
LINE
  5
FB43
  8
0
 10
4680.5719908154860605
 20
213.8922815283499972
 30
0.0
 11
4680.5105645482617547
 21
213.8078204110051104
 31
0.0
  0
LINE
  5
FB44
  8
0
 10
4680.4715864592781145
 20
213.7795153951873885
 30
0.0
 11
4680.0736190719962906
 21
213.6502079525511135
 31
0.0
  0
ARC
  5
FB45
  8
0
 10
4680.4474831337092837
 20
213.8536978034557023
 30
0.0
 40
0.078
 50
288.0000000064861183
 51
323.9726265859529803
  0
ENDSEC
  0
EOF
