  0
SECTION
  2
HEADER
  9
$ACADVER
  1
AC1009
  9
$INSBASE
 10
3982.8695764898097877
 20
219.3408635249786869
 30
0.0
  9
$EXTMIN
 10
3973.7195764898087873
 20
213.6028956465787019
 30
0.0
  9
$EXTMAX
 10
3992.0195764898098787
 20
219.3474620724799138
 30
0.0
  9
$LIMMIN
 10
0.0
 20
0.0
  9
$LIMMAX
 10
11.6929133858000007
 20
8.2677165353999982
  9
$ORTHOMODE
 70
     0
  9
$REGENMODE
 70
     1
  9
$FILLMODE
 70
     1
  9
$QTEXTMODE
 70
     0
  9
$MIRRTEXT
 70
     0
  9
$DRAGMODE
 70
     2
  9
$LTSCALE
 40
0.6431102362
  9
$OSMODE
 70
  4095
  9
$ATTMODE
 70
     1
  9
$TEXTSIZE
 40
0.2
  9
$TRACEWID
 40
0.05
  9
$TEXTSTYLE
  7
STANDARD
  9
$CLAYER
  8
0
  9
$CELTYPE
  6
BYLAYER
  9
$CECOLOR
 62
   256
  9
$DIMSCALE
 40
1.0
  9
$DIMASZ
 40
0.1875
  9
$DIMEXO
 40
0.0625
  9
$DIMDLI
 40
0.4443307087
  9
$DIMRND
 40
0.0
  9
$DIMDLE
 40
0.0
  9
$DIMEXE
 40
0.125
  9
$DIMTP
 40
0.01
  9
$DIMTM
 40
0.01
  9
$DIMTXT
 40
2.0
  9
$DIMCEN
 40
0.1052362205
  9
$DIMTSZ
 40
0.0
  9
$DIMTOL
 70
     1
  9
$DIMLIM
 70
     0
  9
$DIMTIH
 70
     1
  9
$DIMTOH
 70
     1
  9
$DIMSE1
 70
     0
  9
$DIMSE2
 70
     0
  9
$DIMTAD
 70
     0
  9
$DIMZIN
 70
     0
  9
$DIMBLK
  1

  9
$DIMASO
 70
     1
  9
$DIMSHO
 70
     1
  9
$DIMPOST
  1
\X
  9
$DIMAPOST
  1

  9
$DIMALT
 70
     1
  9
$DIMALTD
 70
     2
  9
$DIMALTF
 40
25.3999999999999986
  9
$DIMLFAC
 40
1.0
  9
$DIMTOFL
 70
     0
  9
$DIMTVP
 40
0.0
  9
$DIMTIX
 70
     0
  9
$DIMSOXD
 70
     0
  9
$DIMSAH
 70
     0
  9
$DIMBLK1
  1

  9
$DIMBLK2
  1

  9
$DIMSTYLE
  2
STANDARD
  9
$DIMCLRD
 70
     0
  9
$DIMCLRE
 70
     0
  9
$DIMCLRT
 70
     0
  9
$DIMTFAC
 40
1.0
  9
$DIMGAP
 40
0.09
  9
$LUNITS
 70
     2
  9
$LUPREC
 70
     4
  9
$SKETCHINC
 40
0.1
  9
$FILLETRAD
 40
0.0
  9
$AUNITS
 70
     0
  9
$AUPREC
 70
     0
  9
$MENU
  1
.
  9
$ELEVATION
 40
0.0
  9
$PELEVATION
 40
0.0
  9
$THICKNESS
 40
0.0
  9
$LIMCHECK
 70
     0
  9
$BLIPMODE
 70
     0
  9
$CHAMFERA
 40
0.0
  9
$CHAMFERB
 40
0.0
  9
$SKPOLY
 70
     0
  9
$TDCREATE
 40
2458060.468368056230247
  9
$TDUPDATE
 40
2459851.7607638891786337
  9
$TDINDWG
 40
0.4557709491
  9
$TDUSRTIMER
 40
0.4557709491
  9
$USRTIMER
 70
     1
  9
$ANGBASE
 50
0.0
  9
$ANGDIR
 70
     0
  9
$PDMODE
 70
     0
  9
$PDSIZE
 40
0.3125
  9
$PLINEWID
 40
0.0
  9
$COORDS
 70
     1
  9
$SPLFRAME
 70
     0
  9
$SPLINETYPE
 70
     6
  9
$SPLINESEGS
 70
     8
  9
$ATTDIA
 70
     1
  9
$ATTREQ
 70
     1
  9
$HANDLING
 70
     1
  9
$HANDSEED
  5
9334
  9
$SURFTAB1
 70
     6
  9
$SURFTAB2
 70
     6
  9
$SURFTYPE
 70
     6
  9
$SURFU
 70
     6
  9
$SURFV
 70
     6
  9
$UCSNAME
  2

  9
$UCSORG
 10
0.0
 20
0.0
 30
0.0
  9
$UCSXDIR
 10
1.0
 20
0.0
 30
0.0
  9
$UCSYDIR
 10
0.0
 20
1.0
 30
0.0
  9
$PUCSNAME
  2

  9
$PUCSORG
 10
0.0
 20
0.0
 30
0.0
  9
$PUCSXDIR
 10
1.0
 20
0.0
 30
0.0
  9
$PUCSYDIR
 10
0.0
 20
1.0
 30
0.0
  9
$USERI1
 70
     0
  9
$USERI2
 70
     0
  9
$USERI3
 70
     0
  9
$USERI4
 70
     0
  9
$USERI5
 70
     0
  9
$USERR1
 40
0.0
  9
$USERR2
 40
0.0
  9
$USERR3
 40
0.0
  9
$USERR4
 40
0.0
  9
$USERR5
 40
0.0
  9
$WORLDVIEW
 70
     1
  9
$SHADEDGE
 70
     3
  9
$SHADEDIF
 70
    70
  9
$TILEMODE
 70
     1
  9
$MAXACTVP
 70
    64
  9
$PLIMCHECK
 70
     0
  9
$PEXTMIN
 10
1.0000000000000000E+20
 20
1.0000000000000000E+20
 30
1.0000000000000000E+20
  9
$PEXTMAX
 10
-1.0000000000000000E+20
 20
-1.0000000000000000E+20
 30
-1.0000000000000000E+20
  9
$PLIMMIN
 10
0.0
 20
0.0
  9
$PLIMMAX
 10
12.0
 20
9.0
  9
$UNITMODE
 70
     0
  9
$VISRETAIN
 70
     1
  9
$PLINEGEN
 70
     0
  9
$PSLTSCALE
 70
     1
  0
ENDSEC
  0
SECTION
  2
TABLES
  0
TABLE
  2
VPORT
 70
     1
  0
VPORT
  2
*ACTIVE
 70
     0
 10
0.0
 20
0.0
 11
1.0
 21
1.0
 12
893.1190927679873539
 22
19.5446559879402706
 13
0.0
 23
0.0
 14
1.0
 24
1.0
 15
0.0
 25
0.0
 16
0.0
 26
0.0
 36
95.5902297660485658
 17
3089.811279296875
 27
197.161570589386713
 37
0.0
 40
9.0720441850450513
 41
1.614795918367347
 42
50.0
 43
0.0
 44
0.0
 50
0.0
 51
0.0
 71
     0
 72
   100
 73
     1
 74
     1
 75
     0
 76
     0
 77
     0
 78
     0
  0
ENDTAB
  0
TABLE
  2
LTYPE
 70
     2
  0
LTYPE
  2
CONTINUOUS
 70
     0
  3
Solid line
 72
    65
 73
     0
 40
0.0
  0
LTYPE
  2
PHANTOM2
 70
     0
  3
___ _ _ ___ _ _ ___ _ _ ___ _ _
 72
    65
 73
     6
 40
1.25
 49
0.625
 49
-0.125
 49
0.125
 49
-0.125
 49
0.125
 49
-0.125
  0
ENDTAB
  0
TABLE
  2
LAYER
 70
     2
  0
LAYER
  2
0
 70
     0
 62
   255
  6
CONTINUOUS
  0
LAYER
  2
DEFPOINTS
 70
     0
 62
     7
  6
CONTINUOUS
  0
ENDTAB
  0
TABLE
  2
STYLE
 70
     1
  0
STYLE
  2
STANDARD
 70
     0
 40
0.0
 41
0.8
 50
0.0
 71
     0
 42
0.2
  3
txt
  4

  0
ENDTAB
  0
TABLE
  2
VIEW
 70
     0
  0
ENDTAB
  0
TABLE
  2
UCS
 70
     0
  0
ENDTAB
  0
TABLE
  2
APPID
 70
     9
  0
APPID
  2
ACAD
 70
     0
  0
APPID
  2
ACAD_MLEADERVER
 70
     0
  0
APPID
  2
ACAD_EXEMPT_FROM_CAD_STANDARDS
 70
     0
  0
APPID
  2
ACAD_NAV_VCDISPLAY
 70
     0
  0
APPID
  2
ACAECLAYERSTANDARD
 70
     0
  0
APPID
  2
ACCMTRANSPARENCY
 70
     0
  0
APPID
  2
ACAD_DSTYLE_DIMJAG
 70
     0
  0
APPID
  2
ACAD_DSTYLE_DIMTALN
 70
     0
  0
APPID
  2
ACDBATTR
 70
     0
  0
ENDTAB
  0
TABLE
  2
DIMSTYLE
 70
     1
  0
DIMSTYLE
  2
STANDARD
 70
     0
  3

  4

  5

  6

  7

 40
1.0
 41
0.1875
 42
0.0625
 43
0.38
 44
0.125
 45
0.0
 46
0.0
 47
0.01
 48
0.01
140
0.15625
141
0.09
142
0.0
143
25.3999999999999986
144
1.0
145
0.0
146
1.0
147
0.09
 71
     1
 72
     0
 73
     1
 74
     1
 75
     0
 76
     0
 77
     0
 78
     4
170
     0
171
     2
172
     0
173
     0
174
     0
175
     0
176
     0
177
     0
178
     0
  0
ENDTAB
  0
ENDSEC
  0
SECTION
  2
BLOCKS
  0
BLOCK
  8
0
  2
$MODEL_SPACE
 70
     0
 10
0.0
 20
0.0
 30
0.0
  3
$MODEL_SPACE
  1

  0
ENDBLK
  5
21
  8
0
  0
BLOCK
 67
     1
  8
0
  2
$PAPER_SPACE
 70
     0
 10
0.0
 20
0.0
 30
0.0
  3
$PAPER_SPACE
  1

  0
ENDBLK
  5
1D
 67
     1
  8
0
  0
ENDSEC
  0
SECTION
  2
ENTITIES
  0
ATTDEF
  5
3930
  8
DEFPOINTS
 10
3982.8639531891449224
 20
219.346462072479909
 30
0.0
 40
0.001
  1
32025
  3

  2
MODELNUMBER
 70
     0
1001
ACDBATTR
1070
     0
1070
     1
  0
ATTDEF
  5
3931
  8
DEFPOINTS
 10
3982.8639531891449224
 20
219.344795405813187
 30
0.0
 40
0.001
  1
LUDINGTON
  3

  2
TRADENAME
 70
     0
1001
ACDBATTR
1070
     0
1070
     1
  0
ATTDEF
  5
3932
  8
DEFPOINTS
 10
3982.8639531891449224
 20
219.3431287391464934
 30
0.0
 40
0.001
  1
KITCHEN SINK
  3

  2
PRODUCT
 70
     0
1001
ACDBATTR
1070
     0
1070
     1
  0
LINE
  5
91D1
  8
0
 10
3973.7195764898087873
 20
219.3408635249786869
 30
0.0
 11
3992.0195764898098787
 21
219.3408635249786869
 31
0.0
  0
LINE
  5
91D2
  8
0
 10
3973.7195764898087873
 20
219.2928635249787135
 30
0.0
 11
3992.0195764898098787
 21
219.2928635249787135
 31
0.0
  0
LINE
  5
91D3
  8
0
 10
3974.5465764898090129
 20
219.2328635249787112
 30
0.0
 11
3974.5465764898090129
 21
214.2106361447426934
 31
0.0
  0
LINE
  5
91D4
  8
0
 10
3973.7195764898087873
 20
219.3408635249786869
 30
0.0
 11
3973.7195764898087873
 21
219.2928635249787135
 31
0.0
  0
LINE
  5
91D5
  8
0
 10
3992.0195764898098787
 20
219.3408635249786869
 30
0.0
 11
3992.0195764898098787
 21
219.2928635249787135
 31
0.0
  0
ARC
  5
91D6
  8
0
 10
3974.4865764898090674
 20
219.2328635249787112
 30
0.0
 40
0.06
 50
0.0
 51
90.0
  0
LINE
  5
91D7
  8
0
 10
3983.8669740367590748
 20
213.6028956465787019
 30
0.0
 11
3987.602178942959199
 21
213.6028956465787019
 31
0.0
  0
LINE
  5
91D8
  8
0
 10
3983.8669740367590748
 20
213.6028956465787019
 30
0.0
 11
3983.4690066494440543
 21
213.7322030890510121
 31
0.0
  0
LINE
  5
91D9
  8
0
 10
3983.430028560404935
 20
213.7605081049154023
 30
0.0
 11
3983.3781861414190644
 21
213.8317914310337073
 31
0.0
  0
ARC
  5
91DA
  8
0
 10
3983.4931099749851455
 20
213.8063854973287903
 30
0.0
 40
0.078
 50
216.0273733803188065
 51
252.0000000162268066
  0
ARC
  5
91DB
  8
0
 10
3983.3523065866170327
 20
213.8129699365605916
 30
0.0
 40
0.032
 50
36.027373488360098
 51
86.9873136232587143
  0
ARC
  5
91DC
  8
0
 10
3974.6575764898038869
 20
214.2106361447399934
 30
0.0
 40
0.111
 50
179.9999999985653005
 51
266.9881452277062976
  0
LINE
  5
91DD
  8
0
 10
3987.602178942959199
 20
213.6028956465787019
 30
0.0
 11
3988.0001463302742195
 21
213.7322030890510121
 31
0.0
  0
LINE
  5
91DE
  8
0
 10
3988.0391244193128841
 20
213.7605081049154023
 30
0.0
 11
3988.0909668382992095
 21
213.8317914310337073
 31
0.0
  0
ARC
  5
91DF
  8
0
 10
3987.9760430047340378
 20
213.8063854973287903
 30
0.0
 40
0.078
 50
287.9999999837731934
 51
323.9726266196811935
  0
ARC
  5
91E0
  8
0
 10
3988.1168463931007864
 20
213.8129699365605916
 30
0.0
 40
0.032
 50
93.0126863767413141
 51
143.972626511639902
  0
LINE
  5
91E1
  8
0
 10
3983.3539884128749691
 20
213.844925710067713
 30
0.0
 11
3988.1144733450091735
 21
213.844925710067713
 31
0.0
  0
LINE
  5
91E2
  8
0
 10
3988.0001463302742195
 20
213.7322030890510121
 30
0.0
 11
3983.4690066494440543
 21
213.7322030890510121
 31
0.0
  0
LINE
  5
91E3
  8
0
 10
3983.3539884128749691
 20
213.844925710067713
 30
0.0
 11
3974.6517442638260036
 21
214.0997894707251135
 31
0.0
  0
LINE
  5
91E4
  8
0
 10
3991.1925764898101079
 20
219.2328635249787112
 30
0.0
 11
3991.1925764898101079
 21
214.2087729677710115
 31
0.0
  0
LINE
  5
91E5
  8
0
 10
3991.0909443250789082
 20
214.0981689729860875
 30
0.0
 11
3988.1151645668442143
 21
213.844925710067713
 31
0.0
  0
ARC
  5
91E6
  8
0
 10
3991.2525764898091438
 20
219.2328635249787112
 30
0.0
 40
0.06
 50
90.0
 51
179.9999999999951115
  0
ARC
  5
91E7
  8
0
 10
3991.0815764898088673
 20
214.2087729677710115
 30
0.0
 40
0.111
 50
274.8412308749557837
 51
0.0000000000016284
  0
LINE
  5
91E8
  8
0
 10
3991.1026382411910163
 20
214.0997894707234082
 30
0.0
 11
3974.6517442638592001
 21
214.0997894707234082
 31
0.0
  0
ENDSEC
  0
EOF
