  0
SECTION
  2
HEADER
  9
$ACADVER
  1
AC1009
  9
$INSBASE
 10
3956.2438274214468947
 20
218.4354318654494875
 30
0.0
  9
$EXTMIN
 10
3944.243827421395963
 20
212.6974639870495025
 30
0.0
  9
$EXTMAX
 10
3968.2438274214969169
 20
218.440811378670503
 30
0.0
  9
$LIMMIN
 10
0.0
 20
0.0
  9
$LIMMAX
 10
11.6929133858000007
 20
8.2677165353999982
  9
$ORTHOMODE
 70
     0
  9
$REGENMODE
 70
     1
  9
$FILLMODE
 70
     1
  9
$QTEXTMODE
 70
     0
  9
$MIRRTEXT
 70
     0
  9
$DRAGMODE
 70
     2
  9
$LTSCALE
 40
0.6431102362
  9
$OSMODE
 70
  4095
  9
$ATTMODE
 70
     1
  9
$TEXTSIZE
 40
0.2
  9
$TRACEWID
 40
0.05
  9
$TEXTSTYLE
  7
STANDARD
  9
$CLAYER
  8
0
  9
$CELTYPE
  6
BYLAYER
  9
$CECOLOR
 62
   256
  9
$DIMSCALE
 40
1.0
  9
$DIMASZ
 40
0.1875
  9
$DIMEXO
 40
0.0625
  9
$DIMDLI
 40
0.4443307087
  9
$DIMRND
 40
0.0
  9
$DIMDLE
 40
0.0
  9
$DIMEXE
 40
0.125
  9
$DIMTP
 40
0.01
  9
$DIMTM
 40
0.01
  9
$DIMTXT
 40
2.0
  9
$DIMCEN
 40
0.1052362205
  9
$DIMTSZ
 40
0.0
  9
$DIMTOL
 70
     1
  9
$DIMLIM
 70
     0
  9
$DIMTIH
 70
     1
  9
$DIMTOH
 70
     1
  9
$DIMSE1
 70
     0
  9
$DIMSE2
 70
     0
  9
$DIMTAD
 70
     0
  9
$DIMZIN
 70
     0
  9
$DIMBLK
  1

  9
$DIMASO
 70
     1
  9
$DIMSHO
 70
     1
  9
$DIMPOST
  1
\X
  9
$DIMAPOST
  1

  9
$DIMALT
 70
     1
  9
$DIMALTD
 70
     2
  9
$DIMALTF
 40
25.3999999999999986
  9
$DIMLFAC
 40
1.0
  9
$DIMTOFL
 70
     0
  9
$DIMTVP
 40
0.0
  9
$DIMTIX
 70
     0
  9
$DIMSOXD
 70
     0
  9
$DIMSAH
 70
     0
  9
$DIMBLK1
  1

  9
$DIMBLK2
  1

  9
$DIMSTYLE
  2
STANDARD
  9
$DIMCLRD
 70
     0
  9
$DIMCLRE
 70
     0
  9
$DIMCLRT
 70
     0
  9
$DIMTFAC
 40
1.0
  9
$DIMGAP
 40
0.09
  9
$LUNITS
 70
     2
  9
$LUPREC
 70
     4
  9
$SKETCHINC
 40
0.1
  9
$FILLETRAD
 40
0.0
  9
$AUNITS
 70
     0
  9
$AUPREC
 70
     0
  9
$MENU
  1
.
  9
$ELEVATION
 40
0.0
  9
$PELEVATION
 40
0.0
  9
$THICKNESS
 40
0.0
  9
$LIMCHECK
 70
     0
  9
$BLIPMODE
 70
     0
  9
$CHAMFERA
 40
0.0
  9
$CHAMFERB
 40
0.0
  9
$SKPOLY
 70
     0
  9
$TDCREATE
 40
2458060.468368056230247
  9
$TDUPDATE
 40
2459851.7606134261004627
  9
$TDINDWG
 40
0.4558866898
  9
$TDUSRTIMER
 40
0.4558866898
  9
$USRTIMER
 70
     1
  9
$ANGBASE
 50
0.0
  9
$ANGDIR
 70
     0
  9
$PDMODE
 70
     0
  9
$PDSIZE
 40
0.3125
  9
$PLINEWID
 40
0.0
  9
$COORDS
 70
     1
  9
$SPLFRAME
 70
     0
  9
$SPLINETYPE
 70
     6
  9
$SPLINESEGS
 70
     8
  9
$ATTDIA
 70
     1
  9
$ATTREQ
 70
     1
  9
$HANDLING
 70
     1
  9
$HANDSEED
  5
9275
  9
$SURFTAB1
 70
     6
  9
$SURFTAB2
 70
     6
  9
$SURFTYPE
 70
     6
  9
$SURFU
 70
     6
  9
$SURFV
 70
     6
  9
$UCSNAME
  2

  9
$UCSORG
 10
0.0
 20
0.0
 30
0.0
  9
$UCSXDIR
 10
1.0
 20
0.0
 30
0.0
  9
$UCSYDIR
 10
0.0
 20
1.0
 30
0.0
  9
$PUCSNAME
  2

  9
$PUCSORG
 10
0.0
 20
0.0
 30
0.0
  9
$PUCSXDIR
 10
1.0
 20
0.0
 30
0.0
  9
$PUCSYDIR
 10
0.0
 20
1.0
 30
0.0
  9
$USERI1
 70
     0
  9
$USERI2
 70
     0
  9
$USERI3
 70
     0
  9
$USERI4
 70
     0
  9
$USERI5
 70
     0
  9
$USERR1
 40
0.0
  9
$USERR2
 40
0.0
  9
$USERR3
 40
0.0
  9
$USERR4
 40
0.0
  9
$USERR5
 40
0.0
  9
$WORLDVIEW
 70
     1
  9
$SHADEDGE
 70
     3
  9
$SHADEDIF
 70
    70
  9
$TILEMODE
 70
     1
  9
$MAXACTVP
 70
    64
  9
$PLIMCHECK
 70
     0
  9
$PEXTMIN
 10
1.0000000000000000E+20
 20
1.0000000000000000E+20
 30
1.0000000000000000E+20
  9
$PEXTMAX
 10
-1.0000000000000000E+20
 20
-1.0000000000000000E+20
 30
-1.0000000000000000E+20
  9
$PLIMMIN
 10
0.0
 20
0.0
  9
$PLIMMAX
 10
12.0
 20
9.0
  9
$UNITMODE
 70
     0
  9
$VISRETAIN
 70
     1
  9
$PLINEGEN
 70
     0
  9
$PSLTSCALE
 70
     1
  0
ENDSEC
  0
SECTION
  2
TABLES
  0
TABLE
  2
VPORT
 70
     1
  0
VPORT
  2
*ACTIVE
 70
     0
 10
0.0
 20
0.0
 11
1.0
 21
1.0
 12
866.4329321941105491
 22
19.9873574665373717
 13
0.0
 23
0.0
 14
1.0
 24
1.0
 15
0.0
 25
0.0
 16
0.0
 26
0.0
 36
95.5902297660485658
 17
3089.811279296875
 27
197.161570589386713
 37
0.0
 40
15.1335334571659299
 41
1.614795918367347
 42
50.0
 43
0.0
 44
0.0
 50
0.0
 51
0.0
 71
     0
 72
   100
 73
     1
 74
     1
 75
     0
 76
     0
 77
     0
 78
     0
  0
ENDTAB
  0
TABLE
  2
LTYPE
 70
     2
  0
LTYPE
  2
CONTINUOUS
 70
     0
  3
Solid line
 72
    65
 73
     0
 40
0.0
  0
LTYPE
  2
PHANTOM2
 70
     0
  3
___ _ _ ___ _ _ ___ _ _ ___ _ _
 72
    65
 73
     6
 40
1.25
 49
0.625
 49
-0.125
 49
0.125
 49
-0.125
 49
0.125
 49
-0.125
  0
ENDTAB
  0
TABLE
  2
LAYER
 70
     2
  0
LAYER
  2
0
 70
     0
 62
   255
  6
CONTINUOUS
  0
LAYER
  2
DEFPOINTS
 70
     0
 62
     7
  6
CONTINUOUS
  0
ENDTAB
  0
TABLE
  2
STYLE
 70
     1
  0
STYLE
  2
STANDARD
 70
     0
 40
0.0
 41
0.8
 50
0.0
 71
     0
 42
0.2
  3
txt
  4

  0
ENDTAB
  0
TABLE
  2
VIEW
 70
     0
  0
ENDTAB
  0
TABLE
  2
UCS
 70
     0
  0
ENDTAB
  0
TABLE
  2
APPID
 70
     9
  0
APPID
  2
ACAD
 70
     0
  0
APPID
  2
ACAD_MLEADERVER
 70
     0
  0
APPID
  2
ACAD_EXEMPT_FROM_CAD_STANDARDS
 70
     0
  0
APPID
  2
ACAD_NAV_VCDISPLAY
 70
     0
  0
APPID
  2
ACAECLAYERSTANDARD
 70
     0
  0
APPID
  2
ACCMTRANSPARENCY
 70
     0
  0
APPID
  2
ACAD_DSTYLE_DIMJAG
 70
     0
  0
APPID
  2
ACAD_DSTYLE_DIMTALN
 70
     0
  0
APPID
  2
ACDBATTR
 70
     0
  0
ENDTAB
  0
TABLE
  2
DIMSTYLE
 70
     1
  0
DIMSTYLE
  2
STANDARD
 70
     0
  3

  4

  5

  6

  7

 40
1.0
 41
0.1875
 42
0.0625
 43
0.38
 44
0.125
 45
0.0
 46
0.0
 47
0.01
 48
0.01
140
0.15625
141
0.09
142
0.0
143
25.3999999999999986
144
1.0
145
0.0
146
1.0
147
0.09
 71
     1
 72
     0
 73
     1
 74
     1
 75
     0
 76
     0
 77
     0
 78
     4
170
     0
171
     2
172
     0
173
     0
174
     0
175
     0
176
     0
177
     0
178
     0
  0
ENDTAB
  0
ENDSEC
  0
SECTION
  2
BLOCKS
  0
BLOCK
  8
0
  2
$MODEL_SPACE
 70
     0
 10
0.0
 20
0.0
 30
0.0
  3
$MODEL_SPACE
  1

  0
ENDBLK
  5
21
  8
0
  0
BLOCK
 67
     1
  8
0
  2
$PAPER_SPACE
 70
     0
 10
0.0
 20
0.0
 30
0.0
  3
$PAPER_SPACE
  1

  0
ENDBLK
  5
1D
 67
     1
  8
0
  0
ENDSEC
  0
SECTION
  2
ENTITIES
  0
ATTDEF
  5
3930
  8
DEFPOINTS
 10
3956.2402699313538506
 20
218.439811378670413
 30
0.0
 40
0.001
  1
32025
  3

  2
MODELNUMBER
 70
     0
1001
ACDBATTR
1070
     0
1070
     1
  0
ATTDEF
  5
3931
  8
DEFPOINTS
 10
3956.2402699313538506
 20
218.4381447120038047
 30
0.0
 40
0.001
  1
LUDINGTON
  3

  2
TRADENAME
 70
     0
1001
ACDBATTR
1070
     0
1070
     1
  0
ATTDEF
  5
3932
  8
DEFPOINTS
 10
3956.2402699313538506
 20
218.4364780453371111
 30
0.0
 40
0.001
  1
KITCHEN SINK
  3

  2
PRODUCT
 70
     0
1001
ACDBATTR
1070
     0
1070
     1
  0
LINE
  5
9112
  8
0
 10
3945.0708274213961886
 20
218.3274318654495119
 30
0.0
 11
3945.0708274213961886
 21
213.3052044852134941
 31
0.0
  0
LINE
  5
9113
  8
0
 10
3944.243827421395963
 20
218.3874318654495141
 30
0.0
 11
3968.2438274214969169
 21
218.3874318654495141
 31
0.0
  0
LINE
  5
9114
  8
0
 10
3944.243827421395963
 20
218.4354318654494875
 30
0.0
 11
3968.2438274214969169
 21
218.4354318654494875
 31
0.0
  0
LINE
  5
9115
  8
0
 10
3944.243827421395963
 20
218.4354318654494875
 30
0.0
 11
3944.243827421395963
 21
218.3874318654495141
 31
0.0
  0
ARC
  5
9116
  8
0
 10
3945.0108274213971526
 20
218.3274318654495119
 30
0.0
 40
0.06
 50
0.0
 51
90.0
  0
LINE
  5
9117
  8
0
 10
3954.3762249683468326
 20
212.6974639870495025
 30
0.0
 11
3958.1114298745469569
 21
212.6974639870495025
 31
0.0
  0
LINE
  5
9118
  8
0
 10
3954.3762249683468326
 20
212.6974639870495025
 30
0.0
 11
3953.9782575810318122
 21
212.8267714295218127
 31
0.0
  0
LINE
  5
9119
  8
0
 10
3953.9392794919931475
 20
212.855076445386203
 30
0.0
 11
3953.8874370730068222
 21
212.9263597715043943
 31
0.0
  0
ARC
  5
911A
  8
0
 10
3954.0023609065719938
 20
212.9009538377995909
 30
0.0
 40
0.078
 50
216.0273733803188065
 51
252.0000000162268066
  0
ARC
  5
911B
  8
0
 10
3953.861557518203881
 20
212.9075382770313922
 30
0.0
 40
0.032
 50
36.027373488360098
 51
86.9873136232587143
  0
ARC
  5
911C
  8
0
 10
3945.1818274213910627
 20
213.3052044852107088
 30
0.0
 40
0.111
 50
179.9999999985653005
 51
266.9881452277062976
  0
LINE
  5
911D
  8
0
 10
3958.1114298745469569
 20
212.6974639870495025
 30
0.0
 11
3958.5093972618619773
 21
212.8267714295218127
 31
0.0
  0
LINE
  5
911E
  8
0
 10
3958.5483753509010967
 20
212.855076445386203
 30
0.0
 11
3958.6002177698869673
 21
212.9263597715043943
 31
0.0
  0
ARC
  5
911F
  8
0
 10
3958.4852939363217956
 20
212.9009538377995909
 30
0.0
 40
0.078
 50
287.9999999837731934
 51
323.9726266196811935
  0
ARC
  5
9120
  8
0
 10
3958.6260973246889989
 20
212.9075382770313922
 30
0.0
 40
0.032
 50
93.0126863767413141
 51
143.972626511639902
  0
LINE
  5
9121
  8
0
 10
3953.8632393444618174
 20
212.9394940505385136
 30
0.0
 11
3958.6237242765960218
 21
212.9394940505385136
 31
0.0
  0
LINE
  5
9122
  8
0
 10
3958.5093972618619773
 20
212.8267714295218127
 30
0.0
 11
3953.9782575810318122
 21
212.8267714295218127
 31
0.0
  0
LINE
  5
9123
  8
0
 10
3967.3116596474469588
 20
213.1943578111942088
 30
0.0
 11
3945.1759951953658856
 21
213.1943578111942088
 31
0.0
  0
LINE
  5
9124
  8
0
 10
3967.4168274214971461
 20
218.3274318654495119
 30
0.0
 11
3967.4168274214971461
 21
213.3052044852134941
 31
0.0
  0
LINE
  5
9125
  8
0
 10
3968.2438274214969169
 20
218.4354318654494875
 30
0.0
 11
3968.2438274214969169
 21
218.3874318654495141
 31
0.0
  0
ARC
  5
9126
  8
0
 10
3967.4768274214970916
 20
218.3274318654495119
 30
0.0
 40
0.06
 50
90.0
 51
180.0
  0
ARC
  5
9127
  8
0
 10
3967.3058274215031815
 20
213.3052044852107088
 30
0.0
 40
0.111
 50
273.011854772293816
 51
0.0000000014346592
  0
LINE
  5
9128
  8
0
 10
3967.3116596474810649
 20
213.1943578111959141
 30
0.0
 11
3958.6237242765960218
 21
212.9394940505385136
 31
0.0
  0
LINE
  5
9129
  8
0
 10
3953.8632393444618174
 20
212.9394940505385136
 30
0.0
 11
3945.1759951953658856
 21
213.1943578111942088
 31
0.0
  0
ENDSEC
  0
EOF
