  0
SECTION
  2
HEADER
  9
$ACADVER
  1
AC1009
  9
$INSBASE
 10
3926.9090818111130829
 20
221.7158554611812917
 30
0.0
  9
$EXTMIN
 10
3910.9090818111130829
 20
215.9778875827813067
 30
0.0
  9
$EXTMAX
 10
3942.9090818111130829
 20
221.7220596317301045
 30
0.0
  9
$LIMMIN
 10
0.0
 20
0.0
  9
$LIMMAX
 10
11.6929133858000007
 20
8.2677165353999982
  9
$ORTHOMODE
 70
     0
  9
$REGENMODE
 70
     1
  9
$FILLMODE
 70
     1
  9
$QTEXTMODE
 70
     0
  9
$MIRRTEXT
 70
     0
  9
$DRAGMODE
 70
     2
  9
$LTSCALE
 40
0.6431102362
  9
$OSMODE
 70
  4095
  9
$ATTMODE
 70
     1
  9
$TEXTSIZE
 40
0.2
  9
$TRACEWID
 40
0.05
  9
$TEXTSTYLE
  7
STANDARD
  9
$CLAYER
  8
0
  9
$CELTYPE
  6
BYLAYER
  9
$CECOLOR
 62
   256
  9
$DIMSCALE
 40
1.0
  9
$DIMASZ
 40
0.1875
  9
$DIMEXO
 40
0.0625
  9
$DIMDLI
 40
0.4443307087
  9
$DIMRND
 40
0.0
  9
$DIMDLE
 40
0.0
  9
$DIMEXE
 40
0.125
  9
$DIMTP
 40
0.01
  9
$DIMTM
 40
0.01
  9
$DIMTXT
 40
2.0
  9
$DIMCEN
 40
0.1052362205
  9
$DIMTSZ
 40
0.0
  9
$DIMTOL
 70
     1
  9
$DIMLIM
 70
     0
  9
$DIMTIH
 70
     1
  9
$DIMTOH
 70
     1
  9
$DIMSE1
 70
     0
  9
$DIMSE2
 70
     0
  9
$DIMTAD
 70
     0
  9
$DIMZIN
 70
     0
  9
$DIMBLK
  1

  9
$DIMASO
 70
     1
  9
$DIMSHO
 70
     1
  9
$DIMPOST
  1
\X
  9
$DIMAPOST
  1

  9
$DIMALT
 70
     1
  9
$DIMALTD
 70
     2
  9
$DIMALTF
 40
25.3999999999999986
  9
$DIMLFAC
 40
1.0
  9
$DIMTOFL
 70
     0
  9
$DIMTVP
 40
0.0
  9
$DIMTIX
 70
     0
  9
$DIMSOXD
 70
     0
  9
$DIMSAH
 70
     0
  9
$DIMBLK1
  1

  9
$DIMBLK2
  1

  9
$DIMSTYLE
  2
STANDARD
  9
$DIMCLRD
 70
     0
  9
$DIMCLRE
 70
     0
  9
$DIMCLRT
 70
     0
  9
$DIMTFAC
 40
1.0
  9
$DIMGAP
 40
0.09
  9
$LUNITS
 70
     2
  9
$LUPREC
 70
     4
  9
$SKETCHINC
 40
0.1
  9
$FILLETRAD
 40
0.0
  9
$AUNITS
 70
     0
  9
$AUPREC
 70
     0
  9
$MENU
  1
.
  9
$ELEVATION
 40
0.0
  9
$PELEVATION
 40
0.0
  9
$THICKNESS
 40
0.0
  9
$LIMCHECK
 70
     0
  9
$BLIPMODE
 70
     0
  9
$CHAMFERA
 40
0.0
  9
$CHAMFERB
 40
0.0
  9
$SKPOLY
 70
     0
  9
$TDCREATE
 40
2458060.468368056230247
  9
$TDUPDATE
 40
2459851.7624074080958962
  9
$TDINDWG
 40
0.4532825231
  9
$TDUSRTIMER
 40
0.4532825231
  9
$USRTIMER
 70
     1
  9
$ANGBASE
 50
0.0
  9
$ANGDIR
 70
     0
  9
$PDMODE
 70
     0
  9
$PDSIZE
 40
0.3125
  9
$PLINEWID
 40
0.0
  9
$COORDS
 70
     1
  9
$SPLFRAME
 70
     0
  9
$SPLINETYPE
 70
     6
  9
$SPLINESEGS
 70
     8
  9
$ATTDIA
 70
     1
  9
$ATTREQ
 70
     1
  9
$HANDLING
 70
     1
  9
$HANDSEED
  5
9175
  9
$SURFTAB1
 70
     6
  9
$SURFTAB2
 70
     6
  9
$SURFTYPE
 70
     6
  9
$SURFU
 70
     6
  9
$SURFV
 70
     6
  9
$UCSNAME
  2

  9
$UCSORG
 10
0.0
 20
0.0
 30
0.0
  9
$UCSXDIR
 10
1.0
 20
0.0
 30
0.0
  9
$UCSYDIR
 10
0.0
 20
1.0
 30
0.0
  9
$PUCSNAME
  2

  9
$PUCSORG
 10
0.0
 20
0.0
 30
0.0
  9
$PUCSXDIR
 10
1.0
 20
0.0
 30
0.0
  9
$PUCSYDIR
 10
0.0
 20
1.0
 30
0.0
  9
$USERI1
 70
     0
  9
$USERI2
 70
     0
  9
$USERI3
 70
     0
  9
$USERI4
 70
     0
  9
$USERI5
 70
     0
  9
$USERR1
 40
0.0
  9
$USERR2
 40
0.0
  9
$USERR3
 40
0.0
  9
$USERR4
 40
0.0
  9
$USERR5
 40
0.0
  9
$WORLDVIEW
 70
     1
  9
$SHADEDGE
 70
     3
  9
$SHADEDIF
 70
    70
  9
$TILEMODE
 70
     1
  9
$MAXACTVP
 70
    64
  9
$PLIMCHECK
 70
     0
  9
$PEXTMIN
 10
1.0000000000000000E+20
 20
1.0000000000000000E+20
 30
1.0000000000000000E+20
  9
$PEXTMAX
 10
-1.0000000000000000E+20
 20
-1.0000000000000000E+20
 30
-1.0000000000000000E+20
  9
$PLIMMIN
 10
0.0
 20
0.0
  9
$PLIMMAX
 10
12.0
 20
9.0
  9
$UNITMODE
 70
     0
  9
$VISRETAIN
 70
     1
  9
$PLINEGEN
 70
     0
  9
$PSLTSCALE
 70
     1
  0
ENDSEC
  0
SECTION
  2
TABLES
  0
TABLE
  2
VPORT
 70
     1
  0
VPORT
  2
*ACTIVE
 70
     0
 10
0.0
 20
0.0
 11
1.0
 21
1.0
 12
837.1416982818163888
 22
23.9799334767332013
 13
0.0
 23
0.0
 14
1.0
 24
1.0
 15
0.0
 25
0.0
 16
0.0
 26
0.0
 36
95.5902297660485658
 17
3089.811279296875
 27
197.161570589386713
 37
0.0
 40
19.983930544220641
 41
1.614795918367347
 42
50.0
 43
0.0
 44
0.0
 50
0.0
 51
0.0
 71
     0
 72
   100
 73
     1
 74
     1
 75
     0
 76
     0
 77
     0
 78
     0
  0
ENDTAB
  0
TABLE
  2
LTYPE
 70
     2
  0
LTYPE
  2
CONTINUOUS
 70
     0
  3
Solid line
 72
    65
 73
     0
 40
0.0
  0
LTYPE
  2
PHANTOM2
 70
     0
  3
___ _ _ ___ _ _ ___ _ _ ___ _ _
 72
    65
 73
     6
 40
1.25
 49
0.625
 49
-0.125
 49
0.125
 49
-0.125
 49
0.125
 49
-0.125
  0
ENDTAB
  0
TABLE
  2
LAYER
 70
     2
  0
LAYER
  2
0
 70
     0
 62
   255
  6
CONTINUOUS
  0
LAYER
  2
DEFPOINTS
 70
     0
 62
     7
  6
CONTINUOUS
  0
ENDTAB
  0
TABLE
  2
STYLE
 70
     1
  0
STYLE
  2
STANDARD
 70
     0
 40
0.0
 41
0.8
 50
0.0
 71
     0
 42
0.2
  3
txt
  4

  0
ENDTAB
  0
TABLE
  2
VIEW
 70
     0
  0
ENDTAB
  0
TABLE
  2
UCS
 70
     0
  0
ENDTAB
  0
TABLE
  2
APPID
 70
     9
  0
APPID
  2
ACAD
 70
     0
  0
APPID
  2
ACAD_MLEADERVER
 70
     0
  0
APPID
  2
ACAD_EXEMPT_FROM_CAD_STANDARDS
 70
     0
  0
APPID
  2
ACAD_NAV_VCDISPLAY
 70
     0
  0
APPID
  2
ACAECLAYERSTANDARD
 70
     0
  0
APPID
  2
ACCMTRANSPARENCY
 70
     0
  0
APPID
  2
ACAD_DSTYLE_DIMJAG
 70
     0
  0
APPID
  2
ACAD_DSTYLE_DIMTALN
 70
     0
  0
APPID
  2
ACDBATTR
 70
     0
  0
ENDTAB
  0
TABLE
  2
DIMSTYLE
 70
     1
  0
DIMSTYLE
  2
STANDARD
 70
     0
  3

  4

  5

  6

  7

 40
1.0
 41
0.1875
 42
0.0625
 43
0.38
 44
0.125
 45
0.0
 46
0.0
 47
0.01
 48
0.01
140
0.15625
141
0.09
142
0.0
143
25.3999999999999986
144
1.0
145
0.0
146
1.0
147
0.09
 71
     1
 72
     0
 73
     1
 74
     1
 75
     0
 76
     0
 77
     0
 78
     4
170
     0
171
     2
172
     0
173
     0
174
     0
175
     0
176
     0
177
     0
178
     0
  0
ENDTAB
  0
ENDSEC
  0
SECTION
  2
BLOCKS
  0
BLOCK
  8
0
  2
$MODEL_SPACE
 70
     0
 10
0.0
 20
0.0
 30
0.0
  3
$MODEL_SPACE
  1

  0
ENDBLK
  5
21
  8
0
  0
BLOCK
 67
     1
  8
0
  2
$PAPER_SPACE
 70
     0
 10
0.0
 20
0.0
 30
0.0
  3
$PAPER_SPACE
  1

  0
ENDBLK
  5
1D
 67
     1
  8
0
  0
ENDSEC
  0
SECTION
  2
ENTITIES
  0
ATTDEF
  5
3930
  8
DEFPOINTS
 10
3926.9052112234949163
 20
221.721059631729986
 30
0.0
 40
0.001
  1
32024
  3

  2
MODELNUMBER
 70
     0
1001
ACDBATTR
1070
     0
1070
     1
  0
ATTDEF
  5
3931
  8
DEFPOINTS
 10
3926.9052112234949163
 20
221.7193929650634061
 30
0.0
 40
0.001
  1
LUDINGTON
  3

  2
TRADENAME
 70
     0
1001
ACDBATTR
1070
     0
1070
     1
  0
ATTDEF
  5
3932
  8
DEFPOINTS
 10
3926.9052112234949163
 20
221.7177262983967125
 30
0.0
 40
0.001
  1
KITCHEN SINK
  3

  2
PRODUCT
 70
     0
1001
ACDBATTR
1070
     0
1070
     1
  0
LINE
  5
8FBE
  8
0
 10
3911.7360818111119443
 20
221.6078554611812024
 30
0.0
 11
3911.7360818111119443
 21
216.5856280809452983
 31
0.0
  0
LINE
  5
8FBF
  8
0
 10
3910.9090818111130829
 20
221.6678554611812899
 30
0.0
 11
3942.9090818111130829
 21
221.6678554611812899
 31
0.0
  0
LINE
  5
8FC0
  8
0
 10
3910.9090818111130829
 20
221.7158554611812917
 30
0.0
 11
3942.9090818111130829
 21
221.7158554611812917
 31
0.0
  0
LINE
  5
8FC1
  8
0
 10
3910.9090818111130829
 20
221.7158554611812917
 30
0.0
 11
3910.9090818111130829
 21
221.6678554611812899
 31
0.0
  0
ARC
  5
8FC2
  8
0
 10
3911.6760818111119988
 20
221.6078554611812024
 30
0.0
 40
0.06
 50
0.0
 51
90.0
  0
LINE
  5
8FC3
  8
0
 10
3917.1974793580129699
 20
215.9778875827813067
 30
0.0
 11
3920.9326842642130941
 21
215.9778875827813067
 31
0.0
  0
LINE
  5
8FC4
  8
0
 10
3917.1974793580129699
 20
215.9778875827813067
 30
0.0
 11
3916.7995119706979494
 21
216.1071950252535032
 31
0.0
  0
LINE
  5
8FC5
  8
0
 10
3916.7605338816588301
 20
216.1355000411180072
 30
0.0
 11
3916.7086914626729595
 21
216.2067833672361985
 31
0.0
  0
ARC
  5
8FC6
  8
0
 10
-13649.037685417519242
 20
-333543.7466745742713101
 30
0.0
 40
334221.8872176319127902
 50
86.9873136983230069
 51
86.9881452450307648
  0
ARC
  5
8FC7
  8
0
 10
3916.8236152962381311
 20
216.1813774335313951
 30
0.0
 40
0.078
 50
216.0273733803188065
 51
252.0000000162268066
  0
ARC
  5
8FC8
  8
0
 10
3916.6828119078709278
 20
216.1879618727631964
 30
0.0
 40
0.032
 50
36.027373488360098
 51
86.9873136232587143
  0
ARC
  5
8FC9
  8
0
 10
3911.8470818111068183
 20
216.585628080942513
 30
0.0
 40
0.111
 50
179.9999999985653005
 51
266.9881452277062976
  0
LINE
  5
8FCA
  8
0
 10
3926.3940818111132103
 20
220.9458554611813099
 30
0.0
 11
3926.3940818111132103
 21
216.474781406926013
 31
0.0
  0
LINE
  5
8FCB
  8
0
 10
3920.9326842642130941
 20
215.9778875827813067
 30
0.0
 11
3921.3306516515281146
 21
216.1071950252535032
 31
0.0
  0
LINE
  5
8FCC
  8
0
 10
3921.3696297405667792
 20
216.1355000411180072
 30
0.0
 11
3921.4214721595531046
 21
216.2067833672361985
 31
0.0
  0
ARC
  5
8FCD
  8
0
 10
3980.8771779230842185
 20
-889.5338737775136906
 30
0.0
 40
1107.349788054722012
 50
92.8201678796308869
 51
93.0765808180180869
  0
ARC
  5
8FCE
  8
0
 10
3921.3065483259870234
 20
216.1813774335313951
 30
0.0
 40
0.078
 50
287.9999999837731934
 51
323.9726266196811935
  0
ARC
  5
8FCF
  8
0
 10
3921.4473517143551362
 20
216.1879618727631964
 30
0.0
 40
0.032
 50
93.0126863767413141
 51
143.972626511639902
  0
LINE
  5
8FD0
  8
0
 10
3916.6844937341279547
 20
216.2199176462702894
 30
0.0
 11
3921.4449786662621591
 21
216.2199176462702894
 31
0.0
  0
LINE
  5
8FD1
  8
0
 10
3921.3306516515281146
 20
216.1071950252535032
 30
0.0
 11
3916.7995119706979494
 21
216.1071950252535032
 31
0.0
  0
LINE
  5
8FD2
  8
0
 10
3942.0820818111128574
 20
221.6078554611812024
 30
0.0
 11
3942.0820818111128574
 21
216.5856280809452983
 31
0.0
  0
LINE
  5
8FD3
  8
0
 10
3942.9090818111130829
 20
221.7158554611812917
 30
0.0
 11
3942.9090818111130829
 21
221.6678554611812899
 31
0.0
  0
ARC
  5
8FD4
  8
0
 10
3942.1420818111128028
 20
221.6078554611812024
 30
0.0
 40
0.06
 50
90.0
 51
180.0
  0
LINE
  5
8FD5
  8
0
 10
3936.620684264213196
 20
215.9778875827813067
 30
0.0
 11
3932.8854793580130718
 21
215.9778875827813067
 31
0.0
  0
LINE
  5
8FD6
  8
0
 10
3936.620684264213196
 20
215.9778875827813067
 30
0.0
 11
3937.0186516515268522
 21
216.1071950252535032
 31
0.0
  0
LINE
  5
8FD7
  8
0
 10
3937.0576297405659716
 20
216.1355000411180072
 30
0.0
 11
3937.1094721595532064
 21
216.2067833672361985
 31
0.0
  0
ARC
  5
8FD8
  8
0
 10
21502.8558490397517744
 20
-333543.7466745742713101
 30
0.0
 40
334221.8872176319127902
 50
93.0118547549692494
 51
93.0126863016769931
  0
ARC
  5
8FD9
  8
0
 10
3936.9945483259871253
 20
216.1813774335313951
 30
0.0
 40
0.078
 50
287.9999999837731934
 51
323.9726266196811935
  0
ARC
  5
8FDA
  8
0
 10
3937.1353517143547833
 20
216.1879618727631964
 30
0.0
 40
0.032
 50
93.0126863767413141
 51
143.972626511639902
  0
ARC
  5
8FDB
  8
0
 10
3941.9710818111188928
 20
216.585628080942513
 30
0.0
 40
0.111
 50
273.011854772293816
 51
0.0000000014346592
  0
LINE
  5
8FDC
  8
0
 10
3927.4240818111129556
 20
220.9458554611813099
 30
0.0
 11
3927.4240818111129556
 21
216.474781406926013
 31
0.0
  0
LINE
  5
8FDD
  8
0
 10
3932.8854793580130718
 20
215.9778875827813067
 30
0.0
 11
3932.4875119706980513
 21
216.1071950252535032
 31
0.0
  0
LINE
  5
8FDE
  8
0
 10
3932.4485338816589319
 20
216.1355000411180072
 30
0.0
 11
3932.3966914626730613
 21
216.2067833672361985
 31
0.0
  0
ARC
  5
8FDF
  8
0
 10
3872.9409856522520386
 20
-889.5338747056978264
 30
0.0
 40
1107.349788984090992
 50
86.9234191821384741
 51
87.1798321202908681
  0
ARC
  5
8FE0
  8
0
 10
3932.5116152962377782
 20
216.1813774335313951
 30
0.0
 40
0.078
 50
216.0273733803188065
 51
252.0000000162268066
  0
ARC
  5
8FE1
  8
0
 10
3932.3708119078701202
 20
216.1879618727631964
 30
0.0
 40
0.032
 50
36.027373488360098
 51
86.9873136232587143
  0
LINE
  5
8FE2
  8
0
 10
3937.1336698880982112
 20
216.2199176462702894
 30
0.0
 11
3932.3731849559630973
 21
216.2199176462702894
 31
0.0
  0
LINE
  5
8FE3
  8
0
 10
3932.4875119706980513
 20
216.1071950252535032
 30
0.0
 11
3937.0186516515268522
 21
216.1071950252535032
 31
0.0
  0
LINE
  5
8FE4
  8
0
 10
3926.4570818111128574
 20
221.0088554611812981
 30
0.0
 11
3927.3610818111119443
 21
221.0088554611812128
 31
0.0
  0
ARC
  5
8FE5
  8
0
 10
3926.4570818111128574
 20
220.9458554611813099
 30
0.0
 40
0.063
 50
90.0
 51
180.0
  0
ARC
  5
8FE6
  8
0
 10
3927.3610818111119443
 20
220.9458554611813099
 30
0.0
 40
0.063
 50
359.9999999999984084
 51
90.0
  0
LINE
  5
8FE7
  8
0
 10
3941.9769140371417961
 20
216.474781406926013
 30
0.0
 11
3927.4240818111129556
 21
216.474781406926013
 31
0.0
  0
LINE
  5
8FE8
  8
0
 10
3926.3940818111132103
 20
216.4747814069258993
 30
0.0
 11
3911.841249585082096
 21
216.474781406926013
 31
0.0
  0
ENDSEC
  0
EOF
