  0
SECTION
  2
HEADER
  9
$ACADVER
  1
AC1009
  9
$INSBASE
 10
3955.9887646729061998
 20
218.5181002545739091
 30
0.0
  9
$EXTMIN
 10
3940.2469648207229511
 20
209.3664285684972128
 30
-0.0000000000112498
  9
$EXTMAX
 10
3971.7267230285438018
 20
227.6746967020704915
 30
0.0000000000002956
  9
$LIMMIN
 10
0.0
 20
0.0
  9
$LIMMAX
 10
11.6929133858000007
 20
8.2677165353999982
  9
$ORTHOMODE
 70
     0
  9
$REGENMODE
 70
     1
  9
$FILLMODE
 70
     1
  9
$QTEXTMODE
 70
     0
  9
$MIRRTEXT
 70
     0
  9
$DRAGMODE
 70
     2
  9
$LTSCALE
 40
0.6431102362
  9
$OSMODE
 70
  4095
  9
$ATTMODE
 70
     1
  9
$TEXTSIZE
 40
0.2
  9
$TRACEWID
 40
0.05
  9
$TEXTSTYLE
  7
STANDARD
  9
$CLAYER
  8
0
  9
$CELTYPE
  6
BYLAYER
  9
$CECOLOR
 62
   256
  9
$DIMSCALE
 40
1.0
  9
$DIMASZ
 40
0.1875
  9
$DIMEXO
 40
0.0625
  9
$DIMDLI
 40
0.4443307087
  9
$DIMRND
 40
0.0
  9
$DIMDLE
 40
0.0
  9
$DIMEXE
 40
0.125
  9
$DIMTP
 40
0.01
  9
$DIMTM
 40
0.01
  9
$DIMTXT
 40
2.0
  9
$DIMCEN
 40
0.1052362205
  9
$DIMTSZ
 40
0.0
  9
$DIMTOL
 70
     1
  9
$DIMLIM
 70
     0
  9
$DIMTIH
 70
     1
  9
$DIMTOH
 70
     1
  9
$DIMSE1
 70
     0
  9
$DIMSE2
 70
     0
  9
$DIMTAD
 70
     0
  9
$DIMZIN
 70
     0
  9
$DIMBLK
  1

  9
$DIMASO
 70
     1
  9
$DIMSHO
 70
     1
  9
$DIMPOST
  1
\X
  9
$DIMAPOST
  1

  9
$DIMALT
 70
     1
  9
$DIMALTD
 70
     2
  9
$DIMALTF
 40
25.3999999999999986
  9
$DIMLFAC
 40
1.0
  9
$DIMTOFL
 70
     0
  9
$DIMTVP
 40
0.0
  9
$DIMTIX
 70
     0
  9
$DIMSOXD
 70
     0
  9
$DIMSAH
 70
     0
  9
$DIMBLK1
  1

  9
$DIMBLK2
  1

  9
$DIMSTYLE
  2
STANDARD
  9
$DIMCLRD
 70
     0
  9
$DIMCLRE
 70
     0
  9
$DIMCLRT
 70
     0
  9
$DIMTFAC
 40
1.0
  9
$DIMGAP
 40
0.09
  9
$LUNITS
 70
     2
  9
$LUPREC
 70
     4
  9
$SKETCHINC
 40
0.1
  9
$FILLETRAD
 40
0.0
  9
$AUNITS
 70
     0
  9
$AUPREC
 70
     0
  9
$MENU
  1
.
  9
$ELEVATION
 40
0.0
  9
$PELEVATION
 40
0.0
  9
$THICKNESS
 40
0.0
  9
$LIMCHECK
 70
     0
  9
$BLIPMODE
 70
     0
  9
$CHAMFERA
 40
0.0
  9
$CHAMFERB
 40
0.0
  9
$SKPOLY
 70
     0
  9
$TDCREATE
 40
2458060.468368056230247
  9
$TDUPDATE
 40
2459835.4699421301484108
  9
$TDINDWG
 40
0.4491505787
  9
$TDUSRTIMER
 40
0.4491505787
  9
$USRTIMER
 70
     1
  9
$ANGBASE
 50
0.0
  9
$ANGDIR
 70
     0
  9
$PDMODE
 70
     0
  9
$PDSIZE
 40
0.3125
  9
$PLINEWID
 40
0.0
  9
$COORDS
 70
     1
  9
$SPLFRAME
 70
     0
  9
$SPLINETYPE
 70
     6
  9
$SPLINESEGS
 70
     8
  9
$ATTDIA
 70
     1
  9
$ATTREQ
 70
     1
  9
$HANDLING
 70
     1
  9
$HANDSEED
  5
9178
  9
$SURFTAB1
 70
     6
  9
$SURFTAB2
 70
     6
  9
$SURFTYPE
 70
     6
  9
$SURFU
 70
     6
  9
$SURFV
 70
     6
  9
$UCSNAME
  2

  9
$UCSORG
 10
0.0
 20
0.0
 30
0.0
  9
$UCSXDIR
 10
1.0
 20
0.0
 30
0.0
  9
$UCSYDIR
 10
0.0
 20
1.0
 30
0.0
  9
$PUCSNAME
  2

  9
$PUCSORG
 10
0.0
 20
0.0
 30
0.0
  9
$PUCSXDIR
 10
1.0
 20
0.0
 30
0.0
  9
$PUCSYDIR
 10
0.0
 20
1.0
 30
0.0
  9
$USERI1
 70
     0
  9
$USERI2
 70
     0
  9
$USERI3
 70
     0
  9
$USERI4
 70
     0
  9
$USERI5
 70
     0
  9
$USERR1
 40
0.0
  9
$USERR2
 40
0.0
  9
$USERR3
 40
0.0
  9
$USERR4
 40
0.0
  9
$USERR5
 40
0.0
  9
$WORLDVIEW
 70
     1
  9
$SHADEDGE
 70
     3
  9
$SHADEDIF
 70
    70
  9
$TILEMODE
 70
     1
  9
$MAXACTVP
 70
    64
  9
$PLIMCHECK
 70
     0
  9
$PEXTMIN
 10
1.0000000000000000E+20
 20
1.0000000000000000E+20
 30
1.0000000000000000E+20
  9
$PEXTMAX
 10
-1.0000000000000000E+20
 20
-1.0000000000000000E+20
 30
-1.0000000000000000E+20
  9
$PLIMMIN
 10
0.0
 20
0.0
  9
$PLIMMAX
 10
12.0
 20
9.0
  9
$UNITMODE
 70
     0
  9
$VISRETAIN
 70
     1
  9
$PLINEGEN
 70
     0
  9
$PSLTSCALE
 70
     1
  0
ENDSEC
  0
SECTION
  2
TABLES
  0
TABLE
  2
VPORT
 70
     1
  0
VPORT
  2
*ACTIVE
 70
     0
 10
0.0
 20
0.0
 11
1.0
 21
1.0
 12
866.1755646277580354
 22
21.3589920458971108
 13
0.0
 23
0.0
 14
1.0
 24
1.0
 15
0.0
 25
0.0
 16
0.0
 26
0.0
 36
95.5902297660485658
 17
3089.811279296875
 27
197.161570589386713
 37
0.0
 40
19.5561157017432912
 41
1.614795918367347
 42
50.0
 43
0.0
 44
0.0
 50
0.0
 51
0.0
 71
     0
 72
   100
 73
     1
 74
     1
 75
     0
 76
     0
 77
     0
 78
     0
  0
ENDTAB
  0
TABLE
  2
LTYPE
 70
     2
  0
LTYPE
  2
CONTINUOUS
 70
     0
  3
Solid line
 72
    65
 73
     0
 40
0.0
  0
LTYPE
  2
PHANTOM2
 70
     0
  3
___ _ _ ___ _ _ ___ _ _ ___ _ _
 72
    65
 73
     6
 40
1.25
 49
0.625
 49
-0.125
 49
0.125
 49
-0.125
 49
0.125
 49
-0.125
  0
ENDTAB
  0
TABLE
  2
LAYER
 70
     2
  0
LAYER
  2
0
 70
     0
 62
   255
  6
CONTINUOUS
  0
LAYER
  2
DEFPOINTS
 70
     0
 62
     7
  6
CONTINUOUS
  0
ENDTAB
  0
TABLE
  2
STYLE
 70
     1
  0
STYLE
  2
STANDARD
 70
     0
 40
0.0
 41
0.8
 50
0.0
 71
     0
 42
0.2
  3
txt
  4

  0
ENDTAB
  0
TABLE
  2
VIEW
 70
     0
  0
ENDTAB
  0
TABLE
  2
UCS
 70
     0
  0
ENDTAB
  0
TABLE
  2
APPID
 70
     9
  0
APPID
  2
ACAD
 70
     0
  0
APPID
  2
ACAD_MLEADERVER
 70
     0
  0
APPID
  2
ACAD_EXEMPT_FROM_CAD_STANDARDS
 70
     0
  0
APPID
  2
ACAD_NAV_VCDISPLAY
 70
     0
  0
APPID
  2
ACAECLAYERSTANDARD
 70
     0
  0
APPID
  2
ACCMTRANSPARENCY
 70
     0
  0
APPID
  2
ACAD_DSTYLE_DIMJAG
 70
     0
  0
APPID
  2
ACAD_DSTYLE_DIMTALN
 70
     0
  0
APPID
  2
ACDBATTR
 70
     0
  0
ENDTAB
  0
TABLE
  2
DIMSTYLE
 70
     1
  0
DIMSTYLE
  2
STANDARD
 70
     0
  3

  4

  5

  6

  7

 40
1.0
 41
0.1875
 42
0.0625
 43
0.38
 44
0.125
 45
0.0
 46
0.0
 47
0.01
 48
0.01
140
0.15625
141
0.09
142
0.0
143
25.3999999999999986
144
1.0
145
0.0
146
1.0
147
0.09
 71
     1
 72
     0
 73
     1
 74
     1
 75
     0
 76
     0
 77
     0
 78
     4
170
     0
171
     2
172
     0
173
     0
174
     0
175
     0
176
     0
177
     0
178
     0
  0
ENDTAB
  0
ENDSEC
  0
SECTION
  2
BLOCKS
  0
BLOCK
  8
0
  2
$MODEL_SPACE
 70
     0
 10
0.0
 20
0.0
 30
0.0
  3
$MODEL_SPACE
  1

  0
ENDBLK
  5
21
  8
0
  0
BLOCK
 67
     1
  8
0
  2
$PAPER_SPACE
 70
     0
 10
0.0
 20
0.0
 30
0.0
  3
$PAPER_SPACE
  1

  0
ENDBLK
  5
1D
 67
     1
  8
0
  0
ENDSEC
  0
SECTION
  2
ENTITIES
  0
ATTDEF
  5
3930
  8
DEFPOINTS
 10
3955.9833289540829355
 20
218.5159501957697046
 30
0.0
 40
0.001
  1
32023
  3

  2
MODELNUMBER
 70
     0
1001
ACDBATTR
1070
     0
1070
     1
  0
ATTDEF
  5
3931
  8
DEFPOINTS
 10
3955.9833289540829355
 20
218.5142835291030963
 30
0.0
 40
0.001
  1
MCALLISTER
  3

  2
TRADENAME
 70
     0
1001
ACDBATTR
1070
     0
1070
     1
  0
ATTDEF
  5
3932
  8
DEFPOINTS
 10
3955.9833289540829355
 20
218.5126168624364027
 30
0.0
 40
0.001
  1
KITCHEN SINK
  3

  2
PRODUCT
 70
     0
1001
ACDBATTR
1070
     0
1070
     1
  0
LINE
  5
9045
  8
0
 10
3940.2987677240557787
 20
212.0752070357104913
 30
0.0
 11
3940.2987677240557787
 21
224.9609934734374121
 31
0.0
  0
LINE
  5
9046
  8
0
 10
3943.0058745052429003
 20
227.6681002545238925
 30
0.0
 11
3968.9716548405690446
 21
227.6681002545238925
 31
0.0
  0
LINE
  5
9047
  8
0
 10
3940.4452143334710854
 20
225.3145468640387037
 30
0.0
 11
3942.6523211146568428
 21
227.5216536451252978
 31
0.0
  0
ARC
  5
9048
  8
0
 10
3940.7987677240557787
 20
224.9609934734374121
 30
0.0
 40
0.5
 50
134.9999999987115018
 51
180.0
  0
ARC
  5
9049
  8
0
 10
3943.0058745052429003
 20
227.1681002545240062
 30
0.0
 40
0.5
 50
90.0
 51
134.9999999987115018
  0
LINE
  5
904A
  8
0
 10
3944.374979200710186
 20
226.3838220032492075
 30
0.0
 11
3967.6025501451022137
 21
226.3838220032492075
 31
0.0
  0
ARC
  5
904B
  8
0
 10
3944.4716053301881402
 20
222.9981204860214064
 30
0.0
 40
3.387080065876257
 50
91.634747486164855
 51
110.9835649662076946
  0
ARC
  5
904C
  8
0
 10
3944.0726741151461283
 20
224.0382635186730909
 30
0.0
 40
2.2730586824600079
 50
110.9835649662076946
 51
139.1241973149521129
  0
ARC
  5
904D
  8
0
 10
3944.7057745247748244
 20
223.4903225653281993
 30
0.0
 40
3.110349203739645
 50
139.1241973149521129
 51
156.8088687908137047
  0
ARC
  5
904E
  8
0
 10
3946.4496306317428207
 20
222.7432243786554125
 30
0.0
 40
5.0075022872678767
 50
156.8088687908137047
 51
167.6104418571443091
  0
ARC
  5
904F
  8
0
 10
3950.3028736335559188
 20
221.8967701098488021
 30
0.0
 40
8.9526216086824721
 50
167.6104418571443091
 51
177.3000110494305943
  0
LINE
  5
9050
  8
0
 10
3940.4452143334710854
 20
211.7216536451091997
 30
0.0
 11
3942.6523211146568428
 21
209.5145468640226909
 31
0.0
  0
ARC
  5
9051
  8
0
 10
3940.7987677240557787
 20
212.0752070357104913
 30
0.0
 40
0.5
 50
180.0
 51
225.0000000012884982
  0
ARC
  5
9052
  8
0
 10
3943.0058745052429003
 20
209.8681002546238972
 30
0.0
 40
0.5
 50
225.0000000012884982
 51
270.0
  0
ARC
  5
9053
  8
0
 10
3944.4716053301881402
 20
214.0380800231264971
 30
0.0
 40
3.387080065876257
 50
249.0164350337923054
 51
268.3652525138351734
  0
ARC
  5
9054
  8
0
 10
3944.0726741151461283
 20
212.9979369904748125
 30
0.0
 40
2.2730586824600079
 50
220.8758026850478871
 51
249.0164350337923054
  0
ARC
  5
9055
  8
0
 10
3944.7057745247748244
 20
213.5458779438197041
 30
0.0
 40
3.110349203739645
 50
203.1911312091862953
 51
220.8758026850478871
  0
ARC
  5
9056
  8
0
 10
3946.4496306317428207
 20
214.2929761304924057
 30
0.0
 40
5.0075022872678767
 50
192.3895581428540993
 51
203.1911312091862953
  0
ARC
  5
9057
  8
0
 10
3950.3028736335559188
 20
215.1394303992991013
 30
0.0
 40
8.9526216086824721
 50
182.699988950569292
 51
192.3895581428556909
  0
ARC
  5
9058
  8
0
 10
4005.7852173393989688
 20
218.5181002545739091
 30
0.0
 40
64.5370210346628284
 50
176.6240679133130982
 51
183.3759320866869018
  0
LINE
  5
9059
  8
0
 10
3943.0058745052429003
 20
209.3681002546238972
 30
0.0
 11
3968.9716548405690446
 21
209.3681002546238972
 31
0.0
  0
LINE
  5
905A
  8
0
 10
3944.374979200710186
 20
210.6523785058986959
 30
0.0
 11
3967.6025501451022137
 21
210.6523785058986959
 31
0.0
  0
CIRCLE
  5
905B
  8
0
 10
3955.9887646729061998
 20
221.2511256635239931
 30
0.0
 40
0.31
  0
CIRCLE
  5
905C
  8
0
 10
3955.9887646729061998
 20
221.2511256635239931
 30
0.0
 40
0.2760925586
  0
CIRCLE
  5
905D
  8
0
 10
3955.9887646729061998
 20
221.2511256635239931
 30
0.0
 40
2.25
  0
CIRCLE
  5
905E
  8
0
 10
3955.9887646729061998
 20
221.2511256635239931
 30
0.0
 40
1.6780895467000001
  0
LINE
  5
905F
  8
0
 10
3971.6787616217561663
 20
212.0752070357104913
 30
0.0
 11
3971.6787616217561663
 21
224.9609934734374121
 31
0.0
  0
LINE
  5
9060
  8
0
 10
3971.5323150123408595
 20
225.3145468640387037
 30
0.0
 11
3969.3252082311541926
 21
227.5216536451252978
 31
0.0
  0
ARC
  5
9061
  8
0
 10
3971.1787616217561663
 20
224.9609934734374121
 30
0.0
 40
0.5
 50
0.0
 51
45.0000000012884982
  0
ARC
  5
9062
  8
0
 10
3968.9716548405690446
 20
227.1681002545240062
 30
0.0
 40
0.5
 50
45.0000000012884982
 51
90.0
  0
ARC
  5
9063
  8
0
 10
3967.5059240156238047
 20
222.9981204860214064
 30
0.0
 40
3.387080065876257
 50
69.0164350337922912
 51
88.3652525138351592
  0
ARC
  5
9064
  8
0
 10
3967.9048552306658166
 20
224.0382635186730909
 30
0.0
 40
2.2730586824600079
 50
40.8758026850478871
 51
69.0164350337922912
  0
ARC
  5
9065
  8
0
 10
3967.2717548210371206
 20
223.4903225653281993
 30
0.0
 40
3.110349203739645
 50
23.1911312091862705
 51
40.8758026850478871
  0
ARC
  5
9066
  8
0
 10
3965.5278987140691243
 20
222.7432243786554125
 30
0.0
 40
5.0075022872678767
 50
12.3895581428557193
 51
23.1911312091862705
  0
ARC
  5
9067
  8
0
 10
3961.6746557122560262
 20
221.8967701098488021
 30
0.0
 40
8.9526216086824721
 50
2.699988950569371
 51
12.3895581428557193
  0
LINE
  5
9068
  8
0
 10
3971.5323150123408595
 20
211.7216536451091997
 30
0.0
 11
3969.3252082311541926
 21
209.5145468640226909
 31
0.0
  0
ARC
  5
9069
  8
0
 10
3971.1787616217561663
 20
212.0752070357104913
 30
0.0
 40
0.5
 50
314.9999999987114734
 51
0.0
  0
ARC
  5
906A
  8
0
 10
3968.9716548405690446
 20
209.8681002546238972
 30
0.0
 40
0.5
 50
270.0
 51
314.9999999987114734
  0
ARC
  5
906B
  8
0
 10
3967.5059240156238047
 20
214.0380800231264971
 30
0.0
 40
3.387080065876257
 50
271.6347474861648266
 51
290.983564966207723
  0
ARC
  5
906C
  8
0
 10
3967.9048552306658166
 20
212.9979369904748125
 30
0.0
 40
2.2730586824600079
 50
290.983564966207723
 51
319.1241973149521982
  0
ARC
  5
906D
  8
0
 10
3967.2717548210371206
 20
213.5458779438197041
 30
0.0
 40
3.110349203739645
 50
319.1241973149521982
 51
336.8088687908121983
  0
ARC
  5
906E
  8
0
 10
3965.5278987140691243
 20
214.2929761304924057
 30
0.0
 40
5.0075022872678767
 50
336.8088687908136762
 51
347.6104418571442807
  0
ARC
  5
906F
  8
0
 10
3961.6746557122560262
 20
215.1394303992991013
 30
0.0
 40
8.9526216086824721
 50
347.6104418571442807
 51
357.3000110494306227
  0
ARC
  5
9070
  8
0
 10
3906.1923120064129762
 20
218.5181002545739091
 30
0.0
 40
64.5370210346628284
 50
356.6240679133131266
 51
3.375932086686896
  0
ENDSEC
  0
EOF
