  0
SECTION
  2
HEADER
  9
$ACADVER
  1
AC1009
  9
$INSBASE
 10
3821.5357318803557973
 20
222.1366747210196024
 30
0.0
  9
$EXTMIN
 10
3805.8457318803561975
 20
216.3299906709196136
 30
0.0
  9
$EXTMAX
 10
3837.2257318803558519
 20
222.1420264661119006
 30
0.0
  9
$LIMMIN
 10
0.0
 20
0.0
  9
$LIMMAX
 10
11.6929133858000007
 20
8.2677165353999982
  9
$ORTHOMODE
 70
     0
  9
$REGENMODE
 70
     1
  9
$FILLMODE
 70
     1
  9
$QTEXTMODE
 70
     0
  9
$MIRRTEXT
 70
     0
  9
$DRAGMODE
 70
     2
  9
$LTSCALE
 40
0.6431102362
  9
$OSMODE
 70
  4095
  9
$ATTMODE
 70
     1
  9
$TEXTSIZE
 40
0.2
  9
$TRACEWID
 40
0.05
  9
$TEXTSTYLE
  7
STANDARD
  9
$CLAYER
  8
0
  9
$CELTYPE
  6
BYLAYER
  9
$CECOLOR
 62
   256
  9
$DIMSCALE
 40
1.0
  9
$DIMASZ
 40
0.1875
  9
$DIMEXO
 40
0.0625
  9
$DIMDLI
 40
0.4443307087
  9
$DIMRND
 40
0.0
  9
$DIMDLE
 40
0.0
  9
$DIMEXE
 40
0.125
  9
$DIMTP
 40
0.01
  9
$DIMTM
 40
0.01
  9
$DIMTXT
 40
2.0
  9
$DIMCEN
 40
0.1052362205
  9
$DIMTSZ
 40
0.0
  9
$DIMTOL
 70
     1
  9
$DIMLIM
 70
     0
  9
$DIMTIH
 70
     1
  9
$DIMTOH
 70
     1
  9
$DIMSE1
 70
     0
  9
$DIMSE2
 70
     0
  9
$DIMTAD
 70
     0
  9
$DIMZIN
 70
     0
  9
$DIMBLK
  1

  9
$DIMASO
 70
     1
  9
$DIMSHO
 70
     1
  9
$DIMPOST
  1
\X
  9
$DIMAPOST
  1

  9
$DIMALT
 70
     1
  9
$DIMALTD
 70
     2
  9
$DIMALTF
 40
25.3999999999999986
  9
$DIMLFAC
 40
1.0
  9
$DIMTOFL
 70
     0
  9
$DIMTVP
 40
0.0
  9
$DIMTIX
 70
     0
  9
$DIMSOXD
 70
     0
  9
$DIMSAH
 70
     0
  9
$DIMBLK1
  1

  9
$DIMBLK2
  1

  9
$DIMSTYLE
  2
STANDARD
  9
$DIMCLRD
 70
     0
  9
$DIMCLRE
 70
     0
  9
$DIMCLRT
 70
     0
  9
$DIMTFAC
 40
1.0
  9
$DIMGAP
 40
0.09
  9
$LUNITS
 70
     2
  9
$LUPREC
 70
     4
  9
$SKETCHINC
 40
0.1
  9
$FILLETRAD
 40
0.0
  9
$AUNITS
 70
     0
  9
$AUPREC
 70
     0
  9
$MENU
  1
.
  9
$ELEVATION
 40
0.0
  9
$PELEVATION
 40
0.0
  9
$THICKNESS
 40
0.0
  9
$LIMCHECK
 70
     0
  9
$BLIPMODE
 70
     0
  9
$CHAMFERA
 40
0.0
  9
$CHAMFERB
 40
0.0
  9
$SKPOLY
 70
     0
  9
$TDCREATE
 40
2458060.468368056230247
  9
$TDUPDATE
 40
2459851.7633564821444452
  9
$TDINDWG
 40
0.4432825231
  9
$TDUSRTIMER
 40
0.4432825231
  9
$USRTIMER
 70
     1
  9
$ANGBASE
 50
0.0
  9
$ANGDIR
 70
     0
  9
$PDMODE
 70
     0
  9
$PDSIZE
 40
0.3125
  9
$PLINEWID
 40
0.0
  9
$COORDS
 70
     1
  9
$SPLFRAME
 70
     0
  9
$SPLINETYPE
 70
     6
  9
$SPLINESEGS
 70
     8
  9
$ATTDIA
 70
     1
  9
$ATTREQ
 70
     1
  9
$HANDLING
 70
     1
  9
$HANDSEED
  5
8E04
  9
$SURFTAB1
 70
     6
  9
$SURFTAB2
 70
     6
  9
$SURFTYPE
 70
     6
  9
$SURFU
 70
     6
  9
$SURFV
 70
     6
  9
$UCSNAME
  2

  9
$UCSORG
 10
0.0
 20
0.0
 30
0.0
  9
$UCSXDIR
 10
1.0
 20
0.0
 30
0.0
  9
$UCSYDIR
 10
0.0
 20
1.0
 30
0.0
  9
$PUCSNAME
  2

  9
$PUCSORG
 10
0.0
 20
0.0
 30
0.0
  9
$PUCSXDIR
 10
1.0
 20
0.0
 30
0.0
  9
$PUCSYDIR
 10
0.0
 20
1.0
 30
0.0
  9
$USERI1
 70
     0
  9
$USERI2
 70
     0
  9
$USERI3
 70
     0
  9
$USERI4
 70
     0
  9
$USERI5
 70
     0
  9
$USERR1
 40
0.0
  9
$USERR2
 40
0.0
  9
$USERR3
 40
0.0
  9
$USERR4
 40
0.0
  9
$USERR5
 40
0.0
  9
$WORLDVIEW
 70
     1
  9
$SHADEDGE
 70
     3
  9
$SHADEDIF
 70
    70
  9
$TILEMODE
 70
     1
  9
$MAXACTVP
 70
    64
  9
$PLIMCHECK
 70
     0
  9
$PEXTMIN
 10
1.0000000000000000E+20
 20
1.0000000000000000E+20
 30
1.0000000000000000E+20
  9
$PEXTMAX
 10
-1.0000000000000000E+20
 20
-1.0000000000000000E+20
 30
-1.0000000000000000E+20
  9
$PLIMMIN
 10
0.0
 20
0.0
  9
$PLIMMAX
 10
12.0
 20
9.0
  9
$UNITMODE
 70
     0
  9
$VISRETAIN
 70
     1
  9
$PLINEGEN
 70
     0
  9
$PSLTSCALE
 70
     1
  0
ENDSEC
  0
SECTION
  2
TABLES
  0
TABLE
  2
VPORT
 70
     1
  0
VPORT
  2
*ACTIVE
 70
     0
 10
0.0
 20
0.0
 11
1.0
 21
1.0
 12
731.7472066330747111
 22
22.274610901717331
 13
0.0
 23
0.0
 14
1.0
 24
1.0
 15
0.0
 25
0.0
 16
0.0
 26
0.0
 36
95.5902297660485658
 17
3089.811279296875
 27
197.161570589386713
 37
0.0
 40
19.8275554893392503
 41
1.614795918367347
 42
50.0
 43
0.0
 44
0.0
 50
0.0
 51
0.0
 71
     0
 72
   100
 73
     1
 74
     1
 75
     0
 76
     0
 77
     0
 78
     0
  0
ENDTAB
  0
TABLE
  2
LTYPE
 70
     2
  0
LTYPE
  2
CONTINUOUS
 70
     0
  3
Solid line
 72
    65
 73
     0
 40
0.0
  0
LTYPE
  2
PHANTOM2
 70
     0
  3
___ _ _ ___ _ _ ___ _ _ ___ _ _
 72
    65
 73
     6
 40
1.25
 49
0.625
 49
-0.125
 49
0.125
 49
-0.125
 49
0.125
 49
-0.125
  0
ENDTAB
  0
TABLE
  2
LAYER
 70
     2
  0
LAYER
  2
0
 70
     0
 62
   255
  6
CONTINUOUS
  0
LAYER
  2
DEFPOINTS
 70
     0
 62
     7
  6
CONTINUOUS
  0
ENDTAB
  0
TABLE
  2
STYLE
 70
     1
  0
STYLE
  2
STANDARD
 70
     0
 40
0.0
 41
0.8
 50
0.0
 71
     0
 42
0.2
  3
txt
  4

  0
ENDTAB
  0
TABLE
  2
VIEW
 70
     0
  0
ENDTAB
  0
TABLE
  2
UCS
 70
     0
  0
ENDTAB
  0
TABLE
  2
APPID
 70
     9
  0
APPID
  2
ACAD
 70
     0
  0
APPID
  2
ACAD_MLEADERVER
 70
     0
  0
APPID
  2
ACAD_EXEMPT_FROM_CAD_STANDARDS
 70
     0
  0
APPID
  2
ACAD_NAV_VCDISPLAY
 70
     0
  0
APPID
  2
ACAECLAYERSTANDARD
 70
     0
  0
APPID
  2
ACCMTRANSPARENCY
 70
     0
  0
APPID
  2
ACAD_DSTYLE_DIMJAG
 70
     0
  0
APPID
  2
ACAD_DSTYLE_DIMTALN
 70
     0
  0
APPID
  2
ACDBATTR
 70
     0
  0
ENDTAB
  0
TABLE
  2
DIMSTYLE
 70
     1
  0
DIMSTYLE
  2
STANDARD
 70
     0
  3

  4

  5

  6

  7

 40
1.0
 41
0.1875
 42
0.0625
 43
0.38
 44
0.125
 45
0.0
 46
0.0
 47
0.01
 48
0.01
140
0.15625
141
0.09
142
0.0
143
25.3999999999999986
144
1.0
145
0.0
146
1.0
147
0.09
 71
     1
 72
     0
 73
     1
 74
     1
 75
     0
 76
     0
 77
     0
 78
     4
170
     0
171
     2
172
     0
173
     0
174
     0
175
     0
176
     0
177
     0
178
     0
  0
ENDTAB
  0
ENDSEC
  0
SECTION
  2
BLOCKS
  0
BLOCK
  8
0
  2
$MODEL_SPACE
 70
     0
 10
0.0
 20
0.0
 30
0.0
  3
$MODEL_SPACE
  1

  0
ENDBLK
  5
21
  8
0
  0
BLOCK
 67
     1
  8
0
  2
$PAPER_SPACE
 70
     0
 10
0.0
 20
0.0
 30
0.0
  3
$PAPER_SPACE
  1

  0
ENDBLK
  5
1D
 67
     1
  8
0
  0
ENDSEC
  0
SECTION
  2
ENTITIES
  0
ATTDEF
  5
3930
  8
DEFPOINTS
 10
3821.5321831281239611
 20
222.1410264661118106
 30
0.0
 40
0.001
  1
32021
  3

  2
MODELNUMBER
 70
     0
1001
ACDBATTR
1070
     0
1070
     1
  0
ATTDEF
  5
3931
  8
DEFPOINTS
 10
3821.5321831281239611
 20
222.1393597994452023
 30
0.0
 40
0.001
  1
MCALLISTER
  3

  2
TRADENAME
 70
     0
1001
ACDBATTR
1070
     0
1070
     1
  0
ATTDEF
  5
3932
  8
DEFPOINTS
 10
3821.5321831281239611
 20
222.1376931327785087
 30
0.0
 40
0.001
  1
KITCHEN SINK
  3

  2
PRODUCT
 70
     0
1001
ACDBATTR
1070
     0
1070
     1
  0
LINE
  5
8BC9
  8
0
 10
3805.8457318803561975
 20
222.1366747210196024
 30
0.0
 11
3837.2257318803558519
 21
222.1366747210196024
 31
0.0
  0
LINE
  5
8BCA
  8
0
 10
3805.8457318803561975
 20
222.0886747210196006
 30
0.0
 11
3805.8457318803561975
 21
222.1366747210196024
 31
0.0
  0
LINE
  5
8BCB
  8
0
 10
3806.7967665680607752
 20
218.9268911155319017
 30
0.0
 11
3806.7203474640559762
 21
221.8452189580970071
 31
0.0
  0
LINE
  5
8BCC
  8
0
 10
3811.4541334332548104
 20
216.590310349562202
 30
0.0
 11
3809.00346924120322
 21
216.688959273015314
 31
0.0
  0
LINE
  5
8BCD
  8
0
 10
3812.0257318803560338
 20
216.3299906709196136
 30
0.0
 11
3811.570162039787192
 21
216.4780142851743108
 31
0.0
  0
LINE
  5
8BCE
  8
0
 10
3811.5311839507407967
 20
216.5063193010776104
 30
0.0
 11
3811.4802629332129982
 21
216.5763357003021099
 31
0.0
  0
LINE
  5
8BCF
  8
0
 10
3812.0257318803560338
 20
216.3299906709196136
 30
0.0
 11
3815.6457318803559247
 21
216.3299906709196136
 31
0.0
  0
ARC
  5
8BD0
  8
0
 10
3811.5942653653560228
 20
216.552196693443193
 30
0.0
 40
0.078
 50
216.0273733369895979
 51
251.9999999949656058
  0
ARC
  5
8BD1
  8
0
 10
3811.4527659063301144
 20
216.5563378626042947
 30
0.0
 40
0.034
 50
36.0273733369909266
 51
87.6948628609713552
  0
LINE
  5
8BD2
  8
0
 10
3811.454133533174172
 20
216.5903103455399048
 30
0.0
 11
3816.2173302275391507
 21
216.5903103455399048
 31
0.0
  0
LINE
  5
8BD3
  8
0
 10
3811.570162039787192
 20
216.4780142851743108
 30
0.0
 11
3816.1013017209238569
 21
216.4780142851743108
 31
0.0
  0
ARC
  5
8BD4
  8
0
 10
3809.0959784155038506
 20
218.9870980966441039
 30
0.0
 40
2.2999999999999989
 50
181.5000000001020908
 51
267.6948628609454204
  0
ARC
  5
8BD5
  8
0
 10
3806.4704331328121043
 20
221.8386747210196006
 30
0.0
 40
0.25
 50
1.5000000001021241
 51
90.0
  0
LINE
  5
8BD6
  8
0
 10
3820.8746971926520928
 20
218.9268911155319017
 30
0.0
 11
3820.9511162966550728
 21
221.8452189580970071
 31
0.0
  0
LINE
  5
8BD7
  8
0
 10
3816.2173303274571481
 20
216.590310349562202
 30
0.0
 11
3818.6679945195101027
 21
216.688959273015314
 31
0.0
  0
LINE
  5
8BD8
  8
0
 10
3815.6457318803559247
 20
216.3299906709196136
 30
0.0
 11
3816.1013017209238569
 21
216.4780142851743108
 31
0.0
  0
LINE
  5
8BD9
  8
0
 10
3816.1402798099711617
 20
216.5063193010776104
 30
0.0
 11
3816.1912008274989603
 21
216.5763357003021099
 31
0.0
  0
ARC
  5
8BDA
  8
0
 10
3816.0771983953568451
 20
216.552196693443193
 30
0.0
 40
0.078
 50
288.0000000050343942
 51
323.9726266630103737
  0
ARC
  5
8BDB
  8
0
 10
3816.2186978543818441
 20
216.5563378626042947
 30
0.0
 40
0.034
 50
92.3051371390286448
 51
143.9726266630090947
  0
ARC
  5
8BDC
  8
0
 10
3818.5754853452081079
 20
218.9870980966441039
 30
0.0
 40
2.2999999999999989
 50
272.3051371390545796
 51
358.4999999998979092
  0
ARC
  5
8BDD
  8
0
 10
3821.2010306278989447
 20
221.8386747210196006
 30
0.0
 40
0.25
 50
90.0
 51
178.4999999998962039
  0
LINE
  5
8BDE
  8
0
 10
3805.8457318803561975
 20
222.0886747210196006
 30
0.0
 11
3837.2257318803558519
 21
222.0886747210196006
 31
0.0
  0
LINE
  5
8BDF
  8
0
 10
3837.2257318803558519
 20
222.0886747210196006
 30
0.0
 11
3837.2257318803558519
 21
222.1366747210196024
 31
0.0
  0
LINE
  5
8BE0
  8
0
 10
3836.2746971926508195
 20
218.9268911155319017
 30
0.0
 11
3836.3511162966560732
 21
221.8452189580970071
 31
0.0
  0
LINE
  5
8BE1
  8
0
 10
3831.6173303274567843
 20
216.590310349562202
 30
0.0
 11
3834.0679945195088294
 21
216.688959273015314
 31
0.0
  0
LINE
  5
8BE2
  8
0
 10
3831.0457318803560156
 20
216.3299906709196136
 30
0.0
 11
3831.5013017209248574
 21
216.4780142851743108
 31
0.0
  0
LINE
  5
8BE3
  8
0
 10
3831.5402798099707979
 20
216.5063193010776104
 30
0.0
 11
3831.5912008274990512
 21
216.5763357003021099
 31
0.0
  0
LINE
  5
8BE4
  8
0
 10
3831.0457318803560156
 20
216.3299906709196136
 30
0.0
 11
3827.4257318803561247
 21
216.3299906709196136
 31
0.0
  0
ARC
  5
8BE5
  8
0
 10
3831.4771983953560266
 20
216.552196693443193
 30
0.0
 40
0.078
 50
288.0000000050343942
 51
323.9726266630103737
  0
ARC
  5
8BE6
  8
0
 10
3831.618697854381935
 20
216.5563378626042947
 30
0.0
 40
0.034
 50
92.3051371390286448
 51
143.9726266630090947
  0
LINE
  5
8BE7
  8
0
 10
3831.6173302275378774
 20
216.5903103455399048
 30
0.0
 11
3826.8541335331728988
 21
216.5903103455399048
 31
0.0
  0
LINE
  5
8BE8
  8
0
 10
3831.5013017209248574
 20
216.4780142851743108
 30
0.0
 11
3826.9701620397881925
 21
216.4780142851743108
 31
0.0
  0
ARC
  5
8BE9
  8
0
 10
3833.9754853452081989
 20
218.9870980966441039
 30
0.0
 40
2.2999999999999989
 50
272.3051371390545796
 51
358.4999999998979092
  0
ARC
  5
8BEA
  8
0
 10
3836.6010306278999451
 20
221.8386747210196006
 30
0.0
 40
0.25
 50
90.0
 51
178.4999999998962039
  0
LINE
  5
8BEB
  8
0
 10
3822.1967665680599566
 20
218.9268911155319017
 30
0.0
 11
3822.1203474640569766
 21
221.8452189580970071
 31
0.0
  0
LINE
  5
8BEC
  8
0
 10
3826.8541334332549013
 20
216.590310349562202
 30
0.0
 11
3824.4034692412019467
 21
216.688959273015314
 31
0.0
  0
LINE
  5
8BED
  8
0
 10
3827.4257318803561247
 20
216.3299906709196136
 30
0.0
 11
3826.9701620397881925
 21
216.4780142851743108
 31
0.0
  0
LINE
  5
8BEE
  8
0
 10
3826.9311839507408877
 20
216.5063193010776104
 30
0.0
 11
3826.8802629332130891
 21
216.5763357003021099
 31
0.0
  0
ARC
  5
8BEF
  8
0
 10
3826.9942653653552043
 20
216.552196693443193
 30
0.0
 40
0.078
 50
216.0273733369895979
 51
251.9999999949656058
  0
ARC
  5
8BF0
  8
0
 10
3826.8527659063302053
 20
216.5563378626042947
 30
0.0
 40
0.034
 50
36.0273733369909266
 51
87.6948628609713552
  0
ARC
  5
8BF1
  8
0
 10
3824.4959784155039415
 20
218.9870980966441039
 30
0.0
 40
2.2999999999999989
 50
181.5000000001020908
 51
267.6948628609454204
  0
ARC
  5
8BF2
  8
0
 10
3821.8704331328131047
 20
221.8386747210196006
 30
0.0
 40
0.25
 50
1.5000000001021241
 51
90.0
  0
ENDSEC
  0
EOF
