  0
SECTION
  2
HEADER
  9
$ACADVER
  1
AC1009
  9
$INSBASE
 10
3166.529666645954876
 20
134.0099631076512026
 30
0.0
  9
$EXTMIN
 10
3159.8587738569531211
 20
134.0052967648450135
 30
-0.0000000349181948
  9
$EXTMAX
 10
3173.1735298396829421
 20
134.7247826139908966
 30
0.0000000814935746
  9
$LIMMIN
 10
0.0
 20
0.0
  9
$LIMMAX
 10
11.6929133858000007
 20
8.2677165353999982
  9
$ORTHOMODE
 70
     1
  9
$REGENMODE
 70
     1
  9
$FILLMODE
 70
     1
  9
$QTEXTMODE
 70
     0
  9
$MIRRTEXT
 70
     0
  9
$DRAGMODE
 70
     2
  9
$LTSCALE
 40
0.6431102362
  9
$OSMODE
 70
  4095
  9
$ATTMODE
 70
     1
  9
$TEXTSIZE
 40
0.2
  9
$TRACEWID
 40
0.05
  9
$TEXTSTYLE
  7
STANDARD
  9
$CLAYER
  8
0
  9
$CELTYPE
  6
BYLAYER
  9
$CECOLOR
 62
   256
  9
$DIMSCALE
 40
1.0
  9
$DIMASZ
 40
0.1875
  9
$DIMEXO
 40
0.0625
  9
$DIMDLI
 40
0.4443307087
  9
$DIMRND
 40
0.0
  9
$DIMDLE
 40
0.0
  9
$DIMEXE
 40
0.125
  9
$DIMTP
 40
0.01
  9
$DIMTM
 40
0.01
  9
$DIMTXT
 40
2.0
  9
$DIMCEN
 40
0.1052362205
  9
$DIMTSZ
 40
0.0
  9
$DIMTOL
 70
     1
  9
$DIMLIM
 70
     0
  9
$DIMTIH
 70
     1
  9
$DIMTOH
 70
     1
  9
$DIMSE1
 70
     0
  9
$DIMSE2
 70
     0
  9
$DIMTAD
 70
     0
  9
$DIMZIN
 70
     0
  9
$DIMBLK
  1

  9
$DIMASO
 70
     1
  9
$DIMSHO
 70
     1
  9
$DIMPOST
  1
\X
  9
$DIMAPOST
  1

  9
$DIMALT
 70
     1
  9
$DIMALTD
 70
     2
  9
$DIMALTF
 40
25.3999999999999986
  9
$DIMLFAC
 40
1.0
  9
$DIMTOFL
 70
     0
  9
$DIMTVP
 40
0.0
  9
$DIMTIX
 70
     0
  9
$DIMSOXD
 70
     0
  9
$DIMSAH
 70
     0
  9
$DIMBLK1
  1

  9
$DIMBLK2
  1

  9
$DIMSTYLE
  2
STANDARD
  9
$DIMCLRD
 70
     0
  9
$DIMCLRE
 70
     0
  9
$DIMCLRT
 70
     0
  9
$DIMTFAC
 40
1.0
  9
$DIMGAP
 40
0.09
  9
$LUNITS
 70
     2
  9
$LUPREC
 70
     4
  9
$SKETCHINC
 40
0.1
  9
$FILLETRAD
 40
0.0
  9
$AUNITS
 70
     0
  9
$AUPREC
 70
     0
  9
$MENU
  1
.
  9
$ELEVATION
 40
0.0
  9
$PELEVATION
 40
0.0
  9
$THICKNESS
 40
0.0
  9
$LIMCHECK
 70
     0
  9
$BLIPMODE
 70
     0
  9
$CHAMFERA
 40
0.0
  9
$CHAMFERB
 40
0.0
  9
$SKPOLY
 70
     0
  9
$TDCREATE
 40
2458060.468368056230247
  9
$TDUPDATE
 40
2459565.5347916670143604
  9
$TDINDWG
 40
0.4242200231
  9
$TDUSRTIMER
 40
0.4242200231
  9
$USRTIMER
 70
     1
  9
$ANGBASE
 50
0.0
  9
$ANGDIR
 70
     0
  9
$PDMODE
 70
     0
  9
$PDSIZE
 40
0.3125
  9
$PLINEWID
 40
0.0
  9
$COORDS
 70
     1
  9
$SPLFRAME
 70
     0
  9
$SPLINETYPE
 70
     6
  9
$SPLINESEGS
 70
     8
  9
$ATTDIA
 70
     1
  9
$ATTREQ
 70
     1
  9
$HANDLING
 70
     1
  9
$HANDSEED
  5
25691
  9
$SURFTAB1
 70
     6
  9
$SURFTAB2
 70
     6
  9
$SURFTYPE
 70
     6
  9
$SURFU
 70
     6
  9
$SURFV
 70
     6
  9
$UCSNAME
  2

  9
$UCSORG
 10
0.0
 20
0.0
 30
0.0
  9
$UCSXDIR
 10
1.0
 20
0.0
 30
0.0
  9
$UCSYDIR
 10
0.0
 20
1.0
 30
0.0
  9
$PUCSNAME
  2

  9
$PUCSORG
 10
0.0
 20
0.0
 30
0.0
  9
$PUCSXDIR
 10
1.0
 20
0.0
 30
0.0
  9
$PUCSYDIR
 10
0.0
 20
1.0
 30
0.0
  9
$USERI1
 70
     0
  9
$USERI2
 70
     0
  9
$USERI3
 70
     0
  9
$USERI4
 70
     0
  9
$USERI5
 70
     0
  9
$USERR1
 40
0.0
  9
$USERR2
 40
0.0
  9
$USERR3
 40
0.0
  9
$USERR4
 40
0.0
  9
$USERR5
 40
0.0
  9
$WORLDVIEW
 70
     1
  9
$SHADEDGE
 70
     3
  9
$SHADEDIF
 70
    70
  9
$TILEMODE
 70
     1
  9
$MAXACTVP
 70
    64
  9
$PLIMCHECK
 70
     0
  9
$PEXTMIN
 10
1.0000000000000000E+20
 20
1.0000000000000000E+20
 30
1.0000000000000000E+20
  9
$PEXTMAX
 10
-1.0000000000000000E+20
 20
-1.0000000000000000E+20
 30
-1.0000000000000000E+20
  9
$PLIMMIN
 10
0.0
 20
0.0
  9
$PLIMMAX
 10
12.0
 20
9.0
  9
$UNITMODE
 70
     0
  9
$VISRETAIN
 70
     1
  9
$PLINEGEN
 70
     0
  9
$PSLTSCALE
 70
     1
  0
ENDSEC
  0
SECTION
  2
TABLES
  0
TABLE
  2
VPORT
 70
     1
  0
VPORT
  2
*ACTIVE
 70
     0
 10
0.0
 20
0.0
 11
1.0
 21
1.0
 12
-637.027915534494241
 22
8.3697774926680637
 13
0.0
 23
0.0
 14
1.0
 24
1.0
 15
0.0
 25
0.0
 16
0.0
 26
0.0
 36
17.1152628219792007
 17
3803.5440673828129547
 27
125.9952621967499056
 37
0.0
 40
5.6962611712480218
 41
2.344785276073619
 42
50.0
 43
0.0
 44
0.0
 50
0.0
 51
0.0
 71
     0
 72
   100
 73
     1
 74
     1
 75
     0
 76
     0
 77
     0
 78
     0
  0
ENDTAB
  0
TABLE
  2
LTYPE
 70
     2
  0
LTYPE
  2
CONTINUOUS
 70
     0
  3
Solid line
 72
    65
 73
     0
 40
0.0
  0
LTYPE
  2
PHANTOM2
 70
     0
  3
___ _ _ ___ _ _ ___ _ _ ___ _ _
 72
    65
 73
     6
 40
1.25
 49
0.625
 49
-0.125
 49
0.125
 49
-0.125
 49
0.125
 49
-0.125
  0
ENDTAB
  0
TABLE
  2
LAYER
 70
     2
  0
LAYER
  2
0
 70
     0
 62
   255
  6
CONTINUOUS
  0
LAYER
  2
DEFPOINTS
 70
     0
 62
     7
  6
CONTINUOUS
  0
ENDTAB
  0
TABLE
  2
STYLE
 70
     1
  0
STYLE
  2
STANDARD
 70
     0
 40
0.0
 41
0.8
 50
0.0
 71
     0
 42
0.2
  3
txt
  4

  0
ENDTAB
  0
TABLE
  2
VIEW
 70
     0
  0
ENDTAB
  0
TABLE
  2
UCS
 70
     0
  0
ENDTAB
  0
TABLE
  2
APPID
 70
     9
  0
APPID
  2
ACAD
 70
     0
  0
APPID
  2
ACAD_MLEADERVER
 70
     0
  0
APPID
  2
ACAD_EXEMPT_FROM_CAD_STANDARDS
 70
     0
  0
APPID
  2
ACAD_NAV_VCDISPLAY
 70
     0
  0
APPID
  2
ACAECLAYERSTANDARD
 70
     0
  0
APPID
  2
ACCMTRANSPARENCY
 70
     0
  0
APPID
  2
ACAD_DSTYLE_DIMJAG
 70
     0
  0
APPID
  2
ACAD_DSTYLE_DIMTALN
 70
     0
  0
APPID
  2
ACDBATTR
 70
     0
  0
ENDTAB
  0
TABLE
  2
DIMSTYLE
 70
     1
  0
DIMSTYLE
  2
STANDARD
 70
     0
  3

  4

  5

  6

  7

 40
1.0
 41
0.1875
 42
0.0625
 43
0.38
 44
0.125
 45
0.0
 46
0.0
 47
0.01
 48
0.01
140
0.15625
141
0.09
142
0.0
143
25.3999999999999986
144
1.0
145
0.0
146
1.0
147
0.09
 71
     1
 72
     0
 73
     1
 74
     1
 75
     0
 76
     0
 77
     0
 78
     4
170
     0
171
     2
172
     0
173
     0
174
     0
175
     0
176
     0
177
     0
178
     0
  0
ENDTAB
  0
ENDSEC
  0
SECTION
  2
BLOCKS
  0
BLOCK
  8
0
  2
$MODEL_SPACE
 70
     0
 10
0.0
 20
0.0
 30
0.0
  3
$MODEL_SPACE
  1

  0
ENDBLK
  5
21
  8
0
  0
BLOCK
 67
     1
  8
0
  2
$PAPER_SPACE
 70
     0
 10
0.0
 20
0.0
 30
0.0
  3
$PAPER_SPACE
  1

  0
ENDBLK
  5
1D
 67
     1
  8
0
  0
ENDSEC
  0
SECTION
  2
ENTITIES
  0
ATTDEF
  5
2432A
  8
DEFPOINTS
 10
3166.5307565998791688
 20
134.0141915156578136
 30
0.0
 40
0.001
  1
K-31734
  3

  2
MODELNUMBER
 70
     0
1001
ACDBATTR
1070
     0
1070
     1
  0
ATTDEF
  5
2432B
  8
DEFPOINTS
 10
3166.5307565998791688
 20
134.0125248489912053
 30
0.0
 40
0.001
  1

  3

  2
TRADENAME
 70
     0
1001
ACDBATTR
1070
     0
1070
     1
  0
ATTDEF
  5
2432C
  8
DEFPOINTS
 10
3166.5307565998791688
 20
134.0108581823245117
 30
0.0
 40
0.001
  1
SINK RACK
  3

  2
PRODUCT
 70
     0
1001
ACDBATTR
1070
     0
1070
     1
  0
LINE
  5
25492
  8
0
 10
3160.1900010036438289
 20
134.490713107651203
 30
0.0
 11
3163.2302341367571898
 21
134.4907131076510893
 31
0.0
  0
LINE
  5
25493
  8
0
 10
3160.1900010036438289
 20
134.3032131076510893
 30
0.0
 11
3163.2304592154450802
 21
134.303213107651203
 31
0.0
  0
ARC
  5
25494
  8
0
 10
3160.1746444545287886
 20
134.3969631076516009
 30
0.0
 40
0.095000000000855
 50
90.000299863266946
 51
269.9998317195415893
  0
ARC
  5
25495
  8
0
 10
3162.5916438638719228
 20
134.4549529014435052
 30
0.0
 40
1.238085885125275
 50
1.655200295926254
 51
8.3982140607076765
  0
ARC
  5
25496
  8
0
 10
3163.7155213970831937
 20
134.6208769010792139
 30
0.0
 40
0.1020262549515884
 50
8.3982140607076765
 51
29.8849843208312507
  0
ARC
  5
25497
  8
0
 10
3163.7482487460551965
 20
134.6396845501641053
 30
0.0
 40
0.0642796387479665
 50
29.8849843208326718
 51
82.6056994039935262
  0
ARC
  5
25498
  8
0
 10
3163.5296698291249413
 20
132.8089246718780885
 30
0.0
 40
1.9080384357756539
 50
83.1718085375941456
 51
96.8283826348137637
  0
ARC
  5
25499
  8
0
 10
3163.3112098248370785
 20
134.6387204863598868
 30
0.0
 40
0.0652510519534564
 50
97.3944917684333973
 51
163.6445052508294964
  0
ARC
  5
2549A
  8
0
 10
3164.0171212887448746
 20
134.4880613434671091
 30
0.0
 40
0.7868916201207762
 50
167.5955147343649116
 51
179.8069172682810972
  0
ARC
  5
2549B
  8
0
 10
3165.6116580993211755
 20
134.3998216806182882
 30
0.0
 40
2.3831578506226929
 50
177.814262073413289
 51
184.8709615006279989
  0
ARC
  5
2549C
  8
0
 10
3163.5673536524232077
 20
134.2271138302656937
 30
0.0
 40
0.3315749340782699
 50
185.1304651968644066
 51
194.8704764487214049
  0
ARC
  5
2549D
  8
0
 10
3163.3198165713461094
 20
134.161487016222793
 30
0.0
 40
0.0754861931095858
 50
194.944678268665001
 51
228.3599792083132911
  0
ARC
  5
2549E
  8
0
 10
3163.3103291910761072
 20
134.1525822538997943
 30
0.0
 40
0.0625384963501237
 50
229.4351550477024091
 51
263.1009531559028005
  0
ARC
  5
2549F
  8
0
 10
3163.5296691920470948
 20
135.9850122026396093
 30
0.0
 40
1.90804909520243
 50
263.1718276629367779
 51
276.8281422862916088
  0
ARC
  5
254A0
  8
0
 10
3163.7479794348100768
 20
134.1550122841593122
 30
0.0
 40
0.065078712971521
 50
277.5412341157070273
 51
338.8689984079600777
  0
ARC
  5
254A1
  8
0
 10
3163.5209497863052093
 20
134.2263015926035905
 30
0.0
 40
0.3029315735771736
 50
341.77328345677671
 51
356.7064803530427071
  0
ARC
  5
254A2
  8
0
 10
3162.0905336943360453
 20
134.3633902724635902
 30
0.0
 40
1.7397205943159599
 50
354.9052507930874185
 51
358.0177141787598885
  0
ARC
  5
254A3
  8
0
 10
3163.817036927027857
 20
134.4893908221204981
 30
0.0
 40
0.0031475940044499
 50
24.840521443311701
 51
48.3402173555329213
  0
ARC
  5
254A4
  8
0
 10
3163.8185692772508446
 20
134.4911131267753888
 30
0.0
 40
0.0008422891377228
 50
48.3402173554344685
 51
123.3792417393530059
  0
ARC
  5
254A5
  8
0
 10
3163.8191532305181681
 20
134.4902268166057127
 30
0.0
 40
0.0019036783850821
 50
123.3792417393259058
 51
149.712473032839199
  0
ARC
  5
254A6
  8
0
 10
3163.8279749737371276
 20
134.4850743819874879
 30
0.0
 40
0.0121198780667761
 50
149.712473032839199
 51
158.4773071824191106
  0
ARC
  5
254A7
  8
0
 10
3163.9451636188859993
 20
134.4563571543166915
 30
0.0
 40
0.1326750946505338
 50
165.5247758146865067
 51
176.5456996317572873
  0
ARC
  5
254A8
  8
0
 10
3164.6657269932197778
 20
134.3993170832150952
 30
0.0
 40
0.8554729863442759
 50
175.6401010043954898
 51
185.7080602315043905
  0
ARC
  5
254A9
  8
0
 10
3163.8664361994169667
 20
134.3208819121049942
 30
0.0
 40
0.0523643715152943
 50
187.2959001989048033
 51
198.919029543736201
  0
ARC
  5
254AA
  8
0
 10
3163.8222268302770317
 20
134.3059828928869024
 30
0.0
 40
0.0057175965052715
 50
201.3241153619825923
 51
218.6147200123500909
  0
ARC
  5
254AB
  8
0
 10
3163.8189729832470221
 20
134.3034510039443887
 30
0.0
 40
0.0015959265581298
 50
220.4943038020564927
 51
239.9510068763125048
  0
ARC
  5
254AC
  8
0
 10
3163.8185782148989347
 20
134.3028441624678919
 30
0.0
 40
0.000873789376696
 50
242.4330457145860009
 51
321.5490470898799913
  0
ARC
  5
254AD
  8
0
 10
3163.8175430936830708
 20
134.3040192817844911
 30
0.0
 40
0.0024309636983509
 50
315.0156807292823942
 51
340.6324137252802871
  0
ARC
  5
254AE
  8
0
 10
3163.7239069981328612
 20
134.6055893912946999
 30
0.0
 40
0.097345937736411
 50
18.0663055361012397
 51
25.6656709761342299
  0
ARC
  5
254AF
  8
0
 10
3163.8072736790541057
 20
134.645649564310105
 30
0.0
 40
0.0048536626542805
 50
25.66567097612689
 51
62.4937795224259887
  0
ARC
  5
254B0
  8
0
 10
3163.8085694857968519
 20
134.6481381262136097
 30
0.0
 40
0.0020479443037797
 50
62.4937795224229902
 51
131.7915654359350981
  0
ARC
  5
254B1
  8
0
 10
3163.8194335565831352
 20
134.6381755820187038
 30
0.0
 40
0.0167795230512109
 50
136.7856435838943128
 51
164.6302745027633989
  0
ARC
  5
254B2
  8
0
 10
3164.030443692737208
 20
134.5791315940240054
 30
0.0
 40
0.2358945573702351
 50
164.3862250050341061
 51
174.3703957220224083
  0
ARC
  5
254B3
  8
0
 10
3166.1147934316900319
 20
134.3960175628571108
 30
0.0
 40
2.3282603183222879
 50
174.9176516143085962
 51
184.893971278978114
  0
ARC
  5
254B4
  8
0
 10
3164.1001848665200669
 20
134.2265435005299992
 30
0.0
 40
0.3065530889556335
 50
185.4573540483640954
 51
193.4872419154806096
  0
ARC
  5
254B5
  8
0
 10
3163.8338107521790334
 20
134.1625982600436942
 30
0.0
 40
0.0326112456998571
 50
193.3895121824924956
 51
212.0289702417030924
  0
ARC
  5
254B6
  8
0
 10
3163.8112728647520271
 20
134.1494593131440922
 30
0.0
 40
0.0065863528713362
 50
219.1281231986457954
 51
234.1568639667632965
  0
ARC
  5
254B7
  8
0
 10
3163.8086638299159858
 20
134.1458475316264867
 30
0.0
 40
0.0021307913454259
 50
234.1568639667374043
 51
322.7228680209311165
  0
ARC
  5
254B8
  8
0
 10
3163.7760093627939568
 20
134.1671252342983962
 30
0.0
 40
0.041100448458509
 50
326.6947011446703755
 51
347.7104191811334886
  0
CIRCLE
  5
254B9
  8
0
 10
3162.779666645954876
 20
134.2502131076510921
 30
0.0
 40
0.0527499999999996
  0
CIRCLE
  5
254BA
  8
0
 10
3162.0296666459557855
 20
134.2502131076510921
 30
0.0
 40
0.0527499999999996
  0
CIRCLE
  5
254BB
  8
0
 10
3161.2796666459557855
 20
134.2502131076510921
 30
0.0
 40
0.0527499999999996
  0
CIRCLE
  5
254BC
  8
0
 10
3160.5290666459559361
 20
134.2502131076510921
 30
0.0
 40
0.0527499999999996
  0
LINE
  5
254BD
  8
0
 10
3160.5290666459559361
 20
134.1974631076510889
 30
0.0
 11
3163.2371071209399815
 21
134.1974631076510889
 31
0.0
  0
LINE
  5
254BE
  8
0
 10
3163.8225055523839728
 20
134.1974631076510889
 30
0.0
 11
3169.2368277395271434
 21
134.1974631076510889
 31
0.0
  0
LINE
  5
254BF
  8
0
 10
3160.5290666459559361
 20
134.0099631076512026
 30
0.0
 11
3172.5302666459551801
 21
134.0099631076512026
 31
0.0
  0
LINE
  5
254C0
  8
0
 10
3160.1854749005560734
 20
134.1404920788511106
 30
0.0
 11
3160.3106859068561789
 21
134.0683640404004109
 31
0.0
  0
ARC
  5
254C1
  8
0
 10
3160.5290666459559361
 20
134.4474631076510889
 30
0.0
 40
0.437499999999994
 50
240.0558245464158063
 51
270.0
  0
LINE
  5
254C2
  8
0
 10
3160.1854749005560734
 20
134.1404920788511106
 30
0.0
 11
3160.2790666458990927
 21
134.302963107683496
 31
0.0
  0
LINE
  5
254C3
  8
0
 10
3160.2790666458990927
 20
134.302963107683496
 30
0.0
 11
3160.4042776521800988
 21
134.2308350692368037
 31
0.0
  0
ARC
  5
254C4
  8
0
 10
3160.5290666459959539
 20
134.4474631077206084
 30
0.0
 40
0.2500000000694813
 50
240.0558245439266045
 51
269.9999999908285986
  0
CIRCLE
  5
254C5
  8
0
 10
3164.279666645954876
 20
134.2502131076510921
 30
0.0
 40
0.0527499999999996
  0
CIRCLE
  5
254C6
  8
0
 10
3165.029666645954876
 20
134.2502131076510921
 30
0.0
 40
0.0527499999999996
  0
CIRCLE
  5
254C7
  8
0
 10
3165.779666645954876
 20
134.2502131076510921
 30
0.0
 40
0.0527499999999996
  0
CIRCLE
  5
254C8
  8
0
 10
3166.529666645954876
 20
134.2502131076510921
 30
0.0
 40
0.0527499999999996
  0
LINE
  5
254C9
  8
0
 10
3163.8172466832279497
 20
134.4907131076510893
 30
0.0
 11
3169.2420866086831666
 21
134.4907131076510893
 31
0.0
  0
LINE
  5
254CA
  8
0
 10
3163.8172249106910385
 20
134.303213107651203
 30
0.0
 11
3169.2421083812200777
 21
134.303213107651203
 31
0.0
  0
LINE
  5
254CD
  8
0
 10
3172.8693322882668326
 20
134.490713107651203
 30
0.0
 11
3169.8290991551539264
 21
134.4907131076510893
 31
0.0
  0
LINE
  5
254CE
  8
0
 10
3172.8693322882668326
 20
134.3032131076510893
 30
0.0
 11
3169.8288740764660361
 21
134.303213107651203
 31
0.0
  0
ARC
  5
254CF
  8
0
 10
3172.8846888373818729
 20
134.3969631076516009
 30
0.0
 40
0.0950000000008527
 50
270.0001682804843881
 51
89.9997001367069913
  0
ARC
  5
254D0
  8
0
 10
3170.4676894280391934
 20
134.4549529014435052
 30
0.0
 40
1.238085885125275
 50
171.6017859392923128
 51
178.3447997040736936
  0
ARC
  5
254D1
  8
0
 10
3169.3438118948279225
 20
134.6208769010792139
 30
0.0
 40
0.1020262549515884
 50
150.1150156791686925
 51
171.6017859392923128
  0
ARC
  5
254D2
  8
0
 10
3169.3110845458568292
 20
134.6396845501641053
 30
0.0
 40
0.0642796387479665
 50
97.3943005960065022
 51
150.1150156791672998
  0
ARC
  5
254D3
  8
0
 10
3169.5296634627861749
 20
132.8089246718780885
 30
0.0
 40
1.9080384357756539
 50
83.1716173651862363
 51
96.8281914624058686
  0
ARC
  5
254D4
  8
0
 10
3169.7481234670740378
 20
134.6387204863598868
 30
0.0
 40
0.0652510519534564
 50
16.3554947491705214
 51
82.6055082315666169
  0
ARC
  5
254D5
  8
0
 10
3169.0422120031657869
 20
134.4880613434671091
 30
0.0
 40
0.7868916201207762
 50
0.1930827317189195
 51
12.4044852656350901
  0
ARC
  5
254D6
  8
0
 10
3167.4476751925890312
 20
134.3998216806182882
 30
0.0
 40
2.3831578506226929
 50
355.1290384993719726
 51
2.1857379265866572
  0
ARC
  5
254D7
  8
0
 10
3169.4919796394879086
 20
134.2271138302656937
 30
0.0
 40
0.3315749340782699
 50
345.1295235512785098
 51
354.8695348031355934
  0
ARC
  5
254D8
  8
0
 10
3169.7395167205650068
 20
134.161487016222793
 30
0.0
 40
0.0754861931095858
 50
311.6400207916865952
 51
345.0553217313350274
  0
ARC
  5
254D9
  8
0
 10
3169.749004100835009
 20
134.1525822538997943
 30
0.0
 40
0.0625384963501237
 50
276.8990468440970858
 51
310.5648449522976193
  0
ARC
  5
254DA
  8
0
 10
3169.5296640998640214
 20
135.9850122026396093
 30
0.0
 40
1.90804909520243
 50
263.1718577137083912
 51
276.8281723370632221
  0
ARC
  5
254DB
  8
0
 10
3169.31135385710013
 20
134.1550122841593122
 30
0.0
 40
0.065078712971521
 50
201.1310015920398939
 51
262.4587658842929727
  0
ARC
  5
254DC
  8
0
 10
3169.538383505605907
 20
134.2263015926035905
 30
0.0
 40
0.3029315735771736
 50
183.2935196469572077
 51
198.22671654322329
  0
ARC
  5
254DD
  8
0
 10
3170.9687995975750709
 20
134.3633902724635902
 30
0.0
 40
1.7397205943159599
 50
181.9822858212401115
 51
185.0947492069126099
  0
ARC
  5
254DE
  8
0
 10
3169.2422963648828045
 20
134.4893908221204981
 30
0.0
 40
0.0031475940044499
 50
131.6597826444669863
 51
155.159478556688299
  0
ARC
  5
254DF
  8
0
 10
3169.2407640146598169
 20
134.4911131267753888
 30
0.0
 40
0.0008422891377228
 50
56.6207582606469586
 51
131.659782644565496
  0
ARC
  5
254E0
  8
0
 10
3169.2401800613938576
 20
134.4902268166057127
 30
0.0
 40
0.0019036783850821
 50
30.2875269671607086
 51
56.62075826067408
  0
ARC
  5
254E1
  8
0
 10
3169.2313583181739887
 20
134.4850743819874879
 30
0.0
 40
0.0121198780667761
 50
21.5226928175808787
 51
30.2875269671607086
  0
ARC
  5
254E2
  8
0
 10
3169.1141696730260264
 20
134.4563571543166915
 30
0.0
 40
0.1326750946505338
 50
3.4543003682426838
 51
14.4752241853134702
  0
ARC
  5
254E3
  8
0
 10
3168.3936062986908837
 20
134.3993170832150952
 30
0.0
 40
0.8554729863442759
 50
354.2919397684955243
 51
4.359898995604472
  0
ARC
  5
254E4
  8
0
 10
3169.1928970924941495
 20
134.3208819121049942
 30
0.0
 40
0.0523643715152943
 50
341.080970456263799
 51
352.7040998010951967
  0
ARC
  5
254E5
  8
0
 10
3169.2371064616340846
 20
134.3059828928869024
 30
0.0
 40
0.0057175965052715
 50
321.3852799876498807
 51
338.675884638017294
  0
ARC
  5
254E6
  8
0
 10
3169.2403603086640942
 20
134.3034510039443887
 30
0.0
 40
0.0015959265581298
 50
300.0489931236875236
 51
319.5056961979435073
  0
ARC
  5
254E7
  8
0
 10
3169.2407550770130911
 20
134.3028441624678919
 30
0.0
 40
0.000873789376696
 50
218.4509529101200087
 51
297.5669542854139991
  0
ARC
  5
254E8
  8
0
 10
3169.2417901982280455
 20
134.3040192817844911
 30
0.0
 40
0.0024309636983509
 50
199.3675862747195993
 51
224.9843192707176911
  0
ARC
  5
254E9
  8
0
 10
3169.3354262937791646
 20
134.6055893912946999
 30
0.0
 40
0.097345937736411
 50
154.3343290238657062
 51
161.933694463898803
  0
ARC
  5
254EA
  8
0
 10
3169.2520596128570105
 20
134.645649564310105
 30
0.0
 40
0.0048536626542805
 50
117.5062204775740042
 51
154.3343290238730958
  0
ARC
  5
254EB
  8
0
 10
3169.2507638061138096
 20
134.6481381262136097
 30
0.0
 40
0.0020479443037797
 50
48.2084345640648522
 51
117.5062204775770027
  0
ARC
  5
254EC
  8
0
 10
3169.2398997353288905
 20
134.6381755820187038
 30
0.0
 40
0.0167795230512109
 50
15.3697254972366206
 51
43.2143564161057085
  0
ARC
  5
254ED
  8
0
 10
3169.0288895991739082
 20
134.5791315940240054
 30
0.0
 40
0.2358945573702351
 50
5.6296042779776023
 51
15.6137749949658904
  0
ARC
  5
254EE
  8
0
 10
3166.9445398602201749
 20
134.3960175628571108
 30
0.0
 40
2.3282603183222879
 50
355.1060287210219144
 51
5.0823483856913434
  0
ARC
  5
254EF
  8
0
 10
3168.9591484253910494
 20
134.2265435005299992
 30
0.0
 40
0.3065530889556335
 50
346.5127580845194188
 51
354.5426459516360183
  0
ARC
  5
254F0
  8
0
 10
3169.2255225397329923
 20
134.1625982600436942
 30
0.0
 40
0.0326112456998571
 50
327.9710297582968792
 51
346.6104878175074759
  0
ARC
  5
254F1
  8
0
 10
3169.2480604271581797
 20
134.1494593131440922
 30
0.0
 40
0.0065863528713362
 50
305.8431360332367035
 51
320.8718768013541762
  0
ARC
  5
254F2
  8
0
 10
3169.2506694619951304
 20
134.1458475316264867
 30
0.0
 40
0.0021307913454259
 50
217.277131979068912
 51
305.8431360332626241
  0
ARC
  5
254F3
  8
0
 10
3169.2833239291171594
 20
134.1671252342983962
 30
0.0
 40
0.041100448458509
 50
192.2895808188665114
 51
213.3052988553295961
  0
CIRCLE
  5
254F4
  8
0
 10
3170.2796666459557855
 20
134.2502131076510921
 30
0.0
 40
0.0527499999999996
  0
CIRCLE
  5
254F5
  8
0
 10
3171.0296666459557855
 20
134.2502131076510921
 30
0.0
 40
0.0527499999999996
  0
CIRCLE
  5
254F6
  8
0
 10
3171.779666645954876
 20
134.2502131076510921
 30
0.0
 40
0.0527499999999996
  0
CIRCLE
  5
254F7
  8
0
 10
3172.5302666459551801
 20
134.2502131076510921
 30
0.0
 40
0.0527499999999996
  0
LINE
  5
254F8
  8
0
 10
3172.8738583913559523
 20
134.1404920788511106
 30
0.0
 11
3172.7486473850549373
 21
134.0683640404004109
 31
0.0
  0
ARC
  5
254F9
  8
0
 10
3172.5302666459551801
 20
134.4474631076510889
 30
0.0
 40
0.437499999999994
 50
270.0
 51
299.9441754535840801
  0
LINE
  5
254FA
  8
0
 10
3172.8738583913559523
 20
134.1404920788511106
 30
0.0
 11
3172.7802666460120236
 21
134.302963107683496
 31
0.0
  0
LINE
  5
254FB
  8
0
 10
3172.7802666460120236
 20
134.302963107683496
 30
0.0
 11
3172.6550556397310174
 21
134.2308350692368037
 31
0.0
  0
ARC
  5
254FC
  8
0
 10
3172.5302666459160719
 20
134.4474631077206084
 30
0.0
 40
0.2500000000694813
 50
270.0000000091714014
 51
299.9441754560734239
  0
CIRCLE
  5
254FD
  8
0
 10
3168.7796666459557855
 20
134.2502131076510921
 30
0.0
 40
0.0527499999999996
  0
CIRCLE
  5
254FE
  8
0
 10
3168.029666645954876
 20
134.2502131076510921
 30
0.0
 40
0.0527499999999996
  0
CIRCLE
  5
254FF
  8
0
 10
3167.279666645954876
 20
134.2502131076510921
 30
0.0
 40
0.0527499999999996
  0
ARC
  5
25500
  8
0
 10
3160.1739913063511267
 20
134.3889843260074031
 30
0.0
 40
0.102980849783597
 50
81.0563584852312431
 51
89.6368800858783459
  0
ARC
  5
25501
  8
0
 10
3160.1738275409679773
 20
134.4069537088508923
 30
0.0
 40
0.104993777112066
 50
270.4456472162532918
 51
278.8612458519963866
  0
ARC
  5
25502
  8
0
 10
3172.8868162268609012
 20
134.3708723324623975
 30
0.0
 40
0.1211094525898581
 50
91.0062651082280354
 51
98.3004963206962969
  0
ARC
  5
25503
  8
0
 10
3172.8868443460778508
 20
134.4233989691925899
 30
0.0
 40
0.1214549854196157
 50
261.709879076681375
 51
268.9832278560360805
  0
ENDSEC
  0
EOF
