  0
SECTION
  2
HEADER
  9
$ACADVER
  1
AC1009
  9
$INSBASE
 10
3153.0783310503138637
 20
134.0100623183078028
 30
0.0
  9
$EXTMIN
 10
3147.2621188846919722
 20
134.0052967648423135
 30
-0.0000000349181948
  9
$EXTMAX
 10
3159.07163869857186
 20
134.7247826139881113
 30
0.0000000814935746
  9
$LIMMIN
 10
0.0
 20
0.0
  9
$LIMMAX
 10
11.6929133858000007
 20
8.2677165353999982
  9
$ORTHOMODE
 70
     1
  9
$REGENMODE
 70
     1
  9
$FILLMODE
 70
     1
  9
$QTEXTMODE
 70
     0
  9
$MIRRTEXT
 70
     0
  9
$DRAGMODE
 70
     2
  9
$LTSCALE
 40
0.6431102362
  9
$OSMODE
 70
  4095
  9
$ATTMODE
 70
     1
  9
$TEXTSIZE
 40
0.2
  9
$TRACEWID
 40
0.05
  9
$TEXTSTYLE
  7
STANDARD
  9
$CLAYER
  8
0
  9
$CELTYPE
  6
BYLAYER
  9
$CECOLOR
 62
   256
  9
$DIMSCALE
 40
1.0
  9
$DIMASZ
 40
0.1875
  9
$DIMEXO
 40
0.0625
  9
$DIMDLI
 40
0.4443307087
  9
$DIMRND
 40
0.0
  9
$DIMDLE
 40
0.0
  9
$DIMEXE
 40
0.125
  9
$DIMTP
 40
0.01
  9
$DIMTM
 40
0.01
  9
$DIMTXT
 40
2.0
  9
$DIMCEN
 40
0.1052362205
  9
$DIMTSZ
 40
0.0
  9
$DIMTOL
 70
     1
  9
$DIMLIM
 70
     0
  9
$DIMTIH
 70
     1
  9
$DIMTOH
 70
     1
  9
$DIMSE1
 70
     0
  9
$DIMSE2
 70
     0
  9
$DIMTAD
 70
     0
  9
$DIMZIN
 70
     0
  9
$DIMBLK
  1

  9
$DIMASO
 70
     1
  9
$DIMSHO
 70
     1
  9
$DIMPOST
  1
\X
  9
$DIMAPOST
  1

  9
$DIMALT
 70
     1
  9
$DIMALTD
 70
     2
  9
$DIMALTF
 40
25.3999999999999986
  9
$DIMLFAC
 40
1.0
  9
$DIMTOFL
 70
     0
  9
$DIMTVP
 40
0.0
  9
$DIMTIX
 70
     0
  9
$DIMSOXD
 70
     0
  9
$DIMSAH
 70
     0
  9
$DIMBLK1
  1

  9
$DIMBLK2
  1

  9
$DIMSTYLE
  2
STANDARD
  9
$DIMCLRD
 70
     0
  9
$DIMCLRE
 70
     0
  9
$DIMCLRT
 70
     0
  9
$DIMTFAC
 40
1.0
  9
$DIMGAP
 40
0.09
  9
$LUNITS
 70
     2
  9
$LUPREC
 70
     4
  9
$SKETCHINC
 40
0.1
  9
$FILLETRAD
 40
0.0
  9
$AUNITS
 70
     0
  9
$AUPREC
 70
     0
  9
$MENU
  1
.
  9
$ELEVATION
 40
0.0
  9
$PELEVATION
 40
0.0
  9
$THICKNESS
 40
0.0
  9
$LIMCHECK
 70
     0
  9
$BLIPMODE
 70
     0
  9
$CHAMFERA
 40
0.0
  9
$CHAMFERB
 40
0.0
  9
$SKPOLY
 70
     0
  9
$TDCREATE
 40
2458060.468368056230247
  9
$TDUPDATE
 40
2459565.5350231481716037
  9
$TDINDWG
 40
0.4256320602
  9
$TDUSRTIMER
 40
0.4256320602
  9
$USRTIMER
 70
     1
  9
$ANGBASE
 50
0.0
  9
$ANGDIR
 70
     0
  9
$PDMODE
 70
     0
  9
$PDSIZE
 40
0.3125
  9
$PLINEWID
 40
0.0
  9
$COORDS
 70
     1
  9
$SPLFRAME
 70
     0
  9
$SPLINETYPE
 70
     6
  9
$SPLINESEGS
 70
     8
  9
$ATTDIA
 70
     1
  9
$ATTREQ
 70
     1
  9
$HANDLING
 70
     1
  9
$HANDSEED
  5
25695
  9
$SURFTAB1
 70
     6
  9
$SURFTAB2
 70
     6
  9
$SURFTYPE
 70
     6
  9
$SURFU
 70
     6
  9
$SURFV
 70
     6
  9
$UCSNAME
  2

  9
$UCSORG
 10
0.0
 20
0.0
 30
0.0
  9
$UCSXDIR
 10
1.0
 20
0.0
 30
0.0
  9
$UCSYDIR
 10
0.0
 20
1.0
 30
0.0
  9
$PUCSNAME
  2

  9
$PUCSORG
 10
0.0
 20
0.0
 30
0.0
  9
$PUCSXDIR
 10
1.0
 20
0.0
 30
0.0
  9
$PUCSYDIR
 10
0.0
 20
1.0
 30
0.0
  9
$USERI1
 70
     0
  9
$USERI2
 70
     0
  9
$USERI3
 70
     0
  9
$USERI4
 70
     0
  9
$USERI5
 70
     0
  9
$USERR1
 40
0.0
  9
$USERR2
 40
0.0
  9
$USERR3
 40
0.0
  9
$USERR4
 40
0.0
  9
$USERR5
 40
0.0
  9
$WORLDVIEW
 70
     1
  9
$SHADEDGE
 70
     3
  9
$SHADEDIF
 70
    70
  9
$TILEMODE
 70
     1
  9
$MAXACTVP
 70
    64
  9
$PLIMCHECK
 70
     0
  9
$PEXTMIN
 10
1.0000000000000000E+20
 20
1.0000000000000000E+20
 30
1.0000000000000000E+20
  9
$PEXTMAX
 10
-1.0000000000000000E+20
 20
-1.0000000000000000E+20
 30
-1.0000000000000000E+20
  9
$PLIMMIN
 10
0.0
 20
0.0
  9
$PLIMMAX
 10
12.0
 20
9.0
  9
$UNITMODE
 70
     0
  9
$VISRETAIN
 70
     1
  9
$PLINEGEN
 70
     0
  9
$PSLTSCALE
 70
     1
  0
ENDSEC
  0
SECTION
  2
TABLES
  0
TABLE
  2
VPORT
 70
     1
  0
VPORT
  2
*ACTIVE
 70
     0
 10
0.0
 20
0.0
 11
1.0
 21
1.0
 12
-650.3771885911810386
 22
8.3697774926653352
 13
0.0
 23
0.0
 14
1.0
 24
1.0
 15
0.0
 25
0.0
 16
0.0
 26
0.0
 36
17.1152628219792007
 17
3803.5440673828129547
 27
125.9952621967499056
 37
0.0
 40
5.052297560251227
 41
2.344785276073619
 42
50.0
 43
0.0
 44
0.0
 50
0.0
 51
0.0
 71
     0
 72
   100
 73
     1
 74
     1
 75
     0
 76
     0
 77
     0
 78
     0
  0
ENDTAB
  0
TABLE
  2
LTYPE
 70
     2
  0
LTYPE
  2
CONTINUOUS
 70
     0
  3
Solid line
 72
    65
 73
     0
 40
0.0
  0
LTYPE
  2
PHANTOM2
 70
     0
  3
___ _ _ ___ _ _ ___ _ _ ___ _ _
 72
    65
 73
     6
 40
1.25
 49
0.625
 49
-0.125
 49
0.125
 49
-0.125
 49
0.125
 49
-0.125
  0
ENDTAB
  0
TABLE
  2
LAYER
 70
     2
  0
LAYER
  2
0
 70
     0
 62
   255
  6
CONTINUOUS
  0
LAYER
  2
DEFPOINTS
 70
     0
 62
     7
  6
CONTINUOUS
  0
ENDTAB
  0
TABLE
  2
STYLE
 70
     1
  0
STYLE
  2
STANDARD
 70
     0
 40
0.0
 41
0.8
 50
0.0
 71
     0
 42
0.2
  3
txt
  4

  0
ENDTAB
  0
TABLE
  2
VIEW
 70
     0
  0
ENDTAB
  0
TABLE
  2
UCS
 70
     0
  0
ENDTAB
  0
TABLE
  2
APPID
 70
     9
  0
APPID
  2
ACAD
 70
     0
  0
APPID
  2
ACAD_MLEADERVER
 70
     0
  0
APPID
  2
ACAD_EXEMPT_FROM_CAD_STANDARDS
 70
     0
  0
APPID
  2
ACAD_NAV_VCDISPLAY
 70
     0
  0
APPID
  2
ACAECLAYERSTANDARD
 70
     0
  0
APPID
  2
ACCMTRANSPARENCY
 70
     0
  0
APPID
  2
ACAD_DSTYLE_DIMJAG
 70
     0
  0
APPID
  2
ACAD_DSTYLE_DIMTALN
 70
     0
  0
APPID
  2
ACDBATTR
 70
     0
  0
ENDTAB
  0
TABLE
  2
DIMSTYLE
 70
     1
  0
DIMSTYLE
  2
STANDARD
 70
     0
  3

  4

  5

  6

  7

 40
1.0
 41
0.1875
 42
0.0625
 43
0.38
 44
0.125
 45
0.0
 46
0.0
 47
0.01
 48
0.01
140
0.15625
141
0.09
142
0.0
143
25.3999999999999986
144
1.0
145
0.0
146
1.0
147
0.09
 71
     1
 72
     0
 73
     1
 74
     1
 75
     0
 76
     0
 77
     0
 78
     4
170
     0
171
     2
172
     0
173
     0
174
     0
175
     0
176
     0
177
     0
178
     0
  0
ENDTAB
  0
ENDSEC
  0
SECTION
  2
BLOCKS
  0
BLOCK
  8
0
  2
$MODEL_SPACE
 70
     0
 10
0.0
 20
0.0
 30
0.0
  3
$MODEL_SPACE
  1

  0
ENDBLK
  5
21
  8
0
  0
BLOCK
 67
     1
  8
0
  2
$PAPER_SPACE
 70
     0
 10
0.0
 20
0.0
 30
0.0
  3
$PAPER_SPACE
  1

  0
ENDBLK
  5
1D
 67
     1
  8
0
  0
BLOCK
  8
0
  2
_FILLED
 70
     0
 10
0.0
 20
0.0
 30
0.0
  3
_FILLED
  1

  0
SOLID
  5
253D7
  8
0
  6
BYBLOCK
 62
     0
 10
0.0
 20
0.0
 30
0.0
 11
-1.0
 21
0.1666666667
 31
0.0
 12
-1.0
 22
-0.1666666667
 32
0.0
 13
-1.0
 23
-0.1666666667
 33
0.0
  0
ENDBLK
  5
253D8
  8
0
  6
BYBLOCK
 62
     0
  0
ENDSEC
  0
SECTION
  2
ENTITIES
  0
ATTDEF
  5
251C1
  8
DEFPOINTS
 10
3153.0787453004418239
 20
134.0141915156578136
 30
0.0
 40
0.001
  1
K-31734
  3

  2
MODELNUMBER
 70
     0
1001
ACDBATTR
1070
     0
1070
     1
  0
ATTDEF
  5
251C2
  8
DEFPOINTS
 10
3153.0787453004418239
 20
134.0125248489912053
 30
0.0
 40
0.001
  1

  3

  2
TRADENAME
 70
     0
1001
ACDBATTR
1070
     0
1070
     1
  0
ATTDEF
  5
251C3
  8
DEFPOINTS
 10
3153.0787453004418239
 20
134.0108581823245117
 30
0.0
 40
0.001
  1
SINK RACK
  3

  2
PRODUCT
 70
     0
1001
ACDBATTR
1070
     0
1070
     1
  0
LINE
  5
25413
  8
0
 10
3147.6262237520732015
 20
134.4908123183078033
 30
0.0
 11
3158.5304383485549806
 21
134.4908123183078033
 31
0.0
  0
LINE
  5
25414
  8
0
 10
3158.5611588628730715
 20
134.4908123183078033
 30
0.0
 11
3158.5612224830729247
 21
134.4908123183078033
 31
0.0
  0
LINE
  5
25415
  8
0
 10
3147.6262237520732015
 20
134.3033123183078033
 30
0.0
 11
3158.5304383485549806
 21
134.3033123183078033
 31
0.0
  0
LINE
  5
25416
  8
0
 10
3158.5611588628730715
 20
134.3033123183078033
 30
0.0
 11
3158.5612224830729247
 21
134.3033123183078033
 31
0.0
  0
ARC
  5
25417
  8
0
 10
3147.6108634949127918
 20
134.3970623183078033
 30
0.0
 40
0.095
 50
80.6951754814372748
 51
279.3048245185627252
  0
ARC
  5
25418
  8
0
 10
3147.6108634949127918
 20
134.3970623183078033
 30
0.0
 40
0.3199999999999999
 50
17.0357746230479101
 51
321.43240421850129
  0
ARC
  5
25419
  8
0
 10
3147.6108634949127918
 20
134.3970623183078033
 30
0.0
 40
0.3199999999999999
 50
342.9174029662784733
 51
342.9642253769520721
  0
ARC
  5
2541A
  8
0
 10
3147.6108634949127918
 20
134.3970623183078033
 30
0.0
 40
0.2532106279999999
 50
21.7307354176375505
 51
308.0120159707436756
  0
LINE
  5
2541B
  8
0
 10
3147.6964545406140132
 20
134.3030623183078092
 30
0.0
 11
3147.6964545406140132
 21
134.1975623183078028
 31
0.0
  0
LINE
  5
2541C
  8
0
 10
3147.6964545406140132
 20
134.1975623183078028
 30
0.0
 11
3150.8595810503138637
 21
134.1975623183078028
 31
0.0
  0
LINE
  5
2541D
  8
0
 10
3151.0470810503138637
 20
134.1975623183078028
 30
0.0
 11
3153.5477879635468526
 21
134.1975623183078028
 31
0.0
  0
LINE
  5
2541E
  8
0
 10
3149.2482279231139728
 20
134.3030623183078092
 30
0.0
 11
3149.2482279231139728
 21
134.1975623183078028
 31
0.0
  0
LINE
  5
2541F
  8
0
 10
3148.2549474909142191
 20
134.3030623181078056
 30
0.0
 11
3148.2549474909142191
 21
134.1975623183078028
 31
0.0
  0
ARC
  5
25420
  8
0
 10
3150.9336091979689627
 20
134.2214990597767894
 30
0.0
 40
0.0740288731613906
 50
133.2748438410974074
 51
179.7463365845173087
  0
ARC
  5
25421
  8
0
 10
3150.9526090872132045
 20
134.2013191228521123
 30
0.0
 40
0.1017457569251058
 50
89.5934396967685558
 51
133.2748438410974074
  0
ARC
  5
25422
  8
0
 10
3150.9526037540190373
 20
134.2005675383622076
 30
0.0
 40
0.1024973603367675
 50
35.6331966678832188
 51
89.5934396967685558
  0
ARC
  5
25423
  8
0
 10
3150.974228109465912
 20
134.2215131840825109
 30
0.0
 40
0.072853615884977
 50
0.2466473028991054
 51
32.1505094264177913
  0
ARC
  5
25424
  8
0
 10
3150.9622042375049205
 20
134.2266729501301086
 30
0.0
 40
0.0850150485835164
 50
319.0599725063514143
 51
356.7321747951299926
  0
ARC
  5
25425
  8
0
 10
3150.9578857557339688
 20
134.2356277972006922
 30
0.0
 40
0.0942272300352782
 50
288.0040225157778764
 51
316.6667511629372029
  0
ARC
  5
25426
  8
0
 10
3150.9568908371679754
 20
134.2589396427289046
 30
0.0
 40
0.1183979466039378
 50
240.3847513397261082
 51
268.3415874615220105
  0
ARC
  5
25427
  8
0
 10
3150.9513420031248643
 20
134.2601810924466008
 30
0.0
 40
0.1196086333726386
 50
271.0166986038918822
 51
287.3498065506540229
  0
ARC
  5
25428
  8
0
 10
3150.942294115940058
 20
134.2277969934328041
 30
0.0
 40
0.0841536816259225
 50
205.1898854611955016
 51
238.546143117886686
  0
ARC
  5
25429
  8
0
 10
3150.9313637498112257
 20
134.2219639201769894
 30
0.0
 40
0.0717828304544932
 50
180.1094438357505112
 51
204.6900707589848878
  0
ARC
  5
2542A
  8
0
 10
3150.9533310503138637
 20
134.1038123183078028
 30
0.0
 40
0.0937499999999996
 50
180.0
 51
0.0
  0
LINE
  5
2542B
  8
0
 10
3151.0470810503138637
 20
134.1038123183078028
 30
0.0
 11
3151.0470810503138637
 21
134.2218268039077032
 31
0.0
  0
LINE
  5
2542C
  8
0
 10
3150.8595810503138637
 20
134.1038123183078028
 30
0.0
 11
3150.8595810503138637
 21
134.2218268039079021
 31
0.0
  0
LINE
  5
2542D
  8
0
 10
3155.8296185467461328
 20
134.1975623183078028
 30
0.0
 11
3155.2970810503138637
 21
134.1975623183078028
 31
0.0
  0
LINE
  5
2542E
  8
0
 10
3155.1095810503138637
 20
134.1975623183078028
 30
0.0
 11
3153.3289116335131439
 21
134.1975623183078028
 31
0.0
  0
ARC
  5
2542F
  8
0
 10
3158.5457986057140261
 20
134.3970623183078033
 30
0.0
 40
0.095
 50
260.6951754814372748
 51
99.3048245185627252
  0
ARC
  5
25430
  8
0
 10
3158.5457986057140261
 20
134.3970623183078033
 30
0.0
 40
0.3199999999999999
 50
218.56759578149871
 51
162.9642253769521005
  0
ARC
  5
25431
  8
0
 10
3158.5457986057140261
 20
134.3970623183078033
 30
0.0
 40
0.3199999999999999
 50
197.0357746230478995
 51
197.082597033721413
  0
ARC
  5
25432
  8
0
 10
3158.5457986057140261
 20
134.3970623183078033
 30
0.0
 40
0.2532106279999999
 50
231.987984029256296
 51
158.2692645823624957
  0
LINE
  5
25433
  8
0
 10
3158.4602075600128046
 20
134.3030623183078092
 30
0.0
 11
3158.4602075600128046
 21
134.1975623183078028
 31
0.0
  0
LINE
  5
25434
  8
0
 10
3158.4602075600128046
 20
134.1975623183078028
 30
0.0
 11
3155.2970810503138637
 21
134.1975623183078028
 31
0.0
  0
LINE
  5
25435
  8
0
 10
3156.9084341775128451
 20
134.3030623183078092
 30
0.0
 11
3156.9084341775128451
 21
134.1975623183078028
 31
0.0
  0
LINE
  5
25436
  8
0
 10
3157.901714609713963
 20
134.3030623181078056
 30
0.0
 11
3157.901714609713963
 21
134.1975623183078028
 31
0.0
  0
ARC
  5
25437
  8
0
 10
3155.2230529026578552
 20
134.2214990597767894
 30
0.0
 40
0.0740288731613906
 50
0.2536634154826817
 51
46.7251561589025712
  0
ARC
  5
25438
  8
0
 10
3155.2040530134140681
 20
134.2013191228521123
 30
0.0
 40
0.1017457569251058
 50
46.7251561589025712
 51
90.4065603032314442
  0
ARC
  5
25439
  8
0
 10
3155.2040583466091448
 20
134.2005675383622076
 30
0.0
 40
0.1024973603367675
 50
90.4065603032314442
 51
144.3668033321166888
  0
ARC
  5
2543A
  8
0
 10
3155.1824339911609059
 20
134.2215131840825109
 30
0.0
 40
0.072853615884977
 50
147.8494905735821874
 51
179.7533526971008939
  0
ARC
  5
2543B
  8
0
 10
3155.1944578631209879
 20
134.2266729501301086
 30
0.0
 40
0.0850150485835164
 50
183.2678252048698937
 51
220.9400274936486142
  0
ARC
  5
2543C
  8
0
 10
3155.1987763448942133
 20
134.2356277972006922
 30
0.0
 40
0.0942272300352782
 50
223.3332488370629108
 51
251.9959774842220099
  0
ARC
  5
2543D
  8
0
 10
3155.2029859725162169
 20
134.2457467179339119
 30
0.0
 40
0.1051554516021424
 50
251.5187180484390979
 51
270.0380401020889849
  0
ARC
  5
2543E
  8
0
 10
3155.2033114563328127
 20
134.246289791424914
 30
0.0
 40
0.1056988111280438
 50
269.8614105560902203
 51
301.3357572400547042
  0
ARC
  5
2543F
  8
0
 10
3155.2143679846872146
 20
134.2277969934328041
 30
0.0
 40
0.0841536816259225
 50
301.4538568821132003
 51
334.8101145388043847
  0
ARC
  5
25440
  8
0
 10
3155.2252983508160469
 20
134.2219639201769894
 30
0.0
 40
0.0717828304544932
 50
335.3099292410150838
 51
359.8905561642478119
  0
ARC
  5
25441
  8
0
 10
3155.2033310503138637
 20
134.1038123183078028
 30
0.0
 40
0.0937499999999996
 50
180.0
 51
0.0
  0
LINE
  5
25442
  8
0
 10
3155.1095810503138637
 20
134.1038123183078028
 30
0.0
 11
3155.1095810503138637
 21
134.2218268039077032
 31
0.0
  0
LINE
  5
25443
  8
0
 10
3155.2970810503138637
 20
134.1038123183078028
 30
0.0
 11
3155.2970810503138637
 21
134.2218268039079021
 31
0.0
  0
ENDSEC
  0
EOF
