  0
SECTION
  2
HEADER
  9
$ACADVER
  1
AC1009
  9
$INSBASE
 10
3187.4903161643660496
 20
124.2866042438594008
 30
0.0
  9
$EXTMIN
 10
3180.4813160754501951
 20
124.2781485012746998
 30
-0.0000000000112498
  9
$EXTMAX
 10
3194.3734956106109166
 20
125.0029357390386053
 30
0.0000000000002956
  9
$LIMMIN
 10
0.0
 20
0.0
  9
$LIMMAX
 10
11.6929133858000007
 20
8.2677165353999982
  9
$ORTHOMODE
 70
     1
  9
$REGENMODE
 70
     1
  9
$FILLMODE
 70
     1
  9
$QTEXTMODE
 70
     0
  9
$MIRRTEXT
 70
     0
  9
$DRAGMODE
 70
     2
  9
$LTSCALE
 40
0.6431102362
  9
$OSMODE
 70
  4095
  9
$ATTMODE
 70
     1
  9
$TEXTSIZE
 40
0.2
  9
$TRACEWID
 40
0.05
  9
$TEXTSTYLE
  7
STANDARD
  9
$CLAYER
  8
0
  9
$CELTYPE
  6
BYLAYER
  9
$CECOLOR
 62
   256
  9
$DIMSCALE
 40
1.0
  9
$DIMASZ
 40
0.1875
  9
$DIMEXO
 40
0.0625
  9
$DIMDLI
 40
0.4443307087
  9
$DIMRND
 40
0.0
  9
$DIMDLE
 40
0.0
  9
$DIMEXE
 40
0.125
  9
$DIMTP
 40
0.01
  9
$DIMTM
 40
0.01
  9
$DIMTXT
 40
2.0
  9
$DIMCEN
 40
0.1052362205
  9
$DIMTSZ
 40
0.0
  9
$DIMTOL
 70
     1
  9
$DIMLIM
 70
     0
  9
$DIMTIH
 70
     1
  9
$DIMTOH
 70
     1
  9
$DIMSE1
 70
     0
  9
$DIMSE2
 70
     0
  9
$DIMTAD
 70
     0
  9
$DIMZIN
 70
     0
  9
$DIMBLK
  1

  9
$DIMASO
 70
     1
  9
$DIMSHO
 70
     1
  9
$DIMPOST
  1
\X
  9
$DIMAPOST
  1

  9
$DIMALT
 70
     1
  9
$DIMALTD
 70
     2
  9
$DIMALTF
 40
25.3999999999999986
  9
$DIMLFAC
 40
1.0
  9
$DIMTOFL
 70
     0
  9
$DIMTVP
 40
0.0
  9
$DIMTIX
 70
     0
  9
$DIMSOXD
 70
     0
  9
$DIMSAH
 70
     0
  9
$DIMBLK1
  1

  9
$DIMBLK2
  1

  9
$DIMSTYLE
  2
STANDARD
  9
$DIMCLRD
 70
     0
  9
$DIMCLRE
 70
     0
  9
$DIMCLRT
 70
     0
  9
$DIMTFAC
 40
1.0
  9
$DIMGAP
 40
0.09
  9
$LUNITS
 70
     2
  9
$LUPREC
 70
     4
  9
$SKETCHINC
 40
0.1
  9
$FILLETRAD
 40
0.0
  9
$AUNITS
 70
     0
  9
$AUPREC
 70
     0
  9
$MENU
  1
.
  9
$ELEVATION
 40
0.0
  9
$PELEVATION
 40
0.0
  9
$THICKNESS
 40
0.0
  9
$LIMCHECK
 70
     0
  9
$BLIPMODE
 70
     0
  9
$CHAMFERA
 40
0.0
  9
$CHAMFERB
 40
0.0
  9
$SKPOLY
 70
     0
  9
$TDCREATE
 40
2458060.468368056230247
  9
$TDUPDATE
 40
2459565.5341666671447456
  9
$TDINDWG
 40
0.4185140046
  9
$TDUSRTIMER
 40
0.4185140046
  9
$USRTIMER
 70
     1
  9
$ANGBASE
 50
0.0
  9
$ANGDIR
 70
     0
  9
$PDMODE
 70
     0
  9
$PDSIZE
 40
0.3125
  9
$PLINEWID
 40
0.0
  9
$COORDS
 70
     1
  9
$SPLFRAME
 70
     0
  9
$SPLINETYPE
 70
     6
  9
$SPLINESEGS
 70
     8
  9
$ATTDIA
 70
     1
  9
$ATTREQ
 70
     1
  9
$HANDLING
 70
     1
  9
$HANDSEED
  5
2535F
  9
$SURFTAB1
 70
     6
  9
$SURFTAB2
 70
     6
  9
$SURFTYPE
 70
     6
  9
$SURFU
 70
     6
  9
$SURFV
 70
     6
  9
$UCSNAME
  2

  9
$UCSORG
 10
0.0
 20
0.0
 30
0.0
  9
$UCSXDIR
 10
1.0
 20
0.0
 30
0.0
  9
$UCSYDIR
 10
0.0
 20
1.0
 30
0.0
  9
$PUCSNAME
  2

  9
$PUCSORG
 10
0.0
 20
0.0
 30
0.0
  9
$PUCSXDIR
 10
1.0
 20
0.0
 30
0.0
  9
$PUCSYDIR
 10
0.0
 20
1.0
 30
0.0
  9
$USERI1
 70
     0
  9
$USERI2
 70
     0
  9
$USERI3
 70
     0
  9
$USERI4
 70
     0
  9
$USERI5
 70
     0
  9
$USERR1
 40
0.0
  9
$USERR2
 40
0.0
  9
$USERR3
 40
0.0
  9
$USERR4
 40
0.0
  9
$USERR5
 40
0.0
  9
$WORLDVIEW
 70
     1
  9
$SHADEDGE
 70
     3
  9
$SHADEDIF
 70
    70
  9
$TILEMODE
 70
     1
  9
$MAXACTVP
 70
    64
  9
$PLIMCHECK
 70
     0
  9
$PEXTMIN
 10
1.0000000000000000E+20
 20
1.0000000000000000E+20
 30
1.0000000000000000E+20
  9
$PEXTMAX
 10
-1.0000000000000000E+20
 20
-1.0000000000000000E+20
 30
-1.0000000000000000E+20
  9
$PLIMMIN
 10
0.0
 20
0.0
  9
$PLIMMAX
 10
12.0
 20
9.0
  9
$UNITMODE
 70
     0
  9
$VISRETAIN
 70
     1
  9
$PLINEGEN
 70
     0
  9
$PSLTSCALE
 70
     1
  0
ENDSEC
  0
SECTION
  2
TABLES
  0
TABLE
  2
VPORT
 70
     1
  0
VPORT
  2
*ACTIVE
 70
     0
 10
0.0
 20
0.0
 11
1.0
 21
1.0
 12
-616.1166615397822852
 22
-1.354720076593267
 13
0.0
 23
0.0
 14
1.0
 24
1.0
 15
0.0
 25
0.0
 16
0.0
 26
0.0
 36
17.1152628219792007
 17
3803.5440673828129547
 27
125.9952621967499056
 37
0.0
 40
5.9432920117189498
 41
2.344785276073619
 42
50.0
 43
0.0
 44
0.0
 50
0.0
 51
0.0
 71
     0
 72
   100
 73
     1
 74
     1
 75
     0
 76
     0
 77
     0
 78
     0
  0
ENDTAB
  0
TABLE
  2
LTYPE
 70
     2
  0
LTYPE
  2
CONTINUOUS
 70
     0
  3
Solid line
 72
    65
 73
     0
 40
0.0
  0
LTYPE
  2
PHANTOM2
 70
     0
  3
___ _ _ ___ _ _ ___ _ _ ___ _ _
 72
    65
 73
     6
 40
1.25
 49
0.625
 49
-0.125
 49
0.125
 49
-0.125
 49
0.125
 49
-0.125
  0
ENDTAB
  0
TABLE
  2
LAYER
 70
     2
  0
LAYER
  2
0
 70
     0
 62
   255
  6
CONTINUOUS
  0
LAYER
  2
DEFPOINTS
 70
     0
 62
     7
  6
CONTINUOUS
  0
ENDTAB
  0
TABLE
  2
STYLE
 70
     1
  0
STYLE
  2
STANDARD
 70
     0
 40
0.0
 41
0.8
 50
0.0
 71
     0
 42
0.2
  3
txt
  4

  0
ENDTAB
  0
TABLE
  2
VIEW
 70
     0
  0
ENDTAB
  0
TABLE
  2
UCS
 70
     0
  0
ENDTAB
  0
TABLE
  2
APPID
 70
     9
  0
APPID
  2
ACAD
 70
     0
  0
APPID
  2
ACAD_MLEADERVER
 70
     0
  0
APPID
  2
ACAD_EXEMPT_FROM_CAD_STANDARDS
 70
     0
  0
APPID
  2
ACAD_NAV_VCDISPLAY
 70
     0
  0
APPID
  2
ACAECLAYERSTANDARD
 70
     0
  0
APPID
  2
ACCMTRANSPARENCY
 70
     0
  0
APPID
  2
ACAD_DSTYLE_DIMJAG
 70
     0
  0
APPID
  2
ACAD_DSTYLE_DIMTALN
 70
     0
  0
APPID
  2
ACDBATTR
 70
     0
  0
ENDTAB
  0
TABLE
  2
DIMSTYLE
 70
     1
  0
DIMSTYLE
  2
STANDARD
 70
     0
  3

  4

  5

  6

  7

 40
1.0
 41
0.1875
 42
0.0625
 43
0.38
 44
0.125
 45
0.0
 46
0.0
 47
0.01
 48
0.01
140
0.15625
141
0.09
142
0.0
143
25.3999999999999986
144
1.0
145
0.0
146
1.0
147
0.09
 71
     1
 72
     0
 73
     1
 74
     1
 75
     0
 76
     0
 77
     0
 78
     4
170
     0
171
     2
172
     0
173
     0
174
     0
175
     0
176
     0
177
     0
178
     0
  0
ENDTAB
  0
ENDSEC
  0
SECTION
  2
BLOCKS
  0
BLOCK
  8
0
  2
$MODEL_SPACE
 70
     0
 10
0.0
 20
0.0
 30
0.0
  3
$MODEL_SPACE
  1

  0
ENDBLK
  5
21
  8
0
  0
BLOCK
 67
     1
  8
0
  2
$PAPER_SPACE
 70
     0
 10
0.0
 20
0.0
 30
0.0
  3
$PAPER_SPACE
  1

  0
ENDBLK
  5
1D
 67
     1
  8
0
  0
BLOCK
  8
0
  2
_FILLED
 70
     0
 10
0.0
 20
0.0
 30
0.0
  3
_FILLED
  1

  0
SOLID
  5
2474E
  8
0
  6
BYBLOCK
 62
     0
 10
0.0
 20
0.0
 30
0.0
 11
-1.0
 21
0.1666666667
 31
0.0
 12
-1.0
 22
-0.1666666667
 32
0.0
 13
-1.0
 23
-0.1666666667
 33
0.0
  0
ENDBLK
  5
2474F
  8
0
  6
BYBLOCK
 62
     0
  0
ENDSEC
  0
SECTION
  2
ENTITIES
  0
ATTDEF
  5
24AB7
  8
DEFPOINTS
 10
3187.4909766984737871
 20
124.2907767505381997
 30
0.0
 40
0.001
  1
K-31733
  3

  2
MODELNUMBER
 70
     0
1001
ACDBATTR
1070
     0
1070
     1
  0
ATTDEF
  5
24AB8
  8
DEFPOINTS
 10
3187.4909766984737871
 20
124.2891100838716056
 30
0.0
 40
0.001
  1

  3

  2
TRADENAME
 70
     0
1001
ACDBATTR
1070
     0
1070
     1
  0
ATTDEF
  5
24AB9
  8
DEFPOINTS
 10
3187.4909766984737871
 20
124.2874434172048979
 30
0.0
 40
0.001
  1
SINK RACK
  3

  2
PRODUCT
 70
     0
1001
ACDBATTR
1070
     0
1070
     1
  0
LINE
  5
24E29
  8
0
 10
3181.2328775736727948
 20
124.7673542438594012
 30
0.0
 11
3185.0908811080321357
 21
124.7673542438594012
 31
0.0
  0
LINE
  5
24E2A
  8
0
 10
3185.6778936543910277
 20
124.7673542438594012
 30
0.0
 11
3189.3027386743410716
 21
124.7673542438594012
 31
0.0
  0
LINE
  5
24E2B
  8
0
 10
3189.8897512206999636
 20
124.7673542438594012
 30
0.0
 11
3193.778468847673139
 21
124.7673542438594012
 31
0.0
  0
LINE
  5
24E2C
  8
0
 10
3181.2328775736727948
 20
124.5798542438594012
 30
0.0
 11
3185.091106186720026
 21
124.5798542438594012
 31
0.0
  0
LINE
  5
24E2D
  8
0
 10
3185.6778718820860377
 20
124.5798542438594012
 30
0.0
 11
3189.3027604466469711
 21
124.5798542438594012
 31
0.0
  0
LINE
  5
24E2E
  8
0
 10
3189.8895261420129827
 20
124.5798542438594012
 30
0.0
 11
3193.778468847673139
 21
124.5798542438594012
 31
0.0
  0
LINE
  5
24E2F
  8
0
 10
3181.8903161643661406
 20
124.4741042438594008
 30
0.0
 11
3185.0977540922340268
 21
124.4741042438594008
 31
0.0
  0
LINE
  5
24E30
  8
0
 10
3185.6831525236389098
 20
124.4741042438594008
 30
0.0
 11
3189.2974798050931895
 21
124.4741042438594008
 31
0.0
  0
LINE
  5
24E31
  8
0
 10
3189.8828782364980725
 20
124.4741042438594008
 30
0.0
 11
3193.0903161643659587
 21
124.4741042438594008
 31
0.0
  0
ARC
  5
24E32
  8
0
 10
3181.2175205273661049
 20
124.6736042438594012
 30
0.0
 40
0.094999480899998
 50
80.697086519756553
 51
279.3029134802430917
  0
ARC
  5
24E33
  8
0
 10
3181.89942734792794
 20
124.8379666080561066
 30
0.0
 40
0.3639764192152152
 50
262.2843607328575217
 51
268.5656024087695073
  0
LINE
  5
24E34
  8
0
 10
3181.8505610837660242
 20
124.4772854164593952
 30
0.0
 11
3181.504854801548845
 21
124.5329682883453017
 31
0.0
  0
ARC
  5
24E35
  8
0
 10
3180.9876565756658238
 20
124.6736042438594012
 30
0.0
 40
0.3200000000000003
 50
68.95123343931634
 51
291.0487665606837027
  0
ARC
  5
24E36
  8
0
 10
3181.2175205273661049
 20
124.6736042438594012
 30
0.0
 40
0.3200000000000011
 50
17.0357746230479101
 51
342.9642253769520721
  0
ARC
  5
24E37
  8
0
 10
3180.9880159690660548
 20
124.6735266850594002
 30
0.0
 40
0.2535774021732559
 50
82.8264242325212905
 51
277.2123008522318059
  0
ARC
  5
24E38
  8
0
 10
3181.2154733036659309
 20
124.6736042438594012
 30
0.0
 40
0.2536028138872497
 50
21.6954242839515992
 51
338.3045757160476796
  0
LINE
  5
24E39
  8
0
 10
3181.0203322592778932
 20
124.421578874246606
 30
0.0
 11
3181.01679224740883
 21
124.3935857627539008
 31
0.0
  0
LINE
  5
24E3A
  8
0
 10
3181.01679224740883
 20
124.3935857627539008
 30
0.0
 11
3181.0773770531181981
 21
124.3859242017539941
 31
0.0
  0
LINE
  5
24E3B
  8
0
 10
3181.2816373406681123
 20
124.3600934238674967
 30
0.0
 11
3181.8354270246159103
 21
124.2900611208590931
 31
0.0
  0
ARC
  5
24E3C
  8
0
 10
3181.890316158891892
 20
124.7241041983727996
 30
0.0
 40
0.4374999545134159
 50
262.7926275519137107
 51
270.000000716906186
  0
LINE
  5
24E3D
  8
0
 10
3181.890316158891892
 20
124.2866042438594008
 30
0.0
 11
3193.0903161698402073
 21
124.2866042438594008
 31
0.0
  0
LINE
  5
24E3E
  8
0
 10
3181.8903161643661406
 20
124.3681042438594062
 30
0.0
 11
3185.1577280129981773
 21
124.3681042438594062
 31
0.0
  0
LINE
  5
24E3F
  8
0
 10
3185.6226528461138514
 20
124.3681042438594062
 30
0.0
 11
3189.3579794826191574
 21
124.3681042438594062
 31
0.0
  0
LINE
  5
24E40
  8
0
 10
3189.8229043157348315
 20
124.3681042438594062
 30
0.0
 11
3193.0903161643659587
 21
124.3681042438594062
 31
0.0
  0
LINE
  5
24E41
  8
0
 10
3181.4331383015778556
 20
124.4371534552291934
 30
0.0
 11
3181.8337049294500503
 21
124.3726342336432964
 31
0.0
  0
ARC
  5
24E42
  8
0
 10
3181.8903161643661406
 20
124.7241042438594008
 30
0.0
 40
0.356000000000034
 50
260.849963161364883
 51
270.0
  0
CIRCLE
  5
24E43
  8
0
 10
3181.8903161643661406
 20
124.5268542438594039
 30
0.0
 40
0.0527499999999996
  0
CIRCLE
  5
24E44
  8
0
 10
3182.5903161643659587
 20
124.5268542438594039
 30
0.0
 40
0.0527499999999996
  0
CIRCLE
  5
24E45
  8
0
 10
3183.290316164367141
 20
124.5268542438594039
 30
0.0
 40
0.0527499999999996
  0
CIRCLE
  5
24E46
  8
0
 10
3183.9903161643660496
 20
124.5268542438594039
 30
0.0
 40
0.0527499999999996
  0
CIRCLE
  5
24E47
  8
0
 10
3184.6903161643658677
 20
124.5268542438594039
 30
0.0
 40
0.0527499999999996
  0
ARC
  5
24E48
  8
0
 10
3184.4522908351477781
 20
124.7315940378665999
 30
0.0
 40
1.238085885125275
 50
1.655200295926254
 51
8.3982140607076765
  0
ARC
  5
24E49
  8
0
 10
3185.5761683683581396
 20
124.8975180375022944
 30
0.0
 40
0.1020262549515884
 50
8.3982140607068718
 51
29.8849843208312507
  0
ARC
  5
24E4A
  8
0
 10
3185.6088957173301424
 20
124.9163256865871006
 30
0.0
 40
0.0642796387479665
 50
29.8849843208326718
 51
82.6056994039935262
  0
ARC
  5
24E4B
  8
0
 10
3185.3903168003998871
 20
123.0855658083011974
 30
0.0
 40
1.9080384357756861
 50
83.1718085375941456
 51
96.8283826348138632
  0
ARC
  5
24E4C
  8
0
 10
3185.1718567961120243
 20
124.9153616227828962
 30
0.0
 40
0.0652510519534564
 50
97.3944917684333973
 51
163.6445052508287006
  0
ARC
  5
24E4D
  8
0
 10
3185.8777682599570653
 20
124.7647024799006061
 30
0.0
 40
0.7868916200570163
 50
167.5955147341175007
 51
179.8069172846616937
  0
ARC
  5
24E4E
  8
0
 10
3187.4723050684378904
 20
124.6764628169242002
 30
0.0
 40
2.3831578484613041
 50
177.8142620737777975
 51
184.870961502228397
  0
ARC
  5
24E4F
  8
0
 10
3185.428000623699063
 20
124.5037549666888026
 30
0.0
 40
0.3315749340782699
 50
185.1304651968644066
 51
194.8704764487214049
  0
ARC
  5
24E50
  8
0
 10
3185.1804635426210552
 20
124.438128152645902
 30
0.0
 40
0.0754861931095858
 50
194.9446782686642052
 51
228.3599792083132911
  0
ARC
  5
24E51
  8
0
 10
3185.1709761623519626
 20
124.4292233903229032
 30
0.0
 40
0.0625384963501237
 50
229.4351550477024091
 51
263.1009531559030279
  0
ARC
  5
24E52
  8
0
 10
3185.3903161633220407
 20
126.261653339062704
 30
0.0
 40
1.90804909520243
 50
263.171827662936721
 51
276.8281422862914951
  0
ARC
  5
24E53
  8
0
 10
3185.6086264060859321
 20
124.431653420582407
 30
0.0
 40
0.065078712971521
 50
277.5412341157070841
 51
338.8689984079600777
  0
ARC
  5
24E54
  8
0
 10
3185.3815967575801551
 20
124.5029427290266995
 30
0.0
 40
0.3029315735771736
 50
341.77328345677671
 51
356.7064803530419113
  0
ARC
  5
24E55
  8
0
 10
3183.9511806656119006
 20
124.6400314088866992
 30
0.0
 40
1.7397205943159599
 50
354.9052507930874185
 51
358.0177141787590926
  0
ARC
  5
24E56
  8
0
 10
3185.6776838983041671
 20
124.7660319585436071
 30
0.0
 40
0.0031475940044499
 50
24.8405214433124399
 51
48.3402173555329213
  0
ARC
  5
24E57
  8
0
 10
3185.6792162485257904
 20
124.7677542631984977
 30
0.0
 40
0.0008422891377228
 50
48.3402173554350227
 51
123.3792417393530059
  0
ARC
  5
24E58
  8
0
 10
3185.679800201793114
 20
124.7668679530287932
 30
0.0
 40
0.0019036783850821
 50
123.3792417393259058
 51
149.712473032839199
  0
ARC
  5
24E59
  8
0
 10
3185.6886219450129829
 20
124.7617155184105968
 30
0.0
 40
0.0121198780667761
 50
149.7124730328386022
 51
158.4773071824199064
  0
ARC
  5
24E5A
  8
0
 10
3185.8058105901600356
 20
124.7329982907398005
 30
0.0
 40
0.1326750946505338
 50
165.5247758146873025
 51
176.5456996317581115
  0
ARC
  5
24E5B
  8
0
 10
3186.5263739644960879
 20
124.6759582196382041
 30
0.0
 40
0.8554729863442759
 50
175.6401010043954898
 51
185.7080602315043905
  0
ARC
  5
24E5C
  8
0
 10
3185.7270831706919125
 20
124.5975230485281031
 30
0.0
 40
0.0523643715152943
 50
187.2959001989048033
 51
198.919029543736201
  0
ARC
  5
24E5D
  8
0
 10
3185.682873801552887
 20
124.5826240293099971
 30
0.0
 40
0.0057175965052715
 50
201.3241153619819102
 51
218.6147200123508014
  0
ARC
  5
24E5E
  8
0
 10
3185.6796199545219679
 20
124.5800921403674977
 30
0.0
 40
0.0015959265581298
 50
220.4943038020564927
 51
239.9510068763125048
  0
ARC
  5
24E5F
  8
0
 10
3185.6792251861738805
 20
124.5794852988910009
 30
0.0
 40
0.000873789376696
 50
242.4330457145860009
 51
321.5490470898806734
  0
ARC
  5
24E60
  8
0
 10
3185.6781900649589261
 20
124.5806604182076001
 30
0.0
 40
0.0024309636983509
 50
315.0156807292829058
 51
340.6324137252810829
  0
ARC
  5
24E61
  8
0
 10
3185.584553969407807
 20
124.8822305277177946
 30
0.0
 40
0.097345937736411
 50
18.0663055361012397
 51
25.6656709761349617
  0
ARC
  5
24E62
  8
0
 10
3185.6679206503299611
 20
124.9222907007331997
 30
0.0
 40
0.0048536626542805
 50
25.66567097612689
 51
62.4937795224256192
  0
ARC
  5
24E63
  8
0
 10
3185.669216457073162
 20
124.9247792626367044
 30
0.0
 40
0.0020479443037797
 50
62.4937795224229902
 51
131.7915654359356949
  0
ARC
  5
24E64
  8
0
 10
3185.680080527858081
 20
124.9148167184417986
 30
0.0
 40
0.0167795230512109
 50
136.7856435838943128
 51
164.6302745027633989
  0
ARC
  5
24E65
  8
0
 10
3185.8910906640121539
 20
124.8557727304471001
 30
0.0
 40
0.2358945573702351
 50
164.3862250050349019
 51
174.3703957220216125
  0
ARC
  5
24E66
  8
0
 10
3187.9754404029667967
 20
124.6726586992802055
 30
0.0
 40
2.3282603183222879
 50
174.917651614309392
 51
184.8939712789789098
  0
ARC
  5
24E67
  8
0
 10
3185.9608318377959222
 20
124.5031846369530939
 30
0.0
 40
0.3065530889556335
 50
185.4573540483631859
 51
193.4872419154806096
  0
ARC
  5
24E68
  8
0
 10
3185.6944577234539793
 20
124.4392393964668031
 30
0.0
 40
0.0326112456998571
 50
193.3895121824924956
 51
212.0289702417030924
  0
ARC
  5
24E69
  8
0
 10
3185.6719198360278824
 20
124.4261004495672012
 30
0.0
 40
0.0065863528713362
 50
219.1281231986457954
 51
234.1568639667632965
  0
ARC
  5
24E6A
  8
0
 10
3185.6693108011909317
 20
124.4224886680495956
 30
0.0
 40
0.0021307913454259
 50
234.1568639667374043
 51
322.7228680209311165
  0
ARC
  5
24E6B
  8
0
 10
3185.6366563340689027
 20
124.4437663707215052
 30
0.0
 40
0.041100448458509
 50
326.6947011446696933
 51
347.7104191811342844
  0
LINE
  5
24E6C
  8
0
 10
3193.0903161643659587
 20
124.4741042438594008
 30
0.0
 11
3189.8828782364980725
 21
124.4741042438594008
 31
0.0
  0
ARC
  5
24E6D
  8
0
 10
3193.0812049808050688
 20
124.8379666080561066
 30
0.0
 40
0.3639764192152152
 50
271.4343975912306064
 51
277.7156392671424783
  0
ARC
  5
24E6E
  8
0
 10
3193.0903161698402073
 20
124.7241041983727996
 30
0.0
 40
0.4374999545134159
 50
269.999999283093814
 51
277.2073724480862893
  0
LINE
  5
24E6F
  8
0
 10
3193.0903161643659587
 20
124.3681042438594062
 30
0.0
 11
3189.8229043157348315
 21
124.3681042438594062
 31
0.0
  0
ARC
  5
24E70
  8
0
 10
3193.0903161643659587
 20
124.7241042438594008
 30
0.0
 40
0.356000000000034
 50
270.0
 51
279.150036838635117
  0
CIRCLE
  5
24E71
  8
0
 10
3193.0903161643659587
 20
124.5268542438594039
 30
0.0
 40
0.0527499999999996
  0
CIRCLE
  5
24E72
  8
0
 10
3192.3903161643661406
 20
124.5268542438594039
 30
0.0
 40
0.0527499999999996
  0
CIRCLE
  5
24E73
  8
0
 10
3191.6903161643658677
 20
124.5268542438594039
 30
0.0
 40
0.0527499999999996
  0
CIRCLE
  5
24E74
  8
0
 10
3190.9903161643660496
 20
124.5268542438594039
 30
0.0
 40
0.0527499999999996
  0
CIRCLE
  5
24E75
  8
0
 10
3190.290316164367141
 20
124.5268542438594039
 30
0.0
 40
0.0527499999999996
  0
ARC
  5
24E76
  8
0
 10
3190.5283414935847759
 20
124.7315940378665999
 30
0.0
 40
1.238085885125275
 50
171.6017859392923128
 51
178.3447997040736936
  0
ARC
  5
24E77
  8
0
 10
3189.4044639603748692
 20
124.8975180375022944
 30
0.0
 40
0.1020262549515884
 50
150.1150156791686925
 51
171.6017859392931086
  0
ARC
  5
24E78
  8
0
 10
3189.3717366114019569
 20
124.9163256865871006
 30
0.0
 40
0.0642796387479665
 50
97.3943005960065022
 51
150.1150156791665893
  0
ARC
  5
24E79
  8
0
 10
3189.5903155283331216
 20
123.0855658083011974
 30
0.0
 40
1.908038435775683
 50
83.171617365186151
 51
96.8281914624058686
  0
ARC
  5
24E7A
  8
0
 10
3189.808775532620075
 20
124.9153616227828962
 30
0.0
 40
0.0652510519534564
 50
16.3554947491712994
 51
82.6055082315666169
  0
ARC
  5
24E7B
  8
0
 10
3189.1028640687759435
 20
124.7647024799006061
 30
0.0
 40
0.7868916200570163
 50
0.193082715338231
 51
12.4044852658824691
  0
ARC
  5
24E7C
  8
0
 10
3187.5083272602951183
 20
124.6764628169242002
 30
0.0
 40
2.3831578484613041
 50
355.1290384977714893
 51
2.185737926222151
  0
ARC
  5
24E7D
  8
0
 10
3189.5526317050330363
 20
124.5037549666888026
 30
0.0
 40
0.3315749340782699
 50
345.1295235512785098
 51
354.8695348031355934
  0
ARC
  5
24E7E
  8
0
 10
3189.800168786111044
 20
124.438128152645902
 30
0.0
 40
0.0754861931095858
 50
311.6400207916865952
 51
345.0553217313357095
  0
ARC
  5
24E7F
  8
0
 10
3189.8096561663801367
 20
124.4292233903229032
 30
0.0
 40
0.0625384963501237
 50
276.8990468440969721
 51
310.5648449522976193
  0
ARC
  5
24E80
  8
0
 10
3189.5903161654100586
 20
126.261653339062704
 30
0.0
 40
1.908049095202395
 50
263.1718577137085049
 51
276.8281723370633927
  0
ARC
  5
24E81
  8
0
 10
3189.3720059226470767
 20
124.431653420582407
 30
0.0
 40
0.065078712971521
 50
201.1310015920398939
 51
262.4587658842929159
  0
ARC
  5
24E82
  8
0
 10
3189.5990355711519442
 20
124.5029427290266995
 30
0.0
 40
0.3029315735771736
 50
183.2935196469580035
 51
198.2267165432224942
  0
ARC
  5
24E83
  8
0
 10
3191.0294516631211081
 20
124.6400314088866992
 30
0.0
 40
1.7397205943159599
 50
181.9822858212409074
 51
185.0947492069126099
  0
ARC
  5
24E84
  8
0
 10
3189.3029484304288417
 20
124.7660319585436071
 30
0.0
 40
0.0031475940044499
 50
131.6597826444669863
 51
155.1594785566875032
  0
ARC
  5
24E85
  8
0
 10
3189.3014160802072183
 20
124.7677542631984977
 30
0.0
 40
0.0008422891377228
 50
56.6207582606469586
 51
131.659782644565496
  0
ARC
  5
24E86
  8
0
 10
3189.3008321269398948
 20
124.7668679530287932
 30
0.0
 40
0.0019036783850821
 50
30.2875269671607086
 51
56.62075826067408
  0
ARC
  5
24E87
  8
0
 10
3189.2920103837200259
 20
124.7617155184105968
 30
0.0
 40
0.0121198780667761
 50
21.5226928175801184
 51
30.2875269671614191
  0
ARC
  5
24E88
  8
0
 10
3189.1748217385720636
 20
124.7329982907398005
 30
0.0
 40
0.1326750946505338
 50
3.4543003682418711
 51
14.4752241853126797
  0
ARC
  5
24E89
  8
0
 10
3188.4542583642369209
 20
124.6759582196382041
 30
0.0
 40
0.8554729863442759
 50
354.2919397684955243
 51
4.359898995604472
  0
ARC
  5
24E8A
  8
0
 10
3189.2535491580401867
 20
124.5975230485281031
 30
0.0
 40
0.0523643715152943
 50
341.080970456263799
 51
352.7040998010951967
  0
ARC
  5
24E8B
  8
0
 10
3189.2977585271801217
 20
124.5826240293099971
 30
0.0
 40
0.0057175965052715
 50
321.3852799876493123
 51
338.6758846380180898
  0
ARC
  5
24E8C
  8
0
 10
3189.3010123742101314
 20
124.5800921403674977
 30
0.0
 40
0.0015959265581298
 50
300.0489931236875236
 51
319.5056961979435073
  0
ARC
  5
24E8D
  8
0
 10
3189.3014071425582188
 20
124.5794852988910009
 30
0.0
 40
0.000873789376696
 50
218.4509529101192982
 51
297.5669542854139991
  0
ARC
  5
24E8E
  8
0
 10
3189.3024422637740827
 20
124.5806604182076001
 30
0.0
 40
0.0024309636983509
 50
199.3675862747188035
 51
224.9843192707170942
  0
ARC
  5
24E8F
  8
0
 10
3189.3960783593238375
 20
124.8822305277177946
 30
0.0
 40
0.097345937736411
 50
154.3343290238649956
 51
161.933694463898803
  0
ARC
  5
24E90
  8
0
 10
3189.3127116784030477
 20
124.9222907007331997
 30
0.0
 40
0.0048536626542805
 50
117.5062204775744021
 51
154.3343290238730958
  0
ARC
  5
24E91
  8
0
 10
3189.3114158716598467
 20
124.9247792626367044
 30
0.0
 40
0.0020479443037797
 50
48.2084345640642979
 51
117.5062204775770027
  0
ARC
  5
24E92
  8
0
 10
3189.3005518008749277
 20
124.9148167184417986
 30
0.0
 40
0.0167795230512109
 50
15.3697254972366206
 51
43.2143564161057085
  0
ARC
  5
24E93
  8
0
 10
3189.0895416647199454
 20
124.8557727304471001
 30
0.0
 40
0.2358945573702351
 50
5.6296042779784106
 51
15.6137749949651106
  0
ARC
  5
24E94
  8
0
 10
3187.0051919257662121
 20
124.6726586992802055
 30
0.0
 40
2.3282603183222879
 50
355.1060287210211186
 51
5.0823483856905316
  0
ARC
  5
24E95
  8
0
 10
3189.0198004909370866
 20
124.5031846369530939
 30
0.0
 40
0.3065530889556335
 50
346.5127580845194188
 51
354.5426459516368141
  0
ARC
  5
24E96
  8
0
 10
3189.2861746052790295
 20
124.4392393964668031
 30
0.0
 40
0.0326112456998571
 50
327.9710297582968792
 51
346.6104878175074759
  0
ARC
  5
24E97
  8
0
 10
3189.3087124927042169
 20
124.4261004495672012
 30
0.0
 40
0.0065863528713362
 50
305.8431360332367035
 51
320.8718768013541762
  0
ARC
  5
24E98
  8
0
 10
3189.3113215275411676
 20
124.4224886680495956
 30
0.0
 40
0.0021307913454259
 50
217.277131979068912
 51
305.8431360332626241
  0
ARC
  5
24E99
  8
0
 10
3189.3439759946631966
 20
124.4437663707215052
 30
0.0
 40
0.041100448458509
 50
192.2895808188656872
 51
213.305298855330193
  0
ARC
  5
24E9A
  8
0
 10
3193.7631118013659943
 20
124.6736042438594012
 30
0.0
 40
0.094999480899998
 50
260.6970865197569083
 51
99.302913480243447
  0
ARC
  5
24E9B
  8
0
 10
3193.0812049808050688
 20
124.8379666080561066
 30
0.0
 40
0.3639764192152152
 50
271.4343975912306064
 51
277.7156392671424783
  0
LINE
  5
24E9C
  8
0
 10
3193.130071244966075
 20
124.4772854164593952
 30
0.0
 11
3193.4757775271827995
 21
124.5329682883453017
 31
0.0
  0
ARC
  5
24E9D
  8
0
 10
3193.9929757530658208
 20
124.6736042438594012
 30
0.0
 40
0.3200000000000003
 50
248.9512334393162973
 51
111.0487665606836032
  0
ARC
  5
24E9E
  8
0
 10
3193.7631118013659943
 20
124.6736042438594012
 30
0.0
 40
0.3200000000000011
 50
197.0357746230478995
 51
217.1413298258322015
  0
ARC
  5
24E9F
  8
0
 10
3193.7631118013659943
 20
124.6736042438594012
 30
0.0
 40
0.3200000000000011
 50
227.6385375772455859
 51
162.9642253769521005
  0
ARC
  5
24EA0
  8
0
 10
3193.9926163596660444
 20
124.6735266850594002
 30
0.0
 40
0.2535774021732559
 50
262.7876991477680804
 51
97.1735757674787237
  0
ARC
  5
24EA1
  8
0
 10
3193.7651590250661684
 20
124.6736042438594012
 30
0.0
 40
0.2536028138872497
 50
201.6954242839516098
 51
236.0557664708072991
  0
LINE
  5
24EA2
  8
0
 10
3193.9603000694542061
 20
124.421578874246606
 30
0.0
 11
3193.9638400813228145
 21
124.3935857627539008
 31
0.0
  0
LINE
  5
24EA3
  8
0
 10
3193.9638400813228145
 20
124.3935857627539008
 30
0.0
 11
3193.9032552756139012
 21
124.3859242017539941
 31
0.0
  0
LINE
  5
24EA4
  8
0
 10
3193.6989949880648965
 20
124.3600934238674967
 30
0.0
 11
3193.1452053041170984
 21
124.2900611208590931
 31
0.0
  0
ARC
  5
24EA5
  8
0
 10
3193.0903161698402073
 20
124.7241041983727996
 30
0.0
 40
0.4374999545134159
 50
269.999999283093814
 51
277.2073724480862893
  0
LINE
  5
24EA6
  8
0
 10
3193.5474940271537889
 20
124.4371534552291934
 30
0.0
 11
3193.146927399282049
 21
124.3726342336432964
 31
0.0
  0
ARC
  5
24EA7
  8
0
 10
3193.0903161643659587
 20
124.7241042438594008
 30
0.0
 40
0.356000000000034
 50
270.0
 51
279.150036838635117
  0
CIRCLE
  5
24EA8
  8
0
 10
3186.0903161643659587
 20
124.5268542438594039
 30
0.0
 40
0.0527499999999996
  0
CIRCLE
  5
24EA9
  8
0
 10
3186.7903161643657768
 20
124.5268542438594039
 30
0.0
 40
0.0527499999999996
  0
CIRCLE
  5
24EAA
  8
0
 10
3187.4903161643660496
 20
124.5268542438594039
 30
0.0
 40
0.0527499999999996
  0
CIRCLE
  5
24EAB
  8
0
 10
3188.1903161643658677
 20
124.5268542438594039
 30
0.0
 40
0.0527499999999996
  0
CIRCLE
  5
24EAC
  8
0
 10
3188.8903161643661406
 20
124.5268542438594039
 30
0.0
 40
0.0527499999999996
  0
LINE
  5
24EAD
  8
0
 10
3193.6893511462399147
 20
124.579854104394002
 30
0.0
 11
3193.6235508328591095
 21
124.4632200545503053
 31
0.0
  0
ARC
  5
24EAE
  8
0
 10
3193.5211093786438141
 20
124.5210134673628062
 30
0.0
 40
0.1176194291185295
 50
315.9738083765614078
 51
330.5700293991894227
  0
ARC
  5
24EAF
  8
0
 10
3193.5681211224650724
 20
124.4755732041927985
 30
0.0
 40
0.052236544706655
 50
294.962741983116473
 51
315.9738083765603278
  0
ARC
  5
24EB0
  8
0
 10
3193.5843705156157739
 20
124.4406670241975945
 30
0.0
 40
0.0137335035326733
 50
264.58430761471908
 51
294.9627419831177804
  0
ARC
  5
24EB1
  8
0
 10
3193.5842201730279157
 20
124.4390812016654024
 30
0.0
 40
0.0121405703898579
 50
251.4303075085896921
 51
264.5843076146931026
  0
ARC
  5
24EB2
  8
0
 10
3193.6242913062851585
 20
124.5583588405361013
 30
0.0
 40
0.1379692271222175
 50
232.5886768240517881
 51
251.43030750859009
  0
ARC
  5
24EB3
  8
0
 10
3193.6558205442479448
 20
124.5995804856967055
 30
0.0
 40
0.1898664031171494
 50
218.8836255182910975
 51
232.5886768240517881
  0
ARC
  5
24EB4
  8
0
 10
3193.6697309696987759
 20
124.6058440987926019
 30
0.0
 40
0.2090067340627249
 50
235.6686846572847003
 51
248.1113673900362073
  0
ARC
  5
24EB5
  8
0
 10
3193.6414298701060943
 20
124.5354025221171952
 30
0.0
 40
0.1330925195656396
 50
248.1113673900362073
 51
256.8381201413229746
  0
ARC
  5
24EB6
  8
0
 10
3193.4668662064691489
 20
123.7889128994501959
 30
0.0
 40
0.6335359624331396
 50
76.4411460522931776
 51
76.8381201413229888
  0
ARC
  5
24EB7
  8
0
 10
3193.6189188866878794
 20
124.4194041002407971
 30
0.0
 40
0.0150310517111969
 50
256.4411460522936181
 51
285.0927265038549763
  0
ARC
  5
24EB8
  8
0
 10
3193.615390284723162
 20
124.4324882843599056
 30
0.0
 40
0.0285826902057913
 50
285.0927265038552036
 51
306.8888799534561258
  0
ARC
  5
24EB9
  8
0
 10
3193.5760315271559193
 20
124.4849304223734947
 30
0.0
 40
0.0941516587558158
 50
306.8888799534565806
 51
325.4645790763215132
  0
ARC
  5
24EBA
  8
0
 10
3193.4834827062059048
 20
124.5486217410277021
 30
0.0
 40
0.2064987474186718
 50
325.4645790763215132
 51
329.0874108131525873
  0
LINE
  5
24EBB
  8
0
 10
3193.6606487295280203
 20
124.4425371857616938
 30
0.0
 11
3193.738495565617086
 21
124.5798542438594012
 31
0.0
  0
LINE
  5
24EBC
  8
0
 10
3193.5474940271537889
 20
124.4371534552291934
 30
0.0
 11
3193.5494007341180804
 21
124.4424842970278036
 31
0.0
  0
ARC
  5
24EBD
  8
0
 10
3193.9929757530658208
 20
124.6736042438594012
 30
0.0
 40
0.0950000000000132
 50
338.1531832370957886
 51
21.8468167629042291
  0
ARC
  5
24EBE
  8
0
 10
3180.987656575667188
 20
124.6736042438594012
 30
0.0
 40
0.0950000000000233
 50
158.1531832374487863
 51
201.8468167625512137
  0
ARC
  5
24F05
  8
0
 10
3193.7651590250661684
 20
124.6736042438594012
 30
0.0
 40
0.2536028138872497
 50
245.6630352336997873
 51
158.3045757160483902
  0
ENDSEC
  0
EOF
