  0
SECTION
  2
HEADER
  9
$ACADVER
  1
AC1009
  9
$INSBASE
 10
3166.5300845561200731
 20
134.0100264016166136
 30
0.0
  9
$EXTMIN
 10
3152.8219847999330341
 20
134.0019714103320041
 30
-0.0000000000112498
  9
$EXTMAX
 10
3180.2386682944202221
 20
134.7214394053663113
 30
0.0000000000002956
  9
$LIMMIN
 10
0.0
 20
0.0
  9
$LIMMAX
 10
11.6929133858000007
 20
8.2677165353999982
  9
$ORTHOMODE
 70
     1
  9
$REGENMODE
 70
     1
  9
$FILLMODE
 70
     1
  9
$QTEXTMODE
 70
     0
  9
$MIRRTEXT
 70
     0
  9
$DRAGMODE
 70
     2
  9
$LTSCALE
 40
0.6431102362
  9
$OSMODE
 70
  4095
  9
$ATTMODE
 70
     1
  9
$TEXTSIZE
 40
0.2
  9
$TRACEWID
 40
0.05
  9
$TEXTSTYLE
  7
STANDARD
  9
$CLAYER
  8
0
  9
$CELTYPE
  6
BYLAYER
  9
$CECOLOR
 62
   256
  9
$DIMSCALE
 40
1.0
  9
$DIMASZ
 40
0.1875
  9
$DIMEXO
 40
0.0625
  9
$DIMDLI
 40
0.4443307087
  9
$DIMRND
 40
0.0
  9
$DIMDLE
 40
0.0
  9
$DIMEXE
 40
0.125
  9
$DIMTP
 40
0.01
  9
$DIMTM
 40
0.01
  9
$DIMTXT
 40
2.0
  9
$DIMCEN
 40
0.1052362205
  9
$DIMTSZ
 40
0.0
  9
$DIMTOL
 70
     1
  9
$DIMLIM
 70
     0
  9
$DIMTIH
 70
     1
  9
$DIMTOH
 70
     1
  9
$DIMSE1
 70
     0
  9
$DIMSE2
 70
     0
  9
$DIMTAD
 70
     0
  9
$DIMZIN
 70
     0
  9
$DIMBLK
  1

  9
$DIMASO
 70
     1
  9
$DIMSHO
 70
     1
  9
$DIMPOST
  1
\X
  9
$DIMAPOST
  1

  9
$DIMALT
 70
     1
  9
$DIMALTD
 70
     2
  9
$DIMALTF
 40
25.3999999999999986
  9
$DIMLFAC
 40
1.0
  9
$DIMTOFL
 70
     0
  9
$DIMTVP
 40
0.0
  9
$DIMTIX
 70
     0
  9
$DIMSOXD
 70
     0
  9
$DIMSAH
 70
     0
  9
$DIMBLK1
  1

  9
$DIMBLK2
  1

  9
$DIMSTYLE
  2
STANDARD
  9
$DIMCLRD
 70
     0
  9
$DIMCLRE
 70
     0
  9
$DIMCLRT
 70
     0
  9
$DIMTFAC
 40
1.0
  9
$DIMGAP
 40
0.09
  9
$LUNITS
 70
     2
  9
$LUPREC
 70
     4
  9
$SKETCHINC
 40
0.1
  9
$FILLETRAD
 40
0.0
  9
$AUNITS
 70
     0
  9
$AUPREC
 70
     0
  9
$MENU
  1
.
  9
$ELEVATION
 40
0.0
  9
$PELEVATION
 40
0.0
  9
$THICKNESS
 40
0.0
  9
$LIMCHECK
 70
     0
  9
$BLIPMODE
 70
     0
  9
$CHAMFERA
 40
0.0
  9
$CHAMFERB
 40
0.0
  9
$SKPOLY
 70
     0
  9
$TDCREATE
 40
2458060.468368056230247
  9
$TDUPDATE
 40
2459565.5340277780778706
  9
$TDINDWG
 40
0.4237454861
  9
$TDUSRTIMER
 40
0.4237454861
  9
$USRTIMER
 70
     1
  9
$ANGBASE
 50
0.0
  9
$ANGDIR
 70
     0
  9
$PDMODE
 70
     0
  9
$PDSIZE
 40
0.3125
  9
$PLINEWID
 40
0.0
  9
$COORDS
 70
     1
  9
$SPLFRAME
 70
     0
  9
$SPLINETYPE
 70
     6
  9
$SPLINESEGS
 70
     8
  9
$ATTDIA
 70
     1
  9
$ATTREQ
 70
     1
  9
$HANDLING
 70
     1
  9
$HANDSEED
  5
25063
  9
$SURFTAB1
 70
     6
  9
$SURFTAB2
 70
     6
  9
$SURFTYPE
 70
     6
  9
$SURFU
 70
     6
  9
$SURFV
 70
     6
  9
$UCSNAME
  2

  9
$UCSORG
 10
0.0
 20
0.0
 30
0.0
  9
$UCSXDIR
 10
1.0
 20
0.0
 30
0.0
  9
$UCSYDIR
 10
0.0
 20
1.0
 30
0.0
  9
$PUCSNAME
  2

  9
$PUCSORG
 10
0.0
 20
0.0
 30
0.0
  9
$PUCSXDIR
 10
1.0
 20
0.0
 30
0.0
  9
$PUCSYDIR
 10
0.0
 20
1.0
 30
0.0
  9
$USERI1
 70
     0
  9
$USERI2
 70
     0
  9
$USERI3
 70
     0
  9
$USERI4
 70
     0
  9
$USERI5
 70
     0
  9
$USERR1
 40
0.0
  9
$USERR2
 40
0.0
  9
$USERR3
 40
0.0
  9
$USERR4
 40
0.0
  9
$USERR5
 40
0.0
  9
$WORLDVIEW
 70
     1
  9
$SHADEDGE
 70
     3
  9
$SHADEDIF
 70
    70
  9
$TILEMODE
 70
     1
  9
$MAXACTVP
 70
    64
  9
$PLIMCHECK
 70
     0
  9
$PEXTMIN
 10
1.0000000000000000E+20
 20
1.0000000000000000E+20
 30
1.0000000000000000E+20
  9
$PEXTMAX
 10
-1.0000000000000000E+20
 20
-1.0000000000000000E+20
 30
-1.0000000000000000E+20
  9
$PLIMMIN
 10
0.0
 20
0.0
  9
$PLIMMAX
 10
12.0
 20
9.0
  9
$UNITMODE
 70
     0
  9
$VISRETAIN
 70
     1
  9
$PLINEGEN
 70
     0
  9
$PSLTSCALE
 70
     1
  0
ENDSEC
  0
SECTION
  2
TABLES
  0
TABLE
  2
VPORT
 70
     1
  0
VPORT
  2
*ACTIVE
 70
     0
 10
0.0
 20
0.0
 11
1.0
 21
1.0
 12
-637.0137408356358719
 22
8.3664432110992522
 13
0.0
 23
0.0
 14
1.0
 24
1.0
 15
0.0
 25
0.0
 16
0.0
 26
0.0
 36
17.1152628219792007
 17
3803.5440673828129547
 27
125.9952621967499056
 37
0.0
 40
11.7292866528384305
 41
2.344785276073619
 42
50.0
 43
0.0
 44
0.0
 50
0.0
 51
0.0
 71
     0
 72
   100
 73
     1
 74
     1
 75
     0
 76
     0
 77
     0
 78
     0
  0
ENDTAB
  0
TABLE
  2
LTYPE
 70
     2
  0
LTYPE
  2
CONTINUOUS
 70
     0
  3
Solid line
 72
    65
 73
     0
 40
0.0
  0
LTYPE
  2
PHANTOM2
 70
     0
  3
___ _ _ ___ _ _ ___ _ _ ___ _ _
 72
    65
 73
     6
 40
1.25
 49
0.625
 49
-0.125
 49
0.125
 49
-0.125
 49
0.125
 49
-0.125
  0
ENDTAB
  0
TABLE
  2
LAYER
 70
     2
  0
LAYER
  2
0
 70
     0
 62
   255
  6
CONTINUOUS
  0
LAYER
  2
DEFPOINTS
 70
     0
 62
     7
  6
CONTINUOUS
  0
ENDTAB
  0
TABLE
  2
STYLE
 70
     1
  0
STYLE
  2
STANDARD
 70
     0
 40
0.0
 41
0.8
 50
0.0
 71
     0
 42
0.2
  3
txt
  4

  0
ENDTAB
  0
TABLE
  2
VIEW
 70
     0
  0
ENDTAB
  0
TABLE
  2
UCS
 70
     0
  0
ENDTAB
  0
TABLE
  2
APPID
 70
     9
  0
APPID
  2
ACAD
 70
     0
  0
APPID
  2
ACAD_MLEADERVER
 70
     0
  0
APPID
  2
ACAD_EXEMPT_FROM_CAD_STANDARDS
 70
     0
  0
APPID
  2
ACAD_NAV_VCDISPLAY
 70
     0
  0
APPID
  2
ACAECLAYERSTANDARD
 70
     0
  0
APPID
  2
ACCMTRANSPARENCY
 70
     0
  0
APPID
  2
ACAD_DSTYLE_DIMJAG
 70
     0
  0
APPID
  2
ACAD_DSTYLE_DIMTALN
 70
     0
  0
APPID
  2
ACDBATTR
 70
     0
  0
ENDTAB
  0
TABLE
  2
DIMSTYLE
 70
     1
  0
DIMSTYLE
  2
STANDARD
 70
     0
  3

  4

  5

  6

  7

 40
1.0
 41
0.1875
 42
0.0625
 43
0.38
 44
0.125
 45
0.0
 46
0.0
 47
0.01
 48
0.01
140
0.15625
141
0.09
142
0.0
143
25.3999999999999986
144
1.0
145
0.0
146
1.0
147
0.09
 71
     1
 72
     0
 73
     1
 74
     1
 75
     0
 76
     0
 77
     0
 78
     4
170
     0
171
     2
172
     0
173
     0
174
     0
175
     0
176
     0
177
     0
178
     0
  0
ENDTAB
  0
ENDSEC
  0
SECTION
  2
BLOCKS
  0
BLOCK
  8
0
  2
$MODEL_SPACE
 70
     0
 10
0.0
 20
0.0
 30
0.0
  3
$MODEL_SPACE
  1

  0
ENDBLK
  5
21
  8
0
  0
BLOCK
 67
     1
  8
0
  2
$PAPER_SPACE
 70
     0
 10
0.0
 20
0.0
 30
0.0
  3
$PAPER_SPACE
  1

  0
ENDBLK
  5
1D
 67
     1
  8
0
  0
BLOCK
  8
0
  2
_FILLED
 70
     0
 10
0.0
 20
0.0
 30
0.0
  3
_FILLED
  1

  0
SOLID
  5
2474E
  8
0
  6
BYBLOCK
 62
     0
 10
0.0
 20
0.0
 30
0.0
 11
-1.0
 21
0.1666666667
 31
0.0
 12
-1.0
 22
-0.1666666667
 32
0.0
 13
-1.0
 23
-0.1666666667
 33
0.0
  0
ENDBLK
  5
2474F
  8
0
  6
BYBLOCK
 62
     0
  0
ENDSEC
  0
SECTION
  2
ENTITIES
  0
ATTDEF
  5
2432A
  8
DEFPOINTS
 10
3166.5307565998791688
 20
134.0141915156578136
 30
0.0
 40
0.001
  1
K-31733
  3

  2
MODELNUMBER
 70
     0
1001
ACDBATTR
1070
     0
1070
     1
  0
ATTDEF
  5
2432B
  8
DEFPOINTS
 10
3166.5307565998791688
 20
134.0125248489912053
 30
0.0
 40
0.001
  1

  3

  2
TRADENAME
 70
     0
1001
ACDBATTR
1070
     0
1070
     1
  0
ATTDEF
  5
2432C
  8
DEFPOINTS
 10
3166.5307565998791688
 20
134.0108581823245117
 30
0.0
 40
0.001
  1
SINK RACK
  3

  2
PRODUCT
 70
     0
1001
ACDBATTR
1070
     0
1070
     1
  0
LINE
  5
24CEB
  8
0
 10
3153.3147805865501141
 20
134.4907764016166141
 30
0.0
 11
3157.2385633413641699
 21
134.4907764016166141
 31
0.0
  0
LINE
  5
24CEC
  8
0
 10
3157.8197022559547804
 20
134.4907764016166141
 30
0.0
 11
3166.2385637212728398
 21
134.4907764016166141
 31
0.0
  0
LINE
  5
24CED
  8
0
 10
3166.819702635863905
 20
134.4907764016166141
 30
0.0
 11
3175.2385631729162014
 21
134.4907764016166141
 31
0.0
  0
LINE
  5
24CEE
  8
0
 10
3175.8197020875059025
 20
134.4907764016166141
 30
0.0
 11
3179.7434837737500857
 21
134.4907764016166141
 31
0.0
  0
LINE
  5
24CEF
  8
0
 10
3153.3147669448499073
 20
134.3032764016166141
 30
0.0
 11
3157.2385633413969117
 21
134.3032764016166141
 31
0.0
  0
LINE
  5
24CF0
  8
0
 10
3157.8197022559252218
 20
134.3032764016166141
 30
0.0
 11
3162.0217966110690213
 21
134.3032764016166141
 31
0.0
  0
LINE
  5
24CF1
  8
0
 10
3162.0362197305757945
 20
134.3032764016166141
 30
0.0
 11
3166.2385637213051268
 21
134.3032764016166141
 31
0.0
  0
LINE
  5
24CF2
  8
0
 10
3166.8197026358348012
 20
134.3032764016166141
 30
0.0
 11
3171.0217993993328491
 21
134.3032764016166141
 31
0.0
  0
LINE
  5
24CF3
  8
0
 10
3171.0362225188400771
 20
134.3032764016166141
 30
0.0
 11
3175.2385631729462148
 21
134.3032764016166141
 31
0.0
  0
LINE
  5
24CF4
  8
0
 10
3175.8197020874740701
 20
134.3032764016166141
 30
0.0
 11
3179.7434974154489282
 21
134.3032764016166141
 31
0.0
  0
LINE
  5
24CF5
  8
0
 10
3153.3147669448499073
 20
134.1975264016166136
 30
0.0
 11
3157.2444823304022066
 21
134.1975264016166136
 31
0.0
  0
LINE
  5
24CF6
  8
0
 10
3157.8137832665188398
 20
134.1975264016166136
 30
0.0
 11
3161.9359540863210896
 21
134.1975264016166136
 31
0.0
  0
LINE
  5
24CF7
  8
0
 10
3162.1220621932461654
 20
134.1975264016166136
 30
0.0
 11
3166.2444840566131461
 21
134.1975264016166136
 31
0.0
  0
LINE
  5
24CF8
  8
0
 10
3166.8137849927320531
 20
134.1975264016166136
 30
0.0
 11
3170.9359568745849174
 21
134.1975264016166136
 31
0.0
  0
LINE
  5
24CF9
  8
0
 10
3171.1220649815099932
 20
134.1975264016166136
 30
0.0
 11
3175.2444815650060264
 21
134.1975264016166136
 31
0.0
  0
LINE
  5
24CFA
  8
0
 10
3175.8137825011231143
 20
134.1975264016166136
 30
0.0
 11
3179.743498651650043
 21
134.1975264016166136
 31
0.0
  0
LINE
  5
24CFB
  8
0
 10
3153.3147669448499073
 20
134.1975264016166136
 30
0.0
 11
3153.3147669448499073
 21
134.3032764016166141
 31
0.0
  0
ARC
  5
24CFC
  8
0
 10
3153.3154480516391232
 20
134.397030513806186
 30
0.0
 40
0.0937482639359005
 50
90.4079356147639288
 51
269.583726822255926
  0
ARC
  5
24CFD
  8
0
 10
3153.2588762141181178
 20
134.3911807078627874
 30
0.0
 40
0.3258952612321534
 50
17.7958303602679493
 51
91.9570127835326474
  0
ARC
  5
24CFE
  8
0
 10
3153.2591320529600125
 20
134.3875232642523088
 30
0.0
 40
0.3295593343304527
 50
91.9797512199850331
 51
153.3716802515851896
  0
ARC
  5
24CFF
  8
0
 10
3153.3571998136271759
 20
134.3673195102215914
 30
0.0
 40
0.4270663502910356
 50
156.8476869005106096
 51
175.725240565302812
  0
ARC
  5
24D00
  8
0
 10
3153.333805058623966
 20
134.4280571339276946
 30
0.0
 40
0.4035200728687246
 50
184.1076427532389062
 51
215.0663562897591135
  0
ARC
  5
24D01
  8
0
 10
3153.2545793351300745
 20
134.4025493248713872
 30
0.0
 40
0.3249554324255839
 50
219.4149077973835062
 51
251.7718355040896938
  0
ARC
  5
24D02
  8
0
 10
3153.2573779108101917
 20
134.411047160386488
 30
0.0
 40
0.3339022326513972
 50
251.7718355040896938
 51
289.4380565123810243
  0
ARC
  5
24D03
  8
0
 10
3153.2605363615521128
 20
134.4020972319931104
 30
0.0
 40
0.324411340736685
 50
289.4380565123810243
 51
320.9062705033084058
  0
ARC
  5
24D04
  8
0
 10
3153.2815682781729265
 20
134.3979038569897
 30
0.0
 40
0.2522770553481961
 50
21.6029858454622499
 51
99.9046457777151744
  0
ARC
  5
24D05
  8
0
 10
3153.2815359663409254
 20
134.3980889068467093
 30
0.0
 40
0.2520892056634906
 50
99.9046457777151744
 51
185.7109796220337046
  0
ARC
  5
24D06
  8
0
 10
3153.2849564504172122
 20
134.3984309785577125
 30
0.0
 40
0.2555267519356423
 50
185.7109796220337046
 51
248.8249681804730074
  0
ARC
  5
24D07
  8
0
 10
3153.2823619365931336
 20
134.3917332670723965
 30
0.0
 40
0.2483440754757546
 50
248.8249681804730074
 51
308.5408695625729933
  0
LINE
  5
24D08
  8
0
 10
3153.3886807121489255
 20
134.3030264015164903
 30
0.0
 11
3153.3886807121489255
 21
134.1975264016166136
 31
0.0
  0
LINE
  5
24D09
  8
0
 10
3153.4792600927498825
 20
134.1975264016166136
 30
0.0
 11
3153.4792600927498825
 21
134.3030264015164903
 31
0.0
  0
LINE
  5
24D0A
  8
0
 10
3153.681947416750063
 20
134.3030264015164903
 30
0.0
 11
3153.681947416750063
 21
134.1975264018165888
 31
0.0
  0
LINE
  5
24D0B
  8
0
 10
3154.2016529375500795
 20
134.1975264016166136
 30
0.0
 11
3154.2016529375500795
 21
134.3030264015164903
 31
0.0
  0
ARC
  5
24D0C
  8
0
 10
3157.308800484745916
 20
134.6439319658850877
 30
0.0
 40
0.0600000000985955
 50
96.8022204300572753
 51
173.9669529100729051
  0
ARC
  5
24D0D
  8
0
 10
3157.5291327982490657
 20
132.796778538027695
 30
0.0
 40
1.92024786380364
 50
83.1977795699427389
 51
96.8022204300572753
  0
ARC
  5
24D0E
  8
0
 10
3157.7494651117440299
 20
134.6439319657966109
 30
0.0
 40
0.0600000001876875
 50
6.0330468665767096
 51
83.1977795699427389
  0
ARC
  5
24D0F
  8
0
 10
3155.1971074262919501
 20
134.3970264020400123
 30
0.0
 40
2.6242699371439602
 50
354.4630057774983811
 51
5.5369941992790741
  0
ARC
  5
24D10
  8
0
 10
3157.7494651119800437
 20
134.1501208372133931
 30
0.0
 40
0.0599999998493631
 50
276.8022202594988244
 51
353.9669531102007909
  0
ARC
  5
24D11
  8
0
 10
3157.5291327987160912
 20
135.9972743098012131
 30
0.0
 40
1.9202479079415271
 50
263.1977797133956187
 51
276.8022202594988244
  0
ARC
  5
24D12
  8
0
 10
3157.3088004845722025
 20
134.1501208372606868
 30
0.0
 40
0.0599999997920296
 50
186.0330458973994041
 51
263.1977797133956187
  0
ARC
  5
24D13
  8
0
 10
3159.8611583485871961
 20
134.397026402067695
 30
0.0
 40
2.6242701145886098
 50
174.4630061768910139
 51
185.5369938237039094
  0
ARC
  5
24D14
  8
0
 10
3162.02900817082309
 20
134.2095278431094982
 30
0.0
 40
0.0940255221534314
 50
0.2981741823893029
 51
179.7041818946948126
  0
ARC
  5
24D15
  8
0
 10
3162.0290081397829454
 20
134.211037486675707
 30
0.0
 40
0.0940298159375329
 50
180.6240896729059955
 51
359.378266404178305
  0
LINE
  5
24D16
  8
0
 10
3161.9353466870238663
 20
134.2027225271343127
 30
0.0
 11
3161.9354994604727835
 21
134.1019330178187943
 31
0.0
  0
ARC
  5
24D17
  8
0
 10
3162.0244085446001918
 20
134.1020677833070067
 30
0.0
 40
0.0889091862635429
 50
180.0868470062432039
 51
215.8197300218851069
  0
ARC
  5
24D18
  8
0
 10
3162.032719706287935
 20
134.1080663339207888
 30
0.0
 40
0.0991589676307753
 50
215.8197300218851069
 51
244.3807750382844972
  0
ARC
  5
24D19
  8
0
 10
3162.0294017746018653
 20
134.1011472351883924
 30
0.0
 40
0.0914854679117234
 50
244.3807750382844972
 51
307.3018471086579098
  0
ARC
  5
24D1A
  8
0
 10
3162.024299825559865
 20
134.107844052740802
 30
0.0
 40
0.0999043306235779
 50
307.3018471086579098
 51
332.5271506407610786
  0
ARC
  5
24D1B
  8
0
 10
3162.0341053273109537
 20
134.1027455358326961
 30
0.0
 40
0.0888525099934329
 50
332.5271506407610786
 51
2.4169270428687541
  0
LINE
  5
24D1C
  8
0
 10
3162.1228787954501058
 20
134.1064925195165927
 30
0.0
 11
3162.1228829449510158
 21
134.2054770035921081
 31
0.0
  0
ARC
  5
24D1D
  8
0
 10
3166.3088032730101986
 20
134.6439319658850877
 30
0.0
 40
0.0600000000985955
 50
96.8022204300572753
 51
173.9669529100729051
  0
ARC
  5
24D1E
  8
0
 10
3166.529135586513803
 20
132.796778538027695
 30
0.0
 40
1.92024786380364
 50
83.1977795699427389
 51
96.8022204300572753
  0
ARC
  5
24D1F
  8
0
 10
3166.7494679000078577
 20
134.6439319657966109
 30
0.0
 40
0.0600000001876875
 50
6.0330468665767096
 51
83.1977795699427389
  0
ARC
  5
24D20
  8
0
 10
3164.1965124946600554
 20
134.3970264020402112
 30
0.0
 40
2.6248648687755671
 50
354.4642646699730903
 51
5.5357353068043853
  0
ARC
  5
24D21
  8
0
 10
3166.7494679002438716
 20
134.1501208372133931
 30
0.0
 40
0.0599999998493631
 50
276.8022202594988244
 51
353.9669531102007909
  0
ARC
  5
24D22
  8
0
 10
3166.529135586979919
 20
135.9972743098012131
 30
0.0
 40
1.9202479079415271
 50
263.1977797133956187
 51
276.8022202594988244
  0
ARC
  5
24D23
  8
0
 10
3166.3088032728360304
 20
134.1501208372606868
 30
0.0
 40
0.0599999997920296
 50
186.0330458973994041
 51
263.1977797133956187
  0
ARC
  5
24D24
  8
0
 10
3168.8605636883939951
 20
134.397026402067695
 30
0.0
 40
2.623675454395443
 50
174.461747285750107
 51
185.5382527148474026
  0
ARC
  5
24D25
  8
0
 10
3171.0290109590869179
 20
134.2095278431094982
 30
0.0
 40
0.0940255221534314
 50
0.2981741823893029
 51
179.7041818946948126
  0
ARC
  5
24D26
  8
0
 10
3171.0290109280467732
 20
134.211037486675707
 30
0.0
 40
0.0940298159375329
 50
180.6240896729059955
 51
359.378266404178305
  0
LINE
  5
24D27
  8
0
 10
3170.9353494752881488
 20
134.2027225271343127
 30
0.0
 11
3170.9355022487370661
 21
134.1019330178187943
 31
0.0
  0
ARC
  5
24D28
  8
0
 10
3171.0244113328640196
 20
134.1020677833070067
 30
0.0
 40
0.0889091862635429
 50
180.0868470062432039
 51
215.8197300218851069
  0
ARC
  5
24D29
  8
0
 10
3171.0327224945522175
 20
134.1080663339207888
 30
0.0
 40
0.0991589676307753
 50
215.8197300218851069
 51
244.3807750382844972
  0
ARC
  5
24D2A
  8
0
 10
3171.0294045628670574
 20
134.1011472351883924
 30
0.0
 40
0.0914854679117234
 50
244.3807750382844972
 51
307.3018471086579098
  0
ARC
  5
24D2B
  8
0
 10
3171.0243026138250571
 20
134.107844052740802
 30
0.0
 40
0.0999043306235779
 50
307.3018471086579098
 51
332.5271506407610786
  0
ARC
  5
24D2C
  8
0
 10
3171.0341081155747816
 20
134.1027455358326961
 30
0.0
 40
0.0888525099934329
 50
332.5271506407610786
 51
2.4169270428687541
  0
LINE
  5
24D2D
  8
0
 10
3171.1228815837139337
 20
134.1064925195165927
 30
0.0
 11
3171.1228857332148436
 21
134.2054770035921081
 31
0.0
  0
LINE
  5
24D2E
  8
0
 10
3179.7434837737500857
 20
134.4907764016166141
 30
0.0
 11
3175.8197020875059025
 21
134.4907764016166141
 31
0.0
  0
LINE
  5
24D2F
  8
0
 10
3179.7434974154489282
 20
134.3032764016166141
 30
0.0
 11
3175.8197020874740701
 21
134.3032764016166141
 31
0.0
  0
LINE
  5
24D30
  8
0
 10
3179.7434974154489282
 20
134.1975264016166136
 30
0.0
 11
3175.8137825011231143
 21
134.1975264016166136
 31
0.0
  0
LINE
  5
24D31
  8
0
 10
3179.7434974154489282
 20
134.1975264016166136
 30
0.0
 11
3179.7434974154489282
 21
134.3032764016166141
 31
0.0
  0
ARC
  5
24D32
  8
0
 10
3179.7428163086610766
 20
134.397030513806186
 30
0.0
 40
0.0937482639359005
 50
270.416273177744074
 51
89.5920643852360854
  0
ARC
  5
24D33
  8
0
 10
3179.7993881461811725
 20
134.3911807078627874
 30
0.0
 40
0.3258952612321534
 50
88.0429872164673668
 51
162.2041696397319868
  0
ARC
  5
24D34
  8
0
 10
3179.7991990224300025
 20
134.3856458546545127
 30
0.0
 40
0.3314333446398561
 50
26.8291283827159397
 51
88.0429872164673668
  0
ARC
  5
24D35
  8
0
 10
3179.7839273628042065
 20
134.4068327353394068
 30
0.0
 40
0.3430635868000264
 50
322.1277250252749127
 51
359.0403130592965795
  0
ARC
  5
24D36
  8
0
 10
3179.7509734788031892
 20
134.3823227646940097
 30
0.0
 40
0.3764372983657263
 50
2.857169937219536
 51
23.9664285877022891
  0
ARC
  5
24D37
  8
0
 10
3179.8036850251701253
 20
134.4025493248713872
 30
0.0
 40
0.3249554324255839
 50
288.2281644959102778
 51
320.5850922026165222
  0
ARC
  5
24D38
  8
0
 10
3179.8008864494890986
 20
134.411047160386488
 30
0.0
 40
0.3339022326513972
 50
250.5619434876190041
 51
288.2281644959102778
  0
ARC
  5
24D39
  8
0
 10
3179.7977279987471775
 20
134.4020972319931104
 30
0.0
 40
0.324411340736685
 50
219.0937294966915942
 51
250.5619434876190041
  0
ARC
  5
24D3A
  8
0
 10
3179.776696082125909
 20
134.3979038569897
 30
0.0
 40
0.2522770553481961
 50
80.095354222284854
 51
158.3970141545376862
  0
ARC
  5
24D3B
  8
0
 10
3179.7767283939588197
 20
134.3980889068467093
 30
0.0
 40
0.2520892056634906
 50
354.2890203779663238
 51
80.095354222284854
  0
ARC
  5
24D3C
  8
0
 10
3179.7733079098820781
 20
134.3984309785577125
 30
0.0
 40
0.2555267519356423
 50
291.1750318195270211
 51
354.2890203779663238
  0
ARC
  5
24D3D
  8
0
 10
3179.7759024237070662
 20
134.3917332670723965
 30
0.0
 40
0.2483440754757546
 50
231.4591304374270919
 51
291.1750318195270211
  0
LINE
  5
24D3E
  8
0
 10
3179.6695836481490005
 20
134.3030264015164903
 30
0.0
 11
3179.6695836481490005
 21
134.1975264016166136
 31
0.0
  0
LINE
  5
24D3F
  8
0
 10
3179.5790042675498626
 20
134.1975264016166136
 30
0.0
 11
3179.5790042675498626
 21
134.3030264015164903
 31
0.0
  0
LINE
  5
24D40
  8
0
 10
3179.3763169435501368
 20
134.3030264015164903
 30
0.0
 11
3179.3763169435501368
 21
134.1975264018165888
 31
0.0
  0
LINE
  5
24D41
  8
0
 10
3178.8566114227501203
 20
134.1975264016166136
 30
0.0
 11
3178.8566114227501203
 21
134.3030264015164903
 31
0.0
  0
ARC
  5
24D42
  8
0
 10
3175.749463875553829
 20
134.6439319658850877
 30
0.0
 40
0.0600000000985955
 50
6.03304708992711
 51
83.1977795699427389
  0
ARC
  5
24D43
  8
0
 10
3175.5291315620502246
 20
132.796778538027695
 30
0.0
 40
1.92024786380364
 50
83.1977795699427389
 51
96.8022204300572753
  0
ARC
  5
24D44
  8
0
 10
3175.3087992485561699
 20
134.6439319657966109
 30
0.0
 40
0.0600000001876875
 50
96.8022204300572753
 51
173.9669531334232886
  0
ARC
  5
24D45
  8
0
 10
3177.8614221048910622
 20
134.3970264020400975
 30
0.0
 40
2.6245338708935
 50
174.4635643629040942
 51
185.5364356603184035
  0
ARC
  5
24D46
  8
0
 10
3175.308799248320156
 20
134.1501208372133931
 30
0.0
 40
0.0599999998493631
 50
186.0330468897990954
 51
263.1977797405011756
  0
ARC
  5
24D47
  8
0
 10
3175.5291315615831991
 20
135.9972743098012131
 30
0.0
 40
1.9202479079415271
 50
263.1977797405011756
 51
276.802220286604495
  0
ARC
  5
24D48
  8
0
 10
3175.7494638757279972
 20
134.1501208372606868
 30
0.0
 40
0.0599999997920296
 50
276.802220286604495
 51
353.9669541026005959
  0
ARC
  5
24D49
  8
0
 10
3173.1973711291811924
 20
134.397026402067695
 30
0.0
 40
2.624006234254713
 50
354.4624476143711718
 51
5.5375523850337878
  0
ENDSEC
  0
EOF
