  0
SECTION
  2
HEADER
  9
$ACADVER
  1
AC1009
  9
$INSBASE
 10
2943.8875594305231971
 20
201.4044750091194089
 30
0.0
  9
$EXTMIN
 10
2934.835719533727115
 20
170.8230188922894968
 30
-0.0000000000112498
  9
$EXTMAX
 10
2953.0846600050140296
 20
201.4023150850011064
 30
0.0000000000002956
  9
$LIMMIN
 10
0.0
 20
0.0
  9
$LIMMAX
 10
11.6929133858000007
 20
8.2677165353999982
  9
$ORTHOMODE
 70
     1
  9
$REGENMODE
 70
     1
  9
$FILLMODE
 70
     1
  9
$QTEXTMODE
 70
     0
  9
$MIRRTEXT
 70
     0
  9
$DRAGMODE
 70
     2
  9
$LTSCALE
 40
0.6431102362
  9
$OSMODE
 70
  4095
  9
$ATTMODE
 70
     1
  9
$TEXTSIZE
 40
0.2
  9
$TRACEWID
 40
0.05
  9
$TEXTSTYLE
  7
STANDARD
  9
$CLAYER
  8
0
  9
$CELTYPE
  6
BYLAYER
  9
$CECOLOR
 62
   256
  9
$DIMSCALE
 40
1.0
  9
$DIMASZ
 40
0.1875
  9
$DIMEXO
 40
0.0625
  9
$DIMDLI
 40
0.4443307087
  9
$DIMRND
 40
0.0
  9
$DIMDLE
 40
0.0
  9
$DIMEXE
 40
0.125
  9
$DIMTP
 40
0.01
  9
$DIMTM
 40
0.01
  9
$DIMTXT
 40
2.0
  9
$DIMCEN
 40
0.1052362205
  9
$DIMTSZ
 40
0.0
  9
$DIMTOL
 70
     1
  9
$DIMLIM
 70
     0
  9
$DIMTIH
 70
     1
  9
$DIMTOH
 70
     1
  9
$DIMSE1
 70
     0
  9
$DIMSE2
 70
     0
  9
$DIMTAD
 70
     0
  9
$DIMZIN
 70
     0
  9
$DIMBLK
  1

  9
$DIMASO
 70
     1
  9
$DIMSHO
 70
     1
  9
$DIMPOST
  1
\X
  9
$DIMAPOST
  1

  9
$DIMALT
 70
     1
  9
$DIMALTD
 70
     2
  9
$DIMALTF
 40
25.3999999999999986
  9
$DIMLFAC
 40
1.0
  9
$DIMTOFL
 70
     0
  9
$DIMTVP
 40
0.0
  9
$DIMTIX
 70
     0
  9
$DIMSOXD
 70
     0
  9
$DIMSAH
 70
     0
  9
$DIMBLK1
  1

  9
$DIMBLK2
  1

  9
$DIMSTYLE
  2
STANDARD
  9
$DIMCLRD
 70
     0
  9
$DIMCLRE
 70
     0
  9
$DIMCLRT
 70
     0
  9
$DIMTFAC
 40
1.0
  9
$DIMGAP
 40
0.09
  9
$LUNITS
 70
     2
  9
$LUPREC
 70
     4
  9
$SKETCHINC
 40
0.1
  9
$FILLETRAD
 40
0.0
  9
$AUNITS
 70
     0
  9
$AUPREC
 70
     0
  9
$MENU
  1
.
  9
$ELEVATION
 40
0.0
  9
$PELEVATION
 40
0.0
  9
$THICKNESS
 40
0.0
  9
$LIMCHECK
 70
     0
  9
$BLIPMODE
 70
     0
  9
$CHAMFERA
 40
0.0
  9
$CHAMFERB
 40
0.0
  9
$SKPOLY
 70
     0
  9
$TDCREATE
 40
2458060.468368056230247
  9
$TDUPDATE
 40
2459600.8181134262122214
  9
$TDINDWG
 40
0.4361528935
  9
$TDUSRTIMER
 40
0.4361528935
  9
$USRTIMER
 70
     1
  9
$ANGBASE
 50
0.0
  9
$ANGDIR
 70
     0
  9
$PDMODE
 70
     0
  9
$PDSIZE
 40
0.3125
  9
$PLINEWID
 40
0.0
  9
$COORDS
 70
     1
  9
$SPLFRAME
 70
     0
  9
$SPLINETYPE
 70
     6
  9
$SPLINESEGS
 70
     8
  9
$ATTDIA
 70
     1
  9
$ATTREQ
 70
     1
  9
$HANDLING
 70
     1
  9
$HANDSEED
  5
3194E
  9
$SURFTAB1
 70
     6
  9
$SURFTAB2
 70
     6
  9
$SURFTYPE
 70
     6
  9
$SURFU
 70
     6
  9
$SURFV
 70
     6
  9
$UCSNAME
  2

  9
$UCSORG
 10
0.0
 20
0.0
 30
0.0
  9
$UCSXDIR
 10
1.0
 20
0.0
 30
0.0
  9
$UCSYDIR
 10
0.0
 20
1.0
 30
0.0
  9
$PUCSNAME
  2

  9
$PUCSORG
 10
0.0
 20
0.0
 30
0.0
  9
$PUCSXDIR
 10
1.0
 20
0.0
 30
0.0
  9
$PUCSYDIR
 10
0.0
 20
1.0
 30
0.0
  9
$USERI1
 70
     0
  9
$USERI2
 70
     0
  9
$USERI3
 70
     0
  9
$USERI4
 70
     0
  9
$USERI5
 70
     0
  9
$USERR1
 40
0.0
  9
$USERR2
 40
0.0
  9
$USERR3
 40
0.0
  9
$USERR4
 40
0.0
  9
$USERR5
 40
0.0
  9
$WORLDVIEW
 70
     1
  9
$SHADEDGE
 70
     3
  9
$SHADEDIF
 70
    70
  9
$TILEMODE
 70
     1
  9
$MAXACTVP
 70
    64
  9
$PLIMCHECK
 70
     0
  9
$PEXTMIN
 10
1.0000000000000000E+20
 20
1.0000000000000000E+20
 30
1.0000000000000000E+20
  9
$PEXTMAX
 10
-1.0000000000000000E+20
 20
-1.0000000000000000E+20
 30
-1.0000000000000000E+20
  9
$PLIMMIN
 10
0.0
 20
0.0
  9
$PLIMMAX
 10
12.0
 20
9.0
  9
$UNITMODE
 70
     0
  9
$VISRETAIN
 70
     1
  9
$PLINEGEN
 70
     0
  9
$PSLTSCALE
 70
     1
  0
ENDSEC
  0
SECTION
  2
TABLES
  0
TABLE
  2
VPORT
 70
     1
  0
VPORT
  2
*ACTIVE
 70
     0
 10
0.0
 20
0.0
 11
1.0
 21
1.0
 12
-859.5838776134423824
 22
60.1174047918953676
 13
0.0
 23
0.0
 14
1.0
 24
1.0
 15
0.0
 25
0.0
 16
0.0
 26
0.0
 36
17.1152628219792007
 17
3803.5440673828129547
 27
125.9952621967499056
 37
0.0
 40
30.8041439588344588
 41
2.344785276073619
 42
50.0
 43
0.0
 44
0.0
 50
0.0
 51
0.0
 71
     0
 72
   100
 73
     1
 74
     1
 75
     0
 76
     0
 77
     0
 78
     0
  0
ENDTAB
  0
TABLE
  2
LTYPE
 70
     2
  0
LTYPE
  2
CONTINUOUS
 70
     0
  3
Solid line
 72
    65
 73
     0
 40
0.0
  0
LTYPE
  2
PHANTOM2
 70
     0
  3
___ _ _ ___ _ _ ___ _ _ ___ _ _
 72
    65
 73
     6
 40
1.25
 49
0.625
 49
-0.125
 49
0.125
 49
-0.125
 49
0.125
 49
-0.125
  0
ENDTAB
  0
TABLE
  2
LAYER
 70
     2
  0
LAYER
  2
0
 70
     0
 62
   255
  6
CONTINUOUS
  0
LAYER
  2
DEFPOINTS
 70
     0
 62
     7
  6
CONTINUOUS
  0
ENDTAB
  0
TABLE
  2
STYLE
 70
     1
  0
STYLE
  2
STANDARD
 70
     0
 40
0.0
 41
0.8
 50
0.0
 71
     0
 42
0.2
  3
txt
  4

  0
ENDTAB
  0
TABLE
  2
VIEW
 70
     0
  0
ENDTAB
  0
TABLE
  2
UCS
 70
     0
  0
ENDTAB
  0
TABLE
  2
APPID
 70
     9
  0
APPID
  2
ACAD
 70
     0
  0
APPID
  2
ACAD_MLEADERVER
 70
     0
  0
APPID
  2
ACAD_EXEMPT_FROM_CAD_STANDARDS
 70
     0
  0
APPID
  2
ACAD_NAV_VCDISPLAY
 70
     0
  0
APPID
  2
ACAECLAYERSTANDARD
 70
     0
  0
APPID
  2
ACCMTRANSPARENCY
 70
     0
  0
APPID
  2
ACAD_DSTYLE_DIMJAG
 70
     0
  0
APPID
  2
ACAD_DSTYLE_DIMTALN
 70
     0
  0
APPID
  2
ACDBATTR
 70
     0
  0
ENDTAB
  0
TABLE
  2
DIMSTYLE
 70
     1
  0
DIMSTYLE
  2
STANDARD
 70
     0
  3

  4

  5

  6

  7

 40
1.0
 41
0.1875
 42
0.0625
 43
0.38
 44
0.125
 45
0.0
 46
0.0
 47
0.01
 48
0.01
140
0.15625
141
0.09
142
0.0
143
25.3999999999999986
144
1.0
145
0.0
146
1.0
147
0.09
 71
     1
 72
     0
 73
     1
 74
     1
 75
     0
 76
     0
 77
     0
 78
     4
170
     0
171
     2
172
     0
173
     0
174
     0
175
     0
176
     0
177
     0
178
     0
  0
ENDTAB
  0
ENDSEC
  0
SECTION
  2
BLOCKS
  0
BLOCK
  8
0
  2
$MODEL_SPACE
 70
     0
 10
0.0
 20
0.0
 30
0.0
  3
$MODEL_SPACE
  1

  0
ENDBLK
  5
21
  8
0
  0
BLOCK
 67
     1
  8
0
  2
$PAPER_SPACE
 70
     0
 10
0.0
 20
0.0
 30
0.0
  3
$PAPER_SPACE
  1

  0
ENDBLK
  5
1D
 67
     1
  8
0
  0
BLOCK
  8
0
  2
_FILLED
 70
     0
 10
0.0
 20
0.0
 30
0.0
  3
_FILLED
  1

  0
SOLID
  5
30ECC
  8
0
  6
BYBLOCK
 62
     0
 10
0.0
 20
0.0
 30
0.0
 11
-1.0
 21
0.1666666667
 31
0.0
 12
-1.0
 22
-0.1666666667
 32
0.0
 13
-1.0
 23
-0.1666666667
 33
0.0
  0
ENDBLK
  5
30ECD
  8
0
  6
BYBLOCK
 62
     0
  0
ENDSEC
  0
SECTION
  2
ENTITIES
  0
LINE
  5
311F3
  8
0
 10
2934.8960696067879326
 20
199.695555643438297
 30
0.0
 11
2934.8960696067879326
 21
196.0547004246795098
 31
0.0
  0
LINE
  5
311F4
  8
0
 10
2936.5574191036621414
 20
200.7844750091194044
 30
0.0
 11
2951.2176997573828885
 21
200.7844750091194044
 31
0.0
  0
ARC
  5
311F5
  8
0
 10
2936.5241850742581846
 20
197.7546576925539057
 30
0.0
 40
3.0299995829159099
 50
89.3715484933165243
 51
107.6730220929482016
  0
ARC
  5
311F6
  8
0
 10
2935.9521426076407806
 20
199.5433447742028079
 30
0.0
 40
1.152069005655997
 50
107.5722110842860957
 51
133.5041793888796917
  0
ARC
  5
311F7
  8
0
 10
2935.7814516272451328
 20
199.7634173241837061
 30
0.0
 40
0.8753782796836715
 50
135.3170801556370009
 51
170.2287984675008943
  0
ARC
  5
311F8
  8
0
 10
2938.0534525047269199
 20
199.4737570539645048
 30
0.0
 40
3.1651637206457588
 50
172.0416992342551907
 51
175.9817097065327118
  0
ARC
  5
311F9
  8
0
 10
2943.9647757327970794
 20
245.2926624362742984
 30
0.0
 40
53.307958662722541
 50
266.4139385861699907
 51
269.9169962524185848
  0
ARC
  5
311FA
  8
0
 10
2942.4636734397718101
 20
221.3403423159182069
 30
0.0
 40
29.3086472717234088
 50
261.3189491105661091
 51
266.4139385861699907
  0
ARC
  5
311FB
  8
0
 10
2939.0527788773320026
 20
196.6424224358389097
 30
0.0
 40
4.3932928863798946
 50
227.5716705973584908
 51
256.6718856648050746
  0
ARC
  5
311FC
  8
0
 10
2938.5738625126350598
 20
196.1197090134837993
 30
0.0
 40
3.6843575133816611
 50
197.0594487184316108
 51
227.5847476906178883
  0
ARC
  5
311FD
  8
0
 10
2938.5832297944530183
 20
196.0994355840248886
 30
0.0
 40
3.6874315565145692
 50
180.6951176354396864
 51
196.7155966423914037
  0
LINE
  5
311FE
  8
0
 10
2936.9328551288690505
 20
192.7944430068112922
 30
0.0
 11
2936.8469753387730634
 21
192.3710030216192877
 31
0.0
  0
ARC
  5
311FF
  8
0
 10
2936.8667859513848271
 20
192.3671499680017973
 30
0.0
 40
0.0201818332735231
 50
168.9937000812768986
 51
255.9697988837073979
  0
LINE
  5
31200
  8
0
 10
2936.8618932026729453
 20
192.3475701977193921
 30
0.0
 11
2938.5315517673520844
 21
191.9784817082723123
 31
0.0
  0
ARC
  5
31201
  8
0
 10
2935.7445005927920647
 20
176.1385822812598008
 30
0.0
 40
16.0832231877657712
 50
78.8248211009538977
 51
80.0208762264800555
  0
ARC
  5
31202
  8
0
 10
2939.0333886126982179
 20
193.5403983318676921
 30
0.0
 40
1.6326088811285
 50
263.9592581136146237
 51
265.6841931975499165
  0
ARC
  5
31203
  8
0
 10
2938.9114992144659482
 20
191.9324028379903098
 30
0.0
 40
0.0200075384709431
 50
267.2191915836588123
 51
346.5122359951851081
  0
LINE
  5
31204
  8
0
 10
2938.9309549400732067
 20
191.927736325719394
 30
0.0
 11
2939.0048825938379196
 21
192.2365011470556055
 31
0.0
  0
ARC
  5
31205
  8
0
 10
2952.2533698717729749
 20
181.7744027002879079
 30
0.0
 40
15.7955006669754106
 50
178.4372374904781111
 51
179.8819610467045891
  0
ARC
  5
31206
  8
0
 10
2946.1721527764088933
 20
182.0366454309244091
 30
0.0
 40
9.7098711359024836
 50
174.172835164782299
 51
179.0054822770796932
  0
ARC
  5
31207
  8
0
 10
2944.2164563402161548
 20
182.3054866994918086
 30
0.0
 40
7.7372922194373599
 50
164.2389152243279966
 51
174.6830133994037908
  0
ARC
  5
31208
  8
0
 10
2942.3560853592489366
 20
182.801179930762089
 30
0.0
 40
5.8122914163878763
 50
148.5956250258329021
 51
163.9602388875632073
  0
ARC
  5
31209
  8
0
 10
2940.0949702851521579
 20
184.3085101214113024
 30
0.0
 40
3.098866490945682
 50
143.294705041846214
 51
150.598657963468213
  0
LINE
  5
3120A
  8
0
 10
2939.7424341736718816
 20
189.5185609743193993
 30
0.0
 11
2939.6458147032981287
 21
189.5186283108000111
 31
0.0
  0
ARC
  5
3120B
  8
0
 10
2939.6456445605581393
 20
189.2744946517979088
 30
0.0
 40
0.2441337182903927
 50
89.9600691712575156
 51
115.7216886758108956
  0
ARC
  5
3120C
  8
0
 10
2939.6453836636769665
 20
189.2750362307382943
 30
0.0
 40
0.2435325736064445
 50
115.7216886758108956
 51
143.8661426617341021
  0
ARC
  5
3120D
  8
0
 10
2947.2604953549498532
 20
183.7151055194802893
 30
0.0
 40
9.6723583533389572
 50
143.8661426617341021
 51
146.7480966584303985
  0
ARC
  5
3120E
  8
0
 10
2942.1179475783269481
 20
187.0869518536842975
 30
0.0
 40
3.5229563225447631
 50
146.7480966584303985
 51
156.8737375908156935
  0
ARC
  5
3120F
  8
0
 10
2918.6076286992201858
 20
199.2502386921337063
 30
0.0
 40
22.9584782635320188
 50
329.7796729421032751
 51
331.9964316356155223
  0
ARC
  5
31210
  8
0
 10
2948.6712438089421084
 20
182.011022884773098
 30
0.0
 40
11.6987048408399108
 50
150.9330069069912099
 51
157.2582207983762999
  0
ARC
  5
31211
  8
0
 10
2949.2773193646471555
 20
181.8493564080199008
 30
0.0
 40
12.3204533186500598
 50
157.6544334747781875
 51
167.3248873346028063
  0
ARC
  5
31212
  8
0
 10
2948.6495829898249212
 20
181.847022320272913
 30
0.0
 40
11.7093642307282302
 50
166.6397472640196042
 51
179.6701596990783969
  0
ARC
  5
31213
  8
0
 10
2948.8527516520730387
 20
181.9679334749689872
 30
0.0
 40
11.9124590162359603
 50
180.2573364805444101
 51
190.6436120882063108
  0
ARC
  5
31214
  8
0
 10
2950.0821077760961089
 20
182.2140861270036964
 30
0.0
 40
13.1661367729132603
 50
190.7082624750977971
 51
200.8914084529922945
  0
ARC
  5
31215
  8
0
 10
2950.895413517410816
 20
182.4947779044576919
 30
0.0
 40
14.0260957541367599
 50
200.7779099092171862
 51
211.0169464057632069
  0
ARC
  5
31216
  8
0
 10
2947.3814574689818073
 20
180.1253580999965038
 30
0.0
 40
9.796109686460662
 50
209.730585927439904
 51
226.479452018979714
  0
ARC
  5
31217
  8
0
 10
2943.9308239215688445
 20
177.5501365321931928
 30
0.0
 40
5.7800534363711513
 50
260.1039732033825089
 51
269.5711292438584223
  0
ARC
  5
31218
  8
0
 10
2943.7915136054971299
 20
176.3632786331469902
 30
0.0
 40
4.5873979871766331
 50
237.5556164485770125
 51
259.2704133610811823
  0
ARC
  5
31219
  8
0
 10
2944.7152956951340457
 20
177.6491560870587989
 30
0.0
 40
6.1688102371983513
 50
228.5990628675521918
 51
236.7220566062628961
  0
ARC
  5
3121A
  8
0
 10
2943.9784030506261843
 20
175.785024901044892
 30
0.0
 40
4.9565071902308837
 50
245.2743857840792998
 51
268.949815408097777
  0
ARC
  5
3121B
  8
0
 10
2944.9027945974621616
 20
177.7364123578221893
 30
0.0
 40
7.1156807130596338
 50
222.7016855747583861
 51
245.0857142059859086
  0
ARC
  5
3121C
  8
0
 10
2947.8345585411811953
 20
180.4419259560191904
 30
0.0
 40
11.1050470351370301
 50
204.9293399505056072
 51
222.7016855747583861
  0
ARC
  5
3121D
  8
0
 10
2950.418667624202044
 20
181.6430382264917114
 30
0.0
 40
13.9546593665297998
 50
189.9249838846465082
 51
204.9293399505056072
  0
ARC
  5
3121E
  8
0
 10
2961.7529445643031067
 20
182.6297309320659963
 30
0.0
 40
25.3084199401558294
 50
181.863037009135212
 51
187.7021021915157064
  0
ARC
  5
3121F
  8
0
 10
2947.7474205044968585
 20
181.8727984356384866
 30
0.0
 40
10.9501239293413004
 50
174.1988188299779097
 51
180.1195632502088131
  0
ARC
  5
31220
  8
0
 10
2949.2418214517160777
 20
181.7209715974919959
 30
0.0
 40
12.4522176613811304
 50
164.8395095563546136
 51
174.1988188299779097
  0
ARC
  5
31221
  8
0
 10
2948.7942359083272095
 20
181.8422465345701937
 30
0.0
 40
11.9884931429282506
 50
158.8865038253680098
 51
164.8395095563546136
  0
ARC
  5
31222
  8
0
 10
2947.8781697225799689
 20
182.1959749900196925
 30
0.0
 40
11.0065048146549103
 50
151.1785055546683907
 51
158.8865038253680098
  0
ARC
  5
31223
  8
0
 10
2950.292267586457001
 20
180.8676338555935956
 30
0.0
 40
13.7619283149147904
 50
147.3022437450470932
 51
151.1785055546683907
  0
ARC
  5
31224
  8
0
 10
2940.2135581842380816
 20
187.3898705713764059
 30
0.0
 40
1.7575649375879321
 50
145.3774893466537037
 51
148.7392980386291015
  0
ARC
  5
31225
  8
0
 10
2939.0532438176778669
 20
188.1780923391150111
 30
0.0
 40
0.3550439429259165
 50
128.7687222286249948
 51
143.6643274083313031
  0
ARC
  5
31226
  8
0
 10
2939.0254358135698567
 20
188.2175186004539
 30
0.0
 40
0.3069060375356267
 50
116.7974969813379005
 51
129.33001460291581
  0
ARC
  5
31227
  8
0
 10
2939.7401729669168162
 20
189.4560724155749938
 30
0.0
 40
0.0625294572976711
 50
6.0948151332466614
 51
87.9276030337519217
  0
LINE
  5
31228
  8
0
 10
2939.8023489799729759
 20
189.4627114238193997
 30
0.0
 11
2939.8114951410511821
 21
189.0961849165061892
 31
0.0
  0
ARC
  5
31229
  8
0
 10
2939.8469955370501339
 20
189.0991781026797867
 30
0.0
 40
0.0356263565293912
 50
184.8194469710552994
 51
268.5276117206328195
  0
ARC
  5
3122A
  8
0
 10
2949.4459317505561557
 20
188.6848373498812066
 30
0.0
 40
10.5731981085782092
 50
160.6674624031541043
 51
170.4334211744435095
  0
ARC
  5
3122B
  8
0
 10
2961.1690071794109826
 20
186.7090606695822999
 30
0.0
 40
22.461603846987451
 50
170.4334211744435095
 51
175.7005753952730061
  0
ARC
  5
3122C
  8
0
 10
2928.4950326839161789
 20
192.4471514691431082
 30
0.0
 40
11.0926556376515304
 50
351.258127486158628
 51
358.5862689806044727
  0
ARC
  5
3122D
  8
0
 10
2928.7579700537407916
 20
192.4067197179898869
 30
0.0
 40
10.8266278440814201
 50
343.3695183841704761
 51
351.258127486158628
  0
ARC
  5
3122E
  8
0
 10
2926.8136753299768316
 20
192.9874656276319058
 30
0.0
 40
12.8558020072375392
 50
339.4213860517613739
 51
343.3695183841704761
  0
LINE
  5
3122F
  8
0
 10
2939.8639437544097746
 20
189.0633720227712899
 30
0.0
 11
2947.9111751066338911
 21
189.0633720227712899
 31
0.0
  0
ARC
  5
31230
  8
0
 10
2939.763105722326145
 20
180.4895939809705112
 30
0.0
 40
8.5743710100962627
 50
89.3261631862461769
 51
89.4455387493675289
  0
LINE
  5
31231
  8
0
 10
2939.8404604716238282
 20
189.0641562495102903
 30
0.0
 11
2939.8392459155038523
 21
189.4682592539070072
 31
0.0
  0
ARC
  5
31232
  8
0
 10
2939.8997697348168003
 20
189.4633695620406968
 30
0.0
 40
0.0607210160546441
 50
90.6426130505526118
 51
175.3811316136672076
  0
LINE
  5
31233
  8
0
 10
2939.8990887195718642
 20
189.5240867590194114
 30
0.0
 11
2940.3270672538728832
 21
189.5254085031193938
 31
0.0
  0
ARC
  5
31234
  8
0
 10
2940.3271413483771539
 20
189.5244405488489861
 30
0.0
 40
0.0009716875764138
 50
18.8701948264751387
 51
94.3873015411062681
  0
LINE
  5
31235
  8
0
 10
2940.3280608113727794
 20
189.5247548171192875
 30
0.0
 11
2940.3330453450730602
 21
189.4561397495193091
 31
0.0
  0
LINE
  5
31236
  8
0
 10
2940.3330453450730602
 20
189.4561397495193091
 30
0.0
 11
2940.3363709970731179
 21
189.0634848138194002
 31
0.0
  0
LINE
  5
31237
  8
0
 10
2940.3608947253519545
 20
189.0634418573351923
 30
0.0
 11
2940.3635339370230213
 21
189.446734493119294
 31
0.0
  0
ARC
  5
31238
  8
0
 10
2973.777231003363795
 20
187.1827400161697881
 30
0.0
 40
33.4903093839523933
 50
175.8714888924664024
 51
176.123764306865894
  0
ARC
  5
31239
  8
0
 10
2940.393606847828778
 20
189.5924681429553118
 30
0.0
 40
0.0198276886164526
 50
106.412355287014293
 51
176.0505445794279069
  0
LINE
  5
3123A
  8
0
 10
2943.2448115644770041
 20
189.6064702050192921
 30
0.0
 11
2944.5303072965689353
 21
189.6064702050192921
 31
0.0
  0
ARC
  5
3123B
  8
0
 10
2943.2452016748711685
 20
189.6253031440130883
 30
0.0
 40
0.0188369789844547
 50
247.3386523040666134
 51
271.1866699654727881
  0
LINE
  5
3123C
  8
0
 10
2943.2379440957720362
 20
189.6079204134194072
 30
0.0
 11
2943.2379440957720362
 21
189.610820841919292
 31
0.0
  0
LINE
  5
3123D
  8
0
 10
2940.3880073838731732
 20
189.5639605718193934
 30
0.0
 11
2940.3880070590730611
 21
190.655098724367889
 31
0.0
  0
ARC
  5
3123E
  8
0
 10
2940.674402059071781
 20
190.6550988096194033
 30
0.0
 40
0.2863950000000009
 50
89.9999996541966567
 51
180.000017055281802
  0
LINE
  5
3123F
  8
0
 10
2940.6744020608011851
 20
190.9414938096194021
 30
0.0
 11
2941.4449871013730444
 21
190.9414938049685873
 31
0.0
  0
ARC
  5
31240
  8
0
 10
2941.4449870996718346
 20
190.6597578132586932
 30
0.0
 40
0.2817359917098656
 50
359.9995296043156827
 51
89.9999996541966567
  0
LINE
  5
31241
  8
0
 10
2941.7267230913721505
 20
190.6597555002194042
 30
0.0
 11
2941.7267140949561508
 21
189.5639616719562923
 31
0.0
  0
LINE
  5
31242
  8
0
 10
2940.4465385055309525
 20
189.5525122579853132
 30
0.0
 11
2941.660536261730158
 21
189.5525122579853132
 31
0.0
  0
ARC
  5
31243
  8
0
 10
2940.4477678609259783
 20
189.7141459817935072
 30
0.0
 40
0.1616383988623534
 50
248.3018299833996991
 51
270.4357724106213823
  0
ARC
  5
31244
  8
0
 10
2941.6564533954210674
 20
189.7730905860539963
 30
0.0
 40
0.2206161114036377
 50
271.0604137739662747
 51
288.5707198614995832
  0
ARC
  5
31245
  8
0
 10
2943.2220839952151437
 20
189.5304722306503038
 30
0.0
 40
0.0818989751007199
 50
78.833869279913884
 51
87.1661307204619931
  0
LINE
  5
31246
  8
0
 10
2943.2261330957730934
 20
189.6122710503680935
 30
0.0
 11
2941.7267230913721505
 21
189.6122710504889142
 31
0.0
  0
LINE
  5
31247
  8
0
 10
2943.296999095773117
 20
189.6064669142193111
 30
0.0
 11
2943.296999095773117
 21
189.6299754015194026
 31
0.0
  0
LINE
  5
31248
  8
0
 10
2943.296999095773117
 20
189.6299754015194026
 30
0.0
 11
2944.4780990957729045
 21
189.6299754015194026
 31
0.0
  0
ARC
  5
31249
  8
0
 10
2974.5585334647498712
 20
182.4360054718526953
 30
0.0
 40
37.7657606061231093
 50
180.8891642836831863
 51
181.5598394487338112
  0
ARC
  5
3124A
  8
0
 10
2948.6866145242711355
 20
181.89083480801051
 30
0.0
 40
11.8896557529594595
 50
182.3274751776768881
 51
185.6898621044724962
  0
ARC
  5
3124B
  8
0
 10
2949.1320087969738779
 20
181.9423903889318126
 30
0.0
 40
12.3379691032929806
 50
185.7230357139225134
 51
189.5696174237270952
  0
ARC
  5
3124C
  8
0
 10
2949.6837257001429862
 20
182.0227859360711022
 30
0.0
 40
12.8953799291794198
 50
189.5143277550508003
 51
197.8003387997810023
  0
ARC
  5
3124D
  8
0
 10
2954.9534544564289718
 20
183.7147451162661014
 30
0.0
 40
18.4300675474890916
 50
197.8003387997810023
 51
205.2729488128505011
  0
ARC
  5
3124E
  8
0
 10
2947.0567100367970852
 20
179.9865314856795067
 30
0.0
 40
9.6974763338645982
 50
205.2729488128505011
 51
219.9924063789653133
  0
ARC
  5
3124F
  8
0
 10
2946.7703379896370279
 20
179.7463014762043088
 30
0.0
 40
9.3236857416248355
 50
219.9924063789653133
 51
230.9260774333870927
  0
ARC
  5
31250
  8
0
 10
2943.4181816392201654
 20
175.6176360781250878
 30
0.0
 40
4.0055253297018183
 50
230.9260774333870927
 51
247.7104658116024041
  0
ARC
  5
31251
  8
0
 10
2944.1416895697329892
 20
177.3826489518534117
 30
0.0
 40
5.9130719660761111
 50
247.7104658116024041
 51
260.3587101746699091
  0
ARC
  5
31252
  8
0
 10
2944.10542071708187
 20
178.6588569683995047
 30
0.0
 40
7.1695224799158641
 50
262.3529704826340208
 51
268.2586770472747162
  0
LINE
  5
312A2
  8
0
 10
2952.8790492542570973
 20
199.695555643438297
 30
0.0
 11
2952.8790492542570973
 21
196.0547004246795098
 31
0.0
  0
ARC
  5
312A3
  8
0
 10
2951.2509337867882095
 20
197.754657692553792
 30
0.0
 40
3.0299995829159321
 50
72.3269779070517842
 51
90.6284515066834757
  0
ARC
  5
312A4
  8
0
 10
2951.8229762534051588
 20
199.5433447742028079
 30
0.0
 40
1.152069005655997
 50
46.4958206111202585
 51
72.4277889157139043
  0
ARC
  5
312A5
  8
0
 10
2951.9936672337998971
 20
199.7634173241837061
 30
0.0
 40
0.8753782796836715
 50
9.7712015324990436
 51
44.6829198443630133
  0
ARC
  5
312A6
  8
0
 10
2949.72166635631811
 20
199.4737570539645048
 30
0.0
 40
3.1651637206457588
 50
4.0182902934689162
 51
7.9583007657448066
  0
ARC
  5
312A7
  8
0
 10
2943.8103431282479505
 20
245.2926624362742984
 30
0.0
 40
53.307958662722541
 50
270.0830037475814152
 51
273.5860614138298956
  0
ARC
  5
312A8
  8
0
 10
2945.3114454212732198
 20
221.3403423159182069
 30
0.0
 40
29.3086472717234088
 50
273.5860614138298956
 51
278.6810508894340046
  0
ARC
  5
312A9
  8
0
 10
2948.7223399837130273
 20
196.6424224358389097
 30
0.0
 40
4.3932928863798946
 50
283.3281143351949254
 51
312.4283294026415092
  0
ARC
  5
312AA
  8
0
 10
2949.2012563484099701
 20
196.1197090134837993
 30
0.0
 40
3.6843575133816611
 50
312.4152523093820832
 51
342.9405512815682755
  0
ARC
  5
312AB
  8
0
 10
2949.1918890665929212
 20
196.0994355840248886
 30
0.0
 40
3.6874315565145692
 50
343.2844033576085963
 51
359.3048823645602852
  0
ARC
  5
312AC
  8
0
 10
2935.521748989272055
 20
181.7744027002879079
 30
0.0
 40
15.7955006669754106
 50
0.1180389532954063
 51
1.562762509521852
  0
ARC
  5
312AD
  8
0
 10
2941.6029660846361367
 20
182.0366454309244091
 30
0.0
 40
9.7098711359024836
 50
0.9945177229202442
 51
5.8271648352177303
  0
ARC
  5
312AE
  8
0
 10
2943.5586625208288751
 20
182.3054866994918086
 30
0.0
 40
7.7372922194373599
 50
5.3169866005961568
 51
15.7610847756719803
  0
ARC
  5
312AF
  8
0
 10
2945.4190335017970028
 20
182.801179930762089
 30
0.0
 40
5.8122914163878763
 50
16.0397611124367891
 51
31.4043749741671405
  0
ARC
  5
312B0
  8
0
 10
2947.680148575892872
 20
184.3085101214113024
 30
0.0
 40
3.098866490945682
 50
29.401342036531819
 51
36.7052949581537504
  0
LINE
  5
312B1
  8
0
 10
2948.0326846873731483
 20
189.5185609743193993
 30
0.0
 11
2948.1293041577478107
 21
189.5186283108000111
 31
0.0
  0
ARC
  5
312B2
  8
0
 10
2948.1294743004868906
 20
189.2744946517979088
 30
0.0
 40
0.2441337182903927
 50
64.2783113241890618
 51
90.0399308287424702
  0
ARC
  5
312B3
  8
0
 10
2948.1297351973680634
 20
189.2750362307382943
 30
0.0
 40
0.2435325736064445
 50
36.1338573382659618
 51
64.2783113241890618
  0
ARC
  5
312B4
  8
0
 10
2940.5146235060951767
 20
183.7151055194802893
 30
0.0
 40
9.6723583533389572
 50
33.2519033415695873
 51
36.1338573382659618
  0
ARC
  5
312B5
  8
0
 10
2945.6571712827180818
 20
187.0869518536842975
 30
0.0
 40
3.5229563225447631
 50
23.126262409184239
 51
33.2519033415695873
  0
ARC
  5
312B6
  8
0
 10
2969.1674901618248441
 20
199.2502386921337063
 30
0.0
 40
22.9584782635320188
 50
208.0035683643845061
 51
210.2203270578966965
  0
ARC
  5
312B7
  8
0
 10
2939.1038750521029215
 20
182.011022884773098
 30
0.0
 40
11.6987048408399108
 50
22.7417792016237392
 51
29.0669930930088505
  0
ARC
  5
312B8
  8
0
 10
2938.497799496398784
 20
181.8493564080199008
 30
0.0
 40
12.3204533186500598
 50
12.67511266539716
 51
22.3455665252217486
  0
ARC
  5
312B9
  8
0
 10
2939.1255358712201087
 20
181.847022320272913
 30
0.0
 40
11.7093642307282302
 50
0.3298403009215801
 51
13.3602527359803798
  0
ARC
  5
312BA
  8
0
 10
2938.9223672089719912
 20
181.9679334749689872
 30
0.0
 40
11.9124590162359603
 50
349.3563879117937176
 51
359.7426635194556184
  0
ARC
  5
312BB
  8
0
 10
2937.6930110849489211
 20
182.2140861270036964
 30
0.0
 40
13.1661367729132603
 50
339.108591547007677
 51
349.2917375249022029
  0
ARC
  5
312BC
  8
0
 10
2936.8797053436342139
 20
182.4947779044576919
 30
0.0
 40
14.0260957541367599
 50
328.9830535942368215
 51
339.2220900907827854
  0
ARC
  5
312BD
  8
0
 10
2940.3936613920632226
 20
180.1253580999965038
 30
0.0
 40
9.796109686460662
 50
313.520547981020286
 51
330.2694140725602097
  0
ARC
  5
312BE
  8
0
 10
2943.8442949394761854
 20
177.5501365321931928
 30
0.0
 40
5.7800534363711513
 50
270.4288707561415777
 51
279.8960267966174911
  0
ARC
  5
312BF
  8
0
 10
2943.9836052555488095
 20
176.3632786331469902
 30
0.0
 40
4.5873979871766331
 50
280.7295866389188177
 51
302.4443835514230159
  0
ARC
  5
312C0
  8
0
 10
2943.0598231659109842
 20
177.6491560870587989
 30
0.0
 40
6.1688102371983513
 50
303.2779433937370754
 51
311.4009371324477797
  0
ARC
  5
312C1
  8
0
 10
2943.7967158104202099
 20
175.785024901044892
 30
0.0
 40
4.9565071902309228
 50
271.050184591902223
 51
294.7256142159205865
  0
ARC
  5
312C2
  8
0
 10
2942.8723242635828683
 20
177.7364123578221893
 30
0.0
 40
7.1156807130596338
 50
294.9142857940141198
 51
317.2983144252416992
  0
ARC
  5
312C3
  8
0
 10
2939.9405603198629251
 20
180.4419259560191904
 30
0.0
 40
11.1050470351370301
 50
317.2983144252416992
 51
335.0706600494942791
  0
ARC
  5
312C4
  8
0
 10
2937.356451236842986
 20
181.6430382264917114
 30
0.0
 40
13.9546593665297998
 50
335.0706600494942791
 51
350.0750161153534918
  0
ARC
  5
312C5
  8
0
 10
2926.0221742967419232
 20
182.629730932065911
 30
0.0
 40
25.3084199401558685
 50
352.2978978084842083
 51
358.1369629908646743
  0
ARC
  5
312C6
  8
0
 10
2940.0276983565490809
 20
181.8727984356384866
 30
0.0
 40
10.9501239293413004
 50
359.8804367497911016
 51
5.8011811700220699
  0
ARC
  5
312C7
  8
0
 10
2938.5332974093289522
 20
181.7209715974919959
 30
0.0
 40
12.4522176613811304
 50
5.8011811700220699
 51
15.1604904436453296
  0
ARC
  5
312C8
  8
0
 10
2938.9808829527178204
 20
181.8422465345701937
 30
0.0
 40
11.9884931429282506
 50
15.1604904436453296
 51
21.1134961746319689
  0
ARC
  5
312C9
  8
0
 10
2939.8969491384659705
 20
182.1959749900196925
 30
0.0
 40
11.0065048146549103
 50
21.1134961746319689
 51
28.8214944453316306
  0
ARC
  5
312CA
  8
0
 10
2937.4828512745889384
 20
180.8676338555935956
 30
0.0
 40
13.7619283149147904
 50
28.8214944453316306
 51
32.697756254952921
  0
ARC
  5
312CB
  8
0
 10
2947.5615606768060388
 20
187.3898705713764059
 30
0.0
 40
1.7575649375879321
 50
31.2607019613708808
 51
34.6225106533463318
  0
ARC
  5
312CC
  8
0
 10
2948.7218750433680725
 20
188.1780923391150111
 30
0.0
 40
0.3550439429259165
 50
36.3356725916687182
 51
51.231277771374927
  0
ARC
  5
312CD
  8
0
 10
2948.7496830474751732
 20
188.2175186004539
 30
0.0
 40
0.3069060375356267
 50
50.66998539708419
 51
63.2025030186620569
  0
ARC
  5
312CE
  8
0
 10
2948.0349458941282137
 20
189.4560724155749938
 30
0.0
 40
0.0625294572976711
 50
92.0723969662480783
 51
173.9051848667533022
  0
LINE
  5
312CF
  8
0
 10
2947.9727698810729635
 20
189.4627114238193997
 30
0.0
 11
2947.9636237199938478
 21
189.0961849165061892
 31
0.0
  0
ARC
  5
312D0
  8
0
 10
2947.9281233239948961
 20
189.0991781026797867
 30
0.0
 40
0.0356263565293912
 50
271.4723882793671805
 51
355.1805530289445869
  0
ARC
  5
312D1
  8
0
 10
2938.3291871104888742
 20
188.6848373498812066
 30
0.0
 40
10.5731981085782092
 50
9.5665788255564532
 51
19.3325375968458992
  0
ARC
  5
312D2
  8
0
 10
2926.6061116816340473
 20
186.7090606695822999
 30
0.0
 40
22.461603846987451
 50
4.2994246047269247
 51
9.5665788255564532
  0
ARC
  5
312D3
  8
0
 10
2959.2800861771302152
 20
192.4471514691431082
 30
0.0
 40
11.0926556376515304
 50
181.4137310193954988
 51
188.7418725138414004
  0
ARC
  5
312D4
  8
0
 10
2959.0171488073051478
 20
192.4067197179898869
 30
0.0
 40
10.8266278440814201
 50
188.7418725138414004
 51
196.6304816158294955
  0
ARC
  5
312D5
  8
0
 10
2960.9614435310681984
 20
192.9874656276319058
 30
0.0
 40
12.8558020072375392
 50
196.6304816158294955
 51
200.5786139482385124
  0
ARC
  5
312D6
  8
0
 10
2948.0120131387188849
 20
180.4895939809705112
 30
0.0
 40
8.5743710100962627
 50
90.5544612506324569
 51
90.6738368137538231
  0
LINE
  5
312D7
  8
0
 10
2947.9346583894221112
 20
189.0641562495102903
 30
0.0
 11
2947.9358729455398134
 21
189.4682592539070072
 31
0.0
  0
ARC
  5
312D8
  8
0
 10
2947.8753491262277748
 20
189.4633695620406968
 30
0.0
 40
0.0607210160546441
 50
4.6188683863327551
 51
89.357386949447374
  0
LINE
  5
312D9
  8
0
 10
2947.8760301414718015
 20
189.5240867590194114
 30
0.0
 11
2947.4480516071730563
 21
189.5254085031193938
 31
0.0
  0
ARC
  5
312DA
  8
0
 10
2947.447977512667876
 20
189.5244405488489861
 30
0.0
 40
0.0009716875764138
 50
85.6126984588937461
 51
161.1298051735248009
  0
LINE
  5
312DB
  8
0
 10
2947.4470580496717957
 20
189.5247548171192875
 30
0.0
 11
2947.4420735159719698
 21
189.4561397495193091
 31
0.0
  0
LINE
  5
312DC
  8
0
 10
2947.4420735159719698
 20
189.4561397495193091
 30
0.0
 11
2947.4387478639728215
 21
189.0634848138194002
 31
0.0
  0
LINE
  5
312DD
  8
0
 10
2947.4142241356939849
 20
189.0634418573351923
 30
0.0
 11
2947.4115849240229181
 21
189.446734493119294
 31
0.0
  0
ARC
  5
312DE
  8
0
 10
2913.9978878576821444
 20
187.1827400161697881
 30
0.0
 40
33.4903093839523933
 50
3.876235693134058
 51
4.1285111075335701
  0
ARC
  5
312DF
  8
0
 10
2947.3815120132157972
 20
189.5924681429553118
 30
0.0
 40
0.0198276886164526
 50
3.949455420572034
 51
73.5876447129606532
  0
ARC
  5
312E0
  8
0
 10
2944.5299171861752257
 20
189.6253031440130883
 30
0.0
 40
0.0188369789844547
 50
268.8133300345272119
 51
292.6613476959333866
  0
LINE
  5
312E1
  8
0
 10
2944.5371747652729937
 20
189.6079204134194072
 30
0.0
 11
2944.5371747652729937
 21
189.610820841919292
 31
0.0
  0
LINE
  5
312E2
  8
0
 10
2947.3871114771732209
 20
189.5639605718193934
 30
0.0
 11
2947.3871118019728783
 21
190.655098724367889
 31
0.0
  0
ARC
  5
312E3
  8
0
 10
2947.1007168019727942
 20
190.6550988096194033
 30
0.0
 40
0.2863950000000009
 50
359.9999829447181128
 51
90.0000003458033433
  0
LINE
  5
312E4
  8
0
 10
2947.1007168002438448
 20
190.9414938096194021
 30
0.0
 11
2946.330131759672895
 21
190.9414938049685873
 31
0.0
  0
ARC
  5
312E5
  8
0
 10
2946.3301317613731953
 20
190.6597578132586932
 30
0.0
 40
0.2817359917098656
 50
90.0000003458033433
 51
180.0004703956842889
  0
LINE
  5
312E6
  8
0
 10
2946.0483957696719699
 20
190.6597555002194042
 30
0.0
 11
2946.0484047660888791
 21
189.5639616719562923
 31
0.0
  0
LINE
  5
312E7
  8
0
 10
2947.3285803555131679
 20
189.5525122579853132
 30
0.0
 11
2946.1145825993157814
 21
189.5525122579853132
 31
0.0
  0
ARC
  5
312E8
  8
0
 10
2947.3273510001190516
 20
189.7141459817935072
 30
0.0
 40
0.1616383988623534
 50
269.5642275893786177
 51
291.6981700166002724
  0
ARC
  5
312E9
  8
0
 10
2946.1186654656239625
 20
189.7730905860539963
 30
0.0
 40
0.2206161114036377
 50
251.4292801385003031
 51
268.9395862260337253
  0
ARC
  5
312EA
  8
0
 10
2944.5530348658298863
 20
189.5304722306503038
 30
0.0
 40
0.0818989751007199
 50
92.8338692795380069
 51
101.1661307200861017
  0
LINE
  5
312EB
  8
0
 10
2944.548985765272846
 20
189.6122710503680935
 30
0.0
 11
2946.0483957696719699
 21
189.6122710504889142
 31
0.0
  0
LINE
  5
312EC
  8
0
 10
2944.4781197652728224
 20
189.6064669142193111
 30
0.0
 11
2944.4781197652728224
 21
189.6299754015194026
 31
0.0
  0
ARC
  5
312ED
  8
0
 10
2913.2165853962951587
 20
182.4360054718526953
 30
0.0
 40
37.7657606061231093
 50
358.4401605512661035
 51
359.1108357163167284
  0
ARC
  5
312EE
  8
0
 10
2939.0885043367738945
 20
181.89083480801051
 30
0.0
 40
11.8896557529594595
 50
354.3101378955274754
 51
357.6725248223231119
  0
ARC
  5
312EF
  8
0
 10
2938.6431100640720615
 20
181.9423903889316989
 30
0.0
 40
12.3379691032928793
 50
350.4303825762727911
 51
354.2769642860774866
  0
ARC
  5
312F0
  8
0
 10
2938.0913931609020437
 20
182.0227859360711022
 30
0.0
 40
12.8953799291794198
 50
342.199661200218884
 51
350.4856722449491144
  0
ARC
  5
312F1
  8
0
 10
2932.8216644046169677
 20
183.7147451162661014
 30
0.0
 40
18.4300675474890916
 50
334.7270511871495273
 51
342.199661200218884
  0
ARC
  5
312F2
  8
0
 10
2940.7184088242479447
 20
179.9865314856795067
 30
0.0
 40
9.6974763338645982
 50
320.0075936210346867
 51
334.7270511871495273
  0
ARC
  5
312F3
  8
0
 10
2941.004780871408002
 20
179.7463014762043088
 30
0.0
 40
9.3236857416248355
 50
309.0739225666127936
 51
320.0075936210346867
  0
ARC
  5
312F4
  8
0
 10
2944.356937221825774
 20
175.6176360781250878
 30
0.0
 40
4.0055253297018183
 50
292.2895341883976812
 51
309.0739225666127936
  0
ARC
  5
312F5
  8
0
 10
2943.6334292913120407
 20
177.3826489518534117
 30
0.0
 40
5.9130719660761111
 50
279.6412898253300909
 51
292.2895341883976812
  0
ARC
  5
312F6
  8
0
 10
2943.6696981439640695
 20
178.6588569683995047
 30
0.0
 40
7.1695224799158641
 50
271.7413229527252838
 51
277.6470295173659792
  0
ATTDEF
  5
313EB
  8
DEFPOINTS
 10
2943.8741062504209367
 20
201.4004665363488016
 30
0.0
 40
0.001
  1
30115
  3

  2
MODELNUMBER
 70
     0
1001
ACDBATTR
1070
     0
1070
     1
  0
ATTDEF
  5
313EC
  8
DEFPOINTS
 10
2943.8741062504209367
 20
201.398799869682108
 30
0.0
 40
0.001
  1
STINSON
  3

  2
TRADENAME
 70
     0
1001
ACDBATTR
1070
     0
1070
     1
  0
ATTDEF
  5
313ED
  8
DEFPOINTS
 10
2943.8741062504209367
 20
201.3971332030154997
 30
0.0
 40
0.001
  1
TOILET
  3

  2
PRODUCT
 70
     0
1001
ACDBATTR
1070
     0
1070
     1
  0
ENDSEC
  0
EOF
