  0
SECTION
  2
HEADER
  9
$ACADVER
  1
AC1009
  9
$INSBASE
 10
2943.8875594305231971
 20
134.0101925455194021
 30
0.0
  9
$EXTMIN
 10
2934.835719533727115
 20
134.009485800103306
 30
-0.0000000000112498
  9
$EXTMAX
 10
2953.0846600050140296
 20
164.5534945662116115
 30
0.0000000000002956
  9
$LIMMIN
 10
0.0
 20
0.0
  9
$LIMMAX
 10
11.6929133858000007
 20
8.2677165353999982
  9
$ORTHOMODE
 70
     1
  9
$REGENMODE
 70
     1
  9
$FILLMODE
 70
     1
  9
$QTEXTMODE
 70
     0
  9
$MIRRTEXT
 70
     0
  9
$DRAGMODE
 70
     2
  9
$LTSCALE
 40
0.6431102362
  9
$OSMODE
 70
  4095
  9
$ATTMODE
 70
     1
  9
$TEXTSIZE
 40
0.2
  9
$TRACEWID
 40
0.05
  9
$TEXTSTYLE
  7
STANDARD
  9
$CLAYER
  8
0
  9
$CELTYPE
  6
BYLAYER
  9
$CECOLOR
 62
   256
  9
$DIMSCALE
 40
1.0
  9
$DIMASZ
 40
0.1875
  9
$DIMEXO
 40
0.0625
  9
$DIMDLI
 40
0.4443307087
  9
$DIMRND
 40
0.0
  9
$DIMDLE
 40
0.0
  9
$DIMEXE
 40
0.125
  9
$DIMTP
 40
0.01
  9
$DIMTM
 40
0.01
  9
$DIMTXT
 40
2.0
  9
$DIMCEN
 40
0.1052362205
  9
$DIMTSZ
 40
0.0
  9
$DIMTOL
 70
     1
  9
$DIMLIM
 70
     0
  9
$DIMTIH
 70
     1
  9
$DIMTOH
 70
     1
  9
$DIMSE1
 70
     0
  9
$DIMSE2
 70
     0
  9
$DIMTAD
 70
     0
  9
$DIMZIN
 70
     0
  9
$DIMBLK
  1

  9
$DIMASO
 70
     1
  9
$DIMSHO
 70
     1
  9
$DIMPOST
  1
\X
  9
$DIMAPOST
  1

  9
$DIMALT
 70
     1
  9
$DIMALTD
 70
     2
  9
$DIMALTF
 40
25.3999999999999986
  9
$DIMLFAC
 40
1.0
  9
$DIMTOFL
 70
     0
  9
$DIMTVP
 40
0.0
  9
$DIMTIX
 70
     0
  9
$DIMSOXD
 70
     0
  9
$DIMSAH
 70
     0
  9
$DIMBLK1
  1

  9
$DIMBLK2
  1

  9
$DIMSTYLE
  2
STANDARD
  9
$DIMCLRD
 70
     0
  9
$DIMCLRE
 70
     0
  9
$DIMCLRT
 70
     0
  9
$DIMTFAC
 40
1.0
  9
$DIMGAP
 40
0.09
  9
$LUNITS
 70
     2
  9
$LUPREC
 70
     4
  9
$SKETCHINC
 40
0.1
  9
$FILLETRAD
 40
0.0
  9
$AUNITS
 70
     0
  9
$AUPREC
 70
     0
  9
$MENU
  1
.
  9
$ELEVATION
 40
0.0
  9
$PELEVATION
 40
0.0
  9
$THICKNESS
 40
0.0
  9
$LIMCHECK
 70
     0
  9
$BLIPMODE
 70
     0
  9
$CHAMFERA
 40
0.0
  9
$CHAMFERB
 40
0.0
  9
$SKPOLY
 70
     0
  9
$TDCREATE
 40
2458060.468368056230247
  9
$TDUPDATE
 40
2459600.8183564809150994
  9
$TDINDWG
 40
0.4369052083
  9
$TDUSRTIMER
 40
0.4369052083
  9
$USRTIMER
 70
     1
  9
$ANGBASE
 50
0.0
  9
$ANGDIR
 70
     0
  9
$PDMODE
 70
     0
  9
$PDSIZE
 40
0.3125
  9
$PLINEWID
 40
0.0
  9
$COORDS
 70
     1
  9
$SPLFRAME
 70
     0
  9
$SPLINETYPE
 70
     6
  9
$SPLINESEGS
 70
     8
  9
$ATTDIA
 70
     1
  9
$ATTREQ
 70
     1
  9
$HANDLING
 70
     1
  9
$HANDSEED
  5
31808
  9
$SURFTAB1
 70
     6
  9
$SURFTAB2
 70
     6
  9
$SURFTYPE
 70
     6
  9
$SURFU
 70
     6
  9
$SURFV
 70
     6
  9
$UCSNAME
  2

  9
$UCSORG
 10
0.0
 20
0.0
 30
0.0
  9
$UCSXDIR
 10
1.0
 20
0.0
 30
0.0
  9
$UCSYDIR
 10
0.0
 20
1.0
 30
0.0
  9
$PUCSNAME
  2

  9
$PUCSORG
 10
0.0
 20
0.0
 30
0.0
  9
$PUCSXDIR
 10
1.0
 20
0.0
 30
0.0
  9
$PUCSYDIR
 10
0.0
 20
1.0
 30
0.0
  9
$USERI1
 70
     0
  9
$USERI2
 70
     0
  9
$USERI3
 70
     0
  9
$USERI4
 70
     0
  9
$USERI5
 70
     0
  9
$USERR1
 40
0.0
  9
$USERR2
 40
0.0
  9
$USERR3
 40
0.0
  9
$USERR4
 40
0.0
  9
$USERR5
 40
0.0
  9
$WORLDVIEW
 70
     1
  9
$SHADEDGE
 70
     3
  9
$SHADEDIF
 70
    70
  9
$TILEMODE
 70
     1
  9
$MAXACTVP
 70
    64
  9
$PLIMCHECK
 70
     0
  9
$PEXTMIN
 10
1.0000000000000000E+20
 20
1.0000000000000000E+20
 30
1.0000000000000000E+20
  9
$PEXTMAX
 10
-1.0000000000000000E+20
 20
-1.0000000000000000E+20
 30
-1.0000000000000000E+20
  9
$PLIMMIN
 10
0.0
 20
0.0
  9
$PLIMMAX
 10
12.0
 20
9.0
  9
$UNITMODE
 70
     0
  9
$VISRETAIN
 70
     1
  9
$PLINEGEN
 70
     0
  9
$PSLTSCALE
 70
     1
  0
ENDSEC
  0
SECTION
  2
TABLES
  0
TABLE
  2
VPORT
 70
     1
  0
VPORT
  2
*ACTIVE
 70
     0
 10
0.0
 20
0.0
 11
1.0
 21
1.0
 12
-859.5838776134423824
 22
23.2862279864075497
 13
0.0
 23
0.0
 14
1.0
 24
1.0
 15
0.0
 25
0.0
 16
0.0
 26
0.0
 36
17.1152628219792007
 17
3803.5440673828129547
 27
125.9952621967499056
 37
0.0
 40
30.7685970658590691
 41
2.344785276073619
 42
50.0
 43
0.0
 44
0.0
 50
0.0
 51
0.0
 71
     0
 72
   100
 73
     1
 74
     1
 75
     0
 76
     0
 77
     0
 78
     0
  0
ENDTAB
  0
TABLE
  2
LTYPE
 70
     2
  0
LTYPE
  2
CONTINUOUS
 70
     0
  3
Solid line
 72
    65
 73
     0
 40
0.0
  0
LTYPE
  2
PHANTOM2
 70
     0
  3
___ _ _ ___ _ _ ___ _ _ ___ _ _
 72
    65
 73
     6
 40
1.25
 49
0.625
 49
-0.125
 49
0.125
 49
-0.125
 49
0.125
 49
-0.125
  0
ENDTAB
  0
TABLE
  2
LAYER
 70
     2
  0
LAYER
  2
0
 70
     0
 62
   255
  6
CONTINUOUS
  0
LAYER
  2
DEFPOINTS
 70
     0
 62
     7
  6
CONTINUOUS
  0
ENDTAB
  0
TABLE
  2
STYLE
 70
     1
  0
STYLE
  2
STANDARD
 70
     0
 40
0.0
 41
0.8
 50
0.0
 71
     0
 42
0.2
  3
txt
  4

  0
ENDTAB
  0
TABLE
  2
VIEW
 70
     0
  0
ENDTAB
  0
TABLE
  2
UCS
 70
     0
  0
ENDTAB
  0
TABLE
  2
APPID
 70
     9
  0
APPID
  2
ACAD
 70
     0
  0
APPID
  2
ACAD_MLEADERVER
 70
     0
  0
APPID
  2
ACAD_EXEMPT_FROM_CAD_STANDARDS
 70
     0
  0
APPID
  2
ACAD_NAV_VCDISPLAY
 70
     0
  0
APPID
  2
ACAECLAYERSTANDARD
 70
     0
  0
APPID
  2
ACCMTRANSPARENCY
 70
     0
  0
APPID
  2
ACAD_DSTYLE_DIMJAG
 70
     0
  0
APPID
  2
ACAD_DSTYLE_DIMTALN
 70
     0
  0
APPID
  2
ACDBATTR
 70
     0
  0
ENDTAB
  0
TABLE
  2
DIMSTYLE
 70
     1
  0
DIMSTYLE
  2
STANDARD
 70
     0
  3

  4

  5

  6

  7

 40
1.0
 41
0.1875
 42
0.0625
 43
0.38
 44
0.125
 45
0.0
 46
0.0
 47
0.01
 48
0.01
140
0.15625
141
0.09
142
0.0
143
25.3999999999999986
144
1.0
145
0.0
146
1.0
147
0.09
 71
     1
 72
     0
 73
     1
 74
     1
 75
     0
 76
     0
 77
     0
 78
     4
170
     0
171
     2
172
     0
173
     0
174
     0
175
     0
176
     0
177
     0
178
     0
  0
ENDTAB
  0
ENDSEC
  0
SECTION
  2
BLOCKS
  0
BLOCK
  8
0
  2
$MODEL_SPACE
 70
     0
 10
0.0
 20
0.0
 30
0.0
  3
$MODEL_SPACE
  1

  0
ENDBLK
  5
21
  8
0
  0
BLOCK
 67
     1
  8
0
  2
$PAPER_SPACE
 70
     0
 10
0.0
 20
0.0
 30
0.0
  3
$PAPER_SPACE
  1

  0
ENDBLK
  5
1D
 67
     1
  8
0
  0
ENDSEC
  0
SECTION
  2
ENTITIES
  0
LINE
  5
3115E
  8
0
 10
2938.6757812952469067
 20
134.0101925455194021
 30
0.0
 11
2949.0993168738727945
 21
134.0101925455194021
 31
0.0
  0
ARC
  5
31161
  8
0
 10
2938.6757812952469067
 20
134.1901924832073121
 30
0.0
 40
0.1799999376879309
 50
171.9998330734300112
 51
270.0000071382647207
  0
LINE
  5
31162
  8
0
 10
2938.4975331775649465
 20
134.2152441520192951
 30
0.0
 11
2938.57430142798421
 21
134.7614670898092868
 31
0.0
  0
ARC
  5
31163
  8
0
 10
2939.070400100299139
 20
134.6917434944159027
 30
0.0
 40
0.5009743231211116
 50
139.6944235716019875
 51
171.9998330734300112
  0
ARC
  5
31164
  8
0
 10
2935.8744534748411752
 20
137.4026381433756967
 30
0.0
 40
3.6898519236389009
 50
319.6944235716019875
 51
339.2013054757939017
  0
ARC
  5
31165
  8
0
 10
2935.6420827253291463
 20
137.4909014522320945
 30
0.0
 40
3.9384209822903768
 50
339.2013054757939017
 51
355.5464266104448257
  0
LINE
  5
31166
  8
0
 10
2939.5686119669721847
 20
137.1850780583193909
 30
0.0
 11
2939.9216568875731355
 21
142.927369932819289
 31
0.0
  0
ARC
  5
31167
  8
0
 10
2939.4604358422179757
 20
142.9878230947034865
 30
0.0
 40
0.4651660321428537
 50
352.5326962228767798
 51
59.9105660677422875
  0
ARC
  5
31168
  8
0
 10
2944.3656360327649963
 20
153.2160239849609127
 30
0.0
 40
10.8799001983673502
 50
235.6606959037524121
 51
244.56958123690859
  0
ARC
  5
31169
  8
0
 10
2941.1163111031801236
 20
147.7344687336525055
 30
0.0
 40
4.5392692138813029
 50
191.8134725733071946
 51
230.4899216519191043
  0
ARC
  5
3116A
  8
0
 10
2943.6690681267928085
 20
148.5533853023069071
 30
0.0
 40
7.2110083414459663
 50
180.3446876118671014
 51
194.0304905528672919
  0
ARC
  5
3116B
  8
0
 10
2942.4315329390678926
 20
148.5686163137667961
 30
0.0
 40
5.9736302139095629
 50
175.7607765957442041
 51
180.5621802305653887
  0
ARC
  5
3116C
  8
0
 10
2944.1451050564742218
 20
148.5845927730966878
 30
0.0
 40
7.6826567486553756
 50
166.5910246645493942
 51
176.8243328508960133
  0
ARC
  5
3116D
  8
0
 10
2936.8646065712000564
 20
150.3092213812257967
 30
0.0
 40
0.2009728876438006
 50
90.2372771834376266
 51
163.52904795595839
  0
LINE
  5
3116E
  8
0
 10
2936.8637742909718327
 20
150.5101925455194021
 30
0.0
 11
2950.9113238856730277
 21
150.5101925455194021
 31
0.0
  0
LINE
  5
31170
  8
0
 10
2936.8572746569261653
 20
150.8105925455193983
 30
0.0
 11
2950.9178452264350199
 21
150.8105925455193983
 31
0.0
  0
LINE
  5
31172
  8
0
 10
2935.1408082815378293
 20
164.548254245519388
 30
0.0
 11
2952.6342899100081922
 21
164.548254245519388
 31
0.0
  0
LINE
  5
31174
  8
0
 10
2935.2477344222170359
 20
162.8001957930156891
 30
0.0
 11
2952.5273637693280762
 21
162.8001957930156891
 31
0.0
  0
ARC
  5
31176
  8
0
 10
2935.1411036998119926
 20
164.3032201525537062
 30
0.0
 40
0.2450340930234245
 50
90.001244323656735
 51
189.5163160425248066
  0
ARC
  5
31177
  8
0
 10
4965.9577920535048179
 20
504.7399194638746849
 30
0.0
 40
2059.3986388379089476
 50
189.5163160425248066
 51
189.5416538174881964
  0
ARC
  5
31178
  8
0
 10
1890.85515956335189
 20
-12.1542507989433393
 30
0.0
 40
1058.8437801538480016
 50
9.5163160425247817
 51
9.5416538174882426
  0
ARC
  5
31179
  8
0
 10
2935.2489242973401815
 20
162.9230804473326089
 30
0.0
 40
0.122889638714615
 50
189.5163160425248066
 51
269.483954718949974
  0
ARC
  5
3117A
  8
0
 10
2931.5760780883979351
 20
160.401939626451906
 30
0.0
 40
4.6597162166919306
 50
20.9892071992045608
 51
30.9760790836623805
  0
ARC
  5
3117B
  8
0
 10
2930.4583230231592097
 20
159.9731152159725127
 30
0.0
 40
5.8569074131555698
 50
10.9031852144407999
 51
20.9892071992045608
  0
ARC
  5
3117C
  8
0
 10
2916.0945812556010424
 20
157.2062663932429984
 30
0.0
 40
20.4847073151542283
 50
6.215047162573569
 51
10.9031852144407999
  0
ARC
  5
3117D
  8
0
 10
2890.8829470503837911
 20
154.4607069783642999
 30
0.0
 40
45.8453972860190007
 50
2.40989750157464
 51
6.215047162573569
  0
ARC
  5
3117E
  8
0
 10
3277.3529986361759256
 20
170.7254794790200947
 30
0.0
 40
340.9667581553824789
 50
182.4098975015745907
 51
183.0152011132493044
  0
ARC
  5
3117F
  8
0
 10
2883.3206649213939272
 20
149.9702908028434081
 30
0.0
 40
53.6118244738589809
 50
1.734149459329672
 51
3.015201113249371
  0
ARC
  5
31180
  8
0
 10
2940.2899916828719142
 20
151.6950863504389986
 30
0.0
 40
3.383606144191913
 50
181.7341494593297
 51
184.7895495250160138
  0
ARC
  5
31181
  8
0
 10
2937.3904483477349459
 20
151.4521374775927995
 30
0.0
 40
0.4739024295237255
 50
184.7895495250160138
 51
193.5271137033354876
  0
LINE
  5
31182
  8
0
 10
2937.0409207128059279
 20
151.4011492449193952
 30
0.0
 11
2948.5906211060068927
 21
151.4011492449193952
 31
0.0
  0
ARC
  5
31183
  8
0
 10
2936.8573060777680439
 20
150.8705783785293022
 30
0.0
 40
0.0599858340557304
 50
179.9991937222125102
 51
269.9893012159730006
  0
LINE
  5
31184
  8
0
 10
2936.797320243717877
 20
150.8705792226620872
 30
0.0
 11
2936.7973205901921574
 21
150.8952004197062138
 31
0.0
  0
LINE
  5
31185
  8
0
 10
2936.7973205901921574
 20
150.8952004197062138
 30
0.0
 11
2936.8548757534717879
 21
151.2056039701193129
 31
0.0
  0
ARC
  5
31186
  8
0
 10
2937.0966101773178707
 20
151.1607814665869967
 30
0.0
 40
0.2458548118193533
 50
132.7599860928193038
 51
169.49549128013021
  0
ARC
  5
31187
  8
0
 10
2937.1046862901530403
 20
151.152047831223598
 30
0.0
 40
0.257750188450031
 50
93.2128828778407836
 51
132.7599860928193038
  0
ARC
  5
31188
  8
0
 10
2937.3437828051451106
 20
197.2435083552693129
 30
0.0
 40
45.8348167303787832
 50
269.6830579117331013
 51
272.2753151870534793
  0
ARC
  5
31189
  8
0
 10
2945.5747062635668954
 20
1.524467023005627
 30
0.0
 40
150.9366062635868104
 50
90.6404609379788155
 51
93.0887437539489042
  0
ARC
  5
3118A
  8
0
 10
2937.5357647068631195
 20
150.5012628517380904
 30
0.0
 40
1.743073304721682
 50
93.0887437539489042
 51
100.2712592849445059
  0
ARC
  5
3118B
  8
0
 10
2937.2723814867958936
 20
151.9547110776680938
 30
0.0
 40
0.265953652807224
 50
100.2712592849445059
 51
168.2642011559703974
  0
ARC
  5
3118C
  8
0
 10
1874.7668722974149205
 20
348.4398964073517959
 30
0.0
 40
1080.2545338070399339
 50
349.5025503942205205
 51
349.5231761409482942
  0
ARC
  5
3118D
  8
0
 10
2937.0015523458109783
 20
151.6166083166338012
 30
0.0
 40
0.061139558765461
 50
170.7615253791931877
 51
268.7398134781623753
  0
ARC
  5
3118E
  8
0
 10
2937.2933686344649686
 20
150.6605696005933908
 30
0.0
 40
0.1500286041176041
 50
29.9215811168874204
 51
89.5023440942205752
  0
ARC
  5
3118F
  8
0
 10
2937.2934473806449205
 20
150.6606149211314118
 30
0.0
 40
0.1499377475719663
 50
11.6501140919376898
 51
29.9215811168874204
  0
ARC
  5
31190
  8
0
 10
2937.5871940788911161
 20
150.7211802600319004
 30
0.0
 40
0.1499877148465497
 50
191.6501140919376098
 51
270.0038239207685251
  0
LINE
  5
31191
  8
0
 10
2937.5872040890731114
 20
150.5711925455194091
 30
0.0
 11
2937.9593639811660069
 21
150.571217383473396
 31
0.0
  0
ARC
  5
31192
  8
0
 10
2937.9593462742350312
 20
150.8365294759437063
 30
0.0
 40
0.2653120930611444
 50
270.0038239207685251
 51
317.7912053893085726
  0
ARC
  5
31193
  8
0
 10
2938.0299459696980193
 20
150.7568228821259027
 30
0.0
 40
0.1598910581479185
 50
321.9543279969307719
 51
348.1187352795765833
  0
LINE
  5
31194
  8
0
 10
2938.186411579372816
 20
150.7239038380193961
 30
0.0
 11
2938.2016972117730802
 21
150.8105925455193983
 31
0.0
  0
LINE
  5
31195
  8
0
 10
2938.1313313130731331
 20
150.5101925455194021
 30
0.0
 11
2938.1313313130731331
 21
150.6345105334146979
 31
0.0
  0
ARC
  5
31196
  8
0
 10
2939.2011412008578191
 20
150.7000752194595066
 30
0.0
 40
0.1109535971112819
 50
5.2251216203986139
 51
84.9173811568808787
  0
LINE
  5
31197
  8
0
 10
2939.3116337374631257
 20
150.7101796772215891
 30
0.0
 11
2939.3170798433447999
 21
150.6506263525668032
 31
0.0
  0
ARC
  5
31198
  8
0
 10
2939.4271197101002144
 20
150.6606894140182078
 30
0.0
 40
0.1104990383716562
 50
185.2251216203985962
 51
269.6409323866312775
  0
LINE
  5
31199
  8
0
 10
2937.000207750672871
 20
151.5554835455193938
 30
0.0
 11
2937.5628337327730151
 21
151.5558840000194039
 31
0.0
  0
ARC
  5
3119A
  8
0
 10
2942.2058816576391109
 20
-132.1759885269237031
 30
0.0
 40
283.7863476956835029
 50
89.6604767061581356
 51
90.4487763501403066
  0
ARC
  5
3119B
  8
0
 10
2937.1088955225332029
 20
262.4208509338200201
 30
0.0
 40
110.8564635782570065
 50
271.11785647508691
 51
271.4856955149003284
  0
ARC
  5
3119C
  8
0
 10
2915.6276871179197769
 20
1363.3013644254649535
 30
0.0
 40
1211.9465358703250786
 50
271.0581058739558102
 51
271.11785647508691
  0
ARC
  5
3119D
  8
0
 10
2937.3085245743868654
 20
189.4308739475121968
 30
0.0
 40
37.8758450140357326
 50
270.3847029592996023
 51
271.0581058739558102
  0
LINE
  5
3119E
  8
0
 10
2939.9831123681751706
 20
151.6016540651964988
 30
0.0
 11
2939.980502736571907
 21
151.4538851741193923
 31
0.0
  0
ARC
  5
3119F
  8
0
 10
2939.9056119892798051
 20
151.4552077614339112
 30
0.0
 40
0.0749024249756632
 50
313.8033981083279969
 51
358.9882489180881748
  0
ARC
  5
311A0
  8
0
 10
2939.0969195937618679
 20
151.5172397038359122
 30
0.0
 40
0.0649781825071981
 50
9.5758323858788899
 51
87.3421134686901439
  0
LINE
  5
311A1
  8
0
 10
2939.1609923893220184
 20
151.5280490086693135
 30
0.0
 11
2939.1627181707381169
 21
151.4558727506855007
 31
0.0
  0
ARC
  5
311A2
  8
0
 10
2939.2514250210410864
 20
151.4564813840279953
 30
0.0
 40
0.0887089382478918
 50
180.3931102782428866
 51
187.5484724428378058
  0
ARC
  5
311A3
  8
0
 10
2939.240640999894822
 20
151.4550523582230142
 30
0.0
 40
0.0778306467073891
 50
187.5484724428361005
 51
223.8338336528125012
  0
ARC
  5
311A4
  8
0
 10
2938.6740525365521535
 20
151.1887325794774881
 30
0.0
 40
0.4065513407175775
 50
37.8944239829844776
 51
72.4280962167286901
  0
ARC
  5
311A5
  8
0
 10
2937.1503309666582027
 20
151.4941827349666994
 30
0.0
 40
0.0614445707875214
 50
18.0894110248518594
 51
88.0543530168887969
  0
ARC
  5
311A6
  8
0
 10
2937.2815119465158205
 20
151.5370324560321933
 30
0.0
 40
0.0765574149659894
 50
198.0894110248518132
 51
269.1459737550190994
  0
LINE
  5
311A7
  8
0
 10
2937.2803708568731054
 20
151.460483545519395
 30
0.0
 11
2937.5496534756730398
 21
151.460483545519395
 31
0.0
  0
ARC
  5
311A8
  8
0
 10
2937.5471042083149769
 20
151.5380832421327
 30
0.0
 40
0.0776415589652685
 50
271.8815762988311917
 51
357.1144029855441886
  0
LINE
  5
311A9
  8
0
 10
2937.6246473211717785
 20
151.5341746200192858
 30
0.0
 11
2937.6250242713617808
 21
151.5563513304670096
 31
0.0
  0
LINE
  5
311AA
  8
0
 10
2939.4264637159731137
 20
150.5501925455193941
 30
0.0
 11
2948.3485808549730791
 21
150.5501925455193941
 31
0.0
  0
ARC
  5
311AB
  8
0
 10
2940.6204433818220423
 20
150.6593519516682989
 30
0.0
 40
0.109495577176079
 50
274.4908718075429874
 51
346.6551640791182081
  0
ARC
  5
311AC
  8
0
 10
2940.9670007049790001
 20
150.577142871532601
 30
0.0
 40
0.2466789742597163
 50
108.8495198287381953
 51
166.6551640791182081
  0
LINE
  5
311AD
  8
0
 10
2942.0125490957730108
 20
150.5501925455193941
 30
0.0
 11
2942.0125490957730108
 21
150.5101925455194021
 31
0.0
  0
LINE
  5
311AE
  8
0
 10
2941.3275490957730653
 20
150.5501925455193941
 30
0.0
 11
2941.3275490957730653
 21
150.5101925455194021
 31
0.0
  0
LINE
  5
311AF
  8
0
 10
2940.6074381425250976
 20
150.5502034757595027
 30
0.0
 11
2940.6074381425250976
 21
150.5101925455194021
 31
0.0
  0
LINE
  5
311B0
  8
0
 10
2939.4366508457719647
 20
150.5501764700194087
 30
0.0
 11
2939.4366508457719647
 21
150.5101925455194021
 31
0.0
  0
LINE
  5
311B1
  8
0
 10
2938.1753340431728247
 20
150.6902837314922863
 30
0.0
 11
2939.2777640962549413
 21
150.6902837314922863
 31
0.0
  0
ARC
  5
311B2
  8
0
 10
2940.1789763877350197
 20
156.0948047934928127
 30
0.0
 40
5.4791451435350549
 50
254.6707869687243999
 51
260.9168267128616776
  0
LINE
  5
311B3
  8
0
 10
2938.900446924571952
 20
150.6901925455194089
 30
0.0
 11
2938.900446924571952
 21
150.5101925455194021
 31
0.0
  0
ARC
  5
311B4
  8
0
 10
2942.4264342406618198
 20
143.0656077705874907
 30
0.0
 40
2.75675650081343
 50
173.1908057539120023
 51
183.9973735006489903
  0
ARC
  5
311B5
  8
0
 10
2942.4352181940298578
 20
143.0736217763642912
 30
0.0
 40
2.7660875981417048
 50
184.1502854699047873
 51
197.782547089511894
  0
ARC
  5
311B6
  8
0
 10
3111.8948754070552241
 20
206.2988908064195925
 30
0.0
 40
183.633259266615795
 50
200.4201829904465058
 51
200.4795373852826117
  0
ARC
  5
311B7
  8
0
 10
2938.0673137105950445
 20
162.2865145879100055
 30
0.0
 40
10.3304973428750895
 50
264.1380832379892922
 51
269.5785613761541981
  0
ARC
  5
311B8
  8
0
 10
2936.3290226506910585
 20
-74.034836814765896
 30
0.0
 40
225.9972470812529082
 50
88.7092394958807802
 51
89.5785613761541839
  0
ARC
  5
311B9
  8
0
 10
2942.9275314210858596
 20
459.0987092219529018
 30
0.0
 40
307.1973443597253777
 50
269.7188015943846722
 51
270.1790493097591934
  0
ARC
  5
311BA
  8
0
 10
2939.078496126907794
 20
135.8004619863617108
 30
0.0
 40
25.8987641984309107
 50
94.4408848891993671
 51
94.6836799170421841
  0
LINE
  5
311BB
  8
0
 10
2937.0731423478841862
 20
161.6214717115230997
 30
0.0
 11
2938.7737859341718831
 21
161.6220329001193932
 31
0.0
  0
ARC
  5
311BC
  8
0
 10
2938.7741957506441395
 20
162.1459413165829915
 30
0.0
 40
0.5239090236894027
 50
269.9555690625235798
 51
272.5751605864837188
  0
ARC
  5
311BD
  8
0
 10
2938.8080475907058826
 20
161.3932653914621937
 30
0.0
 40
0.2295277655185989
 50
52.8029139763346294
 51
92.5751605864836336
  0
ARC
  5
311BE
  8
0
 10
2938.7740322271952209
 20
161.3484470720426884
 30
0.0
 40
0.2857925565548448
 50
14.8179590396867802
 51
52.8029139763346294
  0
ARC
  5
311BF
  8
0
 10
2938.789702792152184
 20
161.3602202243748991
 30
0.0
 40
0.2677337384183525
 50
327.9135143354703814
 51
13.2397265643268103
  0
ARC
  5
311C0
  8
0
 10
2938.8000245820908276
 20
161.3528040054007988
 30
0.0
 40
0.2550504001805095
 50
272.5645625063228863
 51
328.0933314608063256
  0
ARC
  5
311C1
  8
0
 10
2938.9404328194777918
 20
164.0641556394861027
 30
0.0
 40
2.9689502396390619
 50
264.6437421228139897
 51
267.5098092370088807
  0
ARC
  5
311C2
  8
0
 10
2936.9731262473660536
 20
161.486568419511002
 30
0.0
 40
0.1265221292535324
 50
94.2534545373021757
 51
265.7682468783286254
  0
ARC
  5
311C3
  8
0
 10
2935.9875202218559025
 20
148.1662391912504972
 30
0.0
 40
13.2302211110267205
 50
85.285501216389477
 51
85.7682468783285969
  0
LINE
  5
311C4
  8
0
 10
2937.0749214434608803
 20
161.3516974400149024
 30
0.0
 11
2938.4170936488731058
 21
161.3516026588193881
 31
0.0
  0
ARC
  5
311C5
  8
0
 10
2938.3882077297857904
 20
161.3070436102404983
 30
0.0
 40
0.0531027789456862
 50
6.486654446163552
 51
57.0462086860220907
  0
ARC
  5
311C6
  8
0
 10
2938.6894935486830036
 20
161.3582453351588981
 30
0.0
 40
0.2526003843733604
 50
190.3085533348937872
 51
227.6004554324420894
  0
ARC
  5
311C7
  8
0
 10
2938.6839231866902082
 20
161.350319602889499
 30
0.0
 40
0.2429945839796738
 50
227.3102433620734075
 51
281.9204357706902897
  0
ARC
  5
311C8
  8
0
 10
2938.6805944251232177
 20
161.3564382119739946
 30
0.0
 40
0.2496767696261525
 50
282.3778306035293895
 51
345.7957396958099139
  0
ARC
  5
311C9
  8
0
 10
2938.6744476341032168
 20
161.3603015847886013
 30
0.0
 40
0.2565933788533321
 50
345.2962330198753875
 51
43.852169735220599
  0
ARC
  5
311CA
  8
0
 10
2938.6825100524738446
 20
161.3673766690884861
 30
0.0
 40
0.245878186072656
 50
43.964858527470362
 51
75.4068294847895544
  0
ARC
  5
311CB
  8
0
 10
2938.586222992365947
 20
160.9643697062323042
 30
0.0
 40
0.6601966499610791
 50
76.1322452573465966
 51
84.936772854695775
  0
ARC
  5
311CC
  8
0
 10
2938.7168951908238341
 20
161.3662333823274935
 30
0.0
 40
0.2221912288712954
 50
159.9602204805173926
 51
194.1736801093601059
  0
ARC
  5
311CD
  8
0
 10
2938.6678921298630485
 20
161.3751636626903974
 30
0.0
 40
0.1732987156613005
 50
102.0192454017695951
 51
157.1811397676868864
  0
ARC
  5
311CE
  8
0
 10
2938.675098909299777
 20
161.3653727034219116
 30
0.0
 40
0.1844438291233838
 50
43.2031930168949927
 51
103.5757220001453049
  0
ARC
  5
311CF
  8
0
 10
2938.6695682090239643
 20
161.3602064490380883
 30
0.0
 40
0.192012080557955
 50
359.911682848679277
 51
43.1971029575363303
  0
ARC
  5
311D0
  8
0
 10
2938.6716837319709157
 20
161.3594381024358881
 30
0.0
 40
0.1898969170259424
 50
312.5280000791105977
 51
0.1425251793968455
  0
ARC
  5
311D1
  8
0
 10
2938.6780460109498563
 20
161.3522277169531094
 30
0.0
 40
0.180282754327313
 50
243.248577327023213
 51
312.5868586765192845
  0
ARC
  5
311D2
  8
0
 10
2938.6797720176568873
 20
161.3548796602769073
 30
0.0
 40
0.1834280947398215
 50
193.5745496284525871
 51
243.1400087070589962
  0
ARC
  5
311D3
  8
0
 10
2938.6913843113829898
 20
161.3601905827318888
 30
0.0
 40
0.1708749992282275
 50
150.1252225501858959
 51
183.6649051548031935
  0
ARC
  5
311D4
  8
0
 10
2938.6857757110888087
 20
161.3634123863890011
 30
0.0
 40
0.1644068916171224
 50
99.4775963962387237
 51
150.1252225501858959
  0
ARC
  5
311D5
  8
0
 10
2938.6846414493929842
 20
161.3702067864761034
 30
0.0
 40
0.1575184649363927
 50
54.3840940068846379
 51
99.4775963962387237
  0
ARC
  5
311D6
  8
0
 10
2938.6770854648489149
 20
161.3596588866714114
 30
0.0
 40
0.1704934829602441
 50
15.3072046831586501
 51
54.3840940068836929
  0
ARC
  5
311D7
  8
0
 10
2938.6788671117637932
 20
161.3601465309218099
 30
0.0
 40
0.1686463060217263
 50
342.6286038489241719
 51
15.3072046831570798
  0
ARC
  5
311D8
  8
0
 10
2938.6768320276919439
 20
161.3607831720314891
 30
0.0
 40
0.1707786472426395
 50
308.9604589402703141
 51
342.6286038489241719
  0
ARC
  5
311D9
  8
0
 10
2938.6842557072759519
 20
161.351602744147101
 30
0.0
 40
0.1589722390368828
 50
249.3730226086630068
 51
308.9604589402703141
  0
ARC
  5
311DA
  8
0
 10
2938.6865101940520617
 20
161.35759214480899
 30
0.0
 40
0.1653718976927067
 50
205.2432323420665057
 51
249.3730226086630068
  0
ARC
  5
311DB
  8
0
 10
2938.6926143738960491
 20
161.3604701815829969
 30
0.0
 40
0.1721205351280038
 50
183.731614722709196
 51
205.2432323420665057
  0
ARC
  5
311DC
  8
0
 10
2938.8090856167309539
 20
161.3689283338133862
 30
0.0
 40
0.395657802062691
 50
111.6076180818364065
 51
140.2468428285945947
  0
ARC
  5
311DD
  8
0
 10
2938.8054850571929819
 20
161.378018777640392
 30
0.0
 40
0.3858802666902114
 50
37.9772108457703865
 51
111.6076180818364065
  0
ARC
  5
311DE
  8
0
 10
2938.7811767784751282
 20
161.3590426342838953
 30
0.0
 40
0.416718334575476
 50
340.7534770129283856
 51
37.9772108457703865
  0
ARC
  5
311DF
  8
0
 10
2938.800745159338021
 20
161.3522103820704956
 30
0.0
 40
0.3959915113776055
 50
281.3132920678357891
 51
340.7534770129283856
  0
ARC
  5
311E0
  8
0
 10
2938.8035011147280784
 20
161.3384348054389932
 30
0.0
 40
0.381942959792402
 50
232.7224243242243915
 51
281.3132920678357891
  0
ARC
  5
311E1
  8
0
 10
2938.8204735019680811
 20
161.3607323464825924
 30
0.0
 40
0.409965134319438
 50
193.9744861934941866
 51
232.7224243242243915
  0
ARC
  5
311E2
  8
0
 10
2938.812359490857034
 20
161.3587131336504967
 30
0.0
 40
0.4016036513898708
 50
181.0148922755737999
 51
193.9744861934941866
  0
ARC
  5
311E3
  8
0
 10
2938.8644915251120437
 20
161.3658977045523102
 30
0.0
 40
0.7146814799466212
 50
125.2312198179808007
 51
159.014949915395789
  0
ARC
  5
311E4
  8
0
 10
2938.8560688709299029
 20
161.3778237765299082
 30
0.0
 40
0.7000810588467027
 50
66.162613678087169
 51
125.2312198179808007
  0
ARC
  5
311E5
  8
0
 10
2938.8510851259520678
 20
161.3665440537698998
 30
0.0
 40
0.712412719706064
 50
6.5712169712083126
 51
66.162613678087169
  0
ARC
  5
311E6
  8
0
 10
2938.8238547952128101
 20
161.3634072587252888
 30
0.0
 40
0.739823126402973
 50
322.9236668125710139
 51
6.5712169712083126
  0
ARC
  5
311E7
  8
0
 10
2938.867115344659851
 20
161.3307176436744896
 30
0.0
 40
0.685600565871463
 50
269.1498674702244784
 51
322.9236668125710139
  0
ARC
  5
311E8
  8
0
 10
2938.8681539343988334
 20
161.4007096033357129
 30
0.0
 40
0.7556002307696394
 50
238.4628021622507958
 51
269.1498674702244784
  0
ARC
  5
311E9
  8
0
 10
2938.8225774604679827
 20
161.3264438268712127
 30
0.0
 40
0.6684645863421818
 50
190.0820408996845003
 51
238.4628021622507958
  0
ARC
  5
311EA
  8
0
 10
2939.2290425722549116
 20
161.3987148509935139
 30
0.0
 40
1.0813047346162321
 50
182.4972406098598867
 51
190.0820408996845003
  0
ARC
  5
311EB
  8
0
 10
2938.7603701969192116
 20
161.2402354073880133
 30
0.0
 40
0.8572064554834506
 50
53.0399316872867317
 51
73.4929469701849456
  0
ARC
  5
311EC
  8
0
 10
2938.8920693453687818
 20
161.4152597414486081
 30
0.0
 40
0.6381672279103137
 50
23.3470113625905107
 51
53.0399316872867317
  0
ARC
  5
311ED
  8
0
 10
2938.7276565237598334
 20
161.3442924152857074
 30
0.0
 40
0.817242455935607
 50
357.1701001641217772
 51
23.3470113625905107
  0
ARC
  5
311EE
  8
0
 10
2938.8189363882402176
 20
161.3593682928577095
 30
0.0
 40
0.7270814768853008
 50
329.4645491422273835
 51
355.628218014915717
  0
ARC
  5
311EF
  8
0
 10
2938.834102448205158
 20
161.3504471010481893
 30
0.0
 40
0.7094861205345913
 50
307.9680232106637163
 51
329.4628140765573221
  0
ARC
  5
311F0
  8
0
 10
2938.8440723685371267
 20
161.3381312052327132
 30
0.0
 40
0.6936431793666931
 50
291.4577356939026913
 51
307.9446616104243049
  0
ARC
  5
311F1
  8
0
 10
2938.8476317416411803
 20
161.3293114884411068
 30
0.0
 40
0.6841327118092404
 50
273.7613485013989134
 51
291.4505096455009152
  0
ARC
  5
311F2
  8
0
 10
2938.8597200529461588
 20
160.9989534424651936
 30
0.0
 40
0.353823786710504
 50
270.359385506762294
 51
275.3176311367558924
  0
ARC
  5
31253
  8
0
 10
2949.0993375657981233
 20
134.1901924832073121
 30
0.0
 40
0.1799999376879309
 50
269.9999928617352793
 51
8.0001669265699817
  0
LINE
  5
31254
  8
0
 10
2949.2775856834809929
 20
134.2152441520192951
 30
0.0
 11
2949.2008174330608199
 21
134.7614670898092868
 31
0.0
  0
ARC
  5
31255
  8
0
 10
2948.7047187607468004
 20
134.6917434944159027
 30
0.0
 40
0.5009743231211116
 50
8.0001669265699817
 51
40.3055764283979983
  0
ARC
  5
31256
  8
0
 10
2951.9006653862038547
 20
137.4026381433756967
 30
0.0
 40
3.6898519236389009
 50
200.7986945242060131
 51
220.3055764283980125
  0
ARC
  5
31257
  8
0
 10
2952.1330361357158836
 20
137.4909014522320945
 30
0.0
 40
3.9384209822903768
 50
184.4535733895550891
 51
200.7986945242060131
  0
LINE
  5
31258
  8
0
 10
2948.2065068940719357
 20
137.1850780583193909
 30
0.0
 11
2947.8534619734728039
 21
142.927369932819289
 31
0.0
  0
ARC
  5
31259
  8
0
 10
2948.3146830188270542
 20
142.9878230947034865
 30
0.0
 40
0.4651660321428537
 50
120.0894339322577054
 51
187.4673037771231066
  0
ARC
  5
3125A
  8
0
 10
2943.4094828282800336
 20
153.2160239849609127
 30
0.0
 40
10.8799001983673502
 50
295.4304187630913816
 51
304.3393040962474743
  0
ARC
  5
3125B
  8
0
 10
2946.6588077578649063
 20
147.7344687336525055
 30
0.0
 40
4.5392692138813029
 50
309.5100783480809241
 51
348.1865274266929191
  0
ARC
  5
3125C
  8
0
 10
2944.1060507342522214
 20
148.5533853023069071
 30
0.0
 40
7.2110083414459663
 50
345.9695094471326797
 51
359.6553123881328133
  0
ARC
  5
3125D
  8
0
 10
2945.3435859219771373
 20
148.5686163137667961
 30
0.0
 40
5.9736302139095629
 50
359.4378197694346113
 51
4.2392234042558297
  0
ARC
  5
3125E
  8
0
 10
2943.6300138045708081
 20
148.5845927730966878
 30
0.0
 40
7.6826567486553756
 50
3.1756671491056361
 51
13.4089753354521992
  0
ARC
  5
3125F
  8
0
 10
2950.9105122898449736
 20
150.3092213812257967
 30
0.0
 40
0.2009728876438006
 50
16.4709520440415886
 51
89.7627228165623734
  0
ARC
  5
31260
  8
0
 10
2952.6340151612339469
 20
164.3032201525537062
 30
0.0
 40
0.2450340930234245
 50
350.4836839574751934
 51
89.9987556763432792
  0
ARC
  5
31261
  8
0
 10
921.8173268075387341
 20
504.7399194638746849
 30
0.0
 40
2059.3986388379089476
 50
350.4583461825117183
 51
350.4836839574751934
  0
ARC
  5
31262
  8
0
 10
3996.9199592976929125
 20
-12.1542507989433393
 30
0.0
 40
1058.8437801538480016
 50
170.4583461825116899
 51
170.4836839574751934
  0
ARC
  5
31263
  8
0
 10
2952.5261945637048484
 20
162.9230804473326089
 30
0.0
 40
0.122889638714615
 50
270.5160452810499123
 51
350.4836839574751934
  0
ARC
  5
31264
  8
0
 10
2956.1990407726480043
 20
160.401939626451906
 30
0.0
 40
4.6597162166919306
 50
149.0239209163376017
 51
159.0107928007954001
  0
ARC
  5
31265
  8
0
 10
2957.3167958378871845
 20
159.9731152159725127
 30
0.0
 40
5.8569074131555698
 50
159.0107928007954001
 51
169.0968147855591894
  0
ARC
  5
31266
  8
0
 10
2971.6805376054439876
 20
157.2062663932429984
 30
0.0
 40
20.4847073151542283
 50
169.0968147855591894
 51
173.7849528374264025
  0
ARC
  5
31267
  8
0
 10
2996.8921718106621483
 20
154.4607069783642999
 30
0.0
 40
45.8453972860190007
 50
173.7849528374264025
 51
177.5901024984254093
  0
ARC
  5
31268
  8
0
 10
2610.4221202248691043
 20
170.7254794790200947
 30
0.0
 40
340.9667581553824789
 50
356.9847988867505819
 51
357.5901024984253809
  0
ARC
  5
31269
  8
0
 10
3004.4544539396511027
 20
149.9702908028434081
 30
0.0
 40
53.6118244738589809
 50
176.9847988867506103
 51
178.2658505406703
  0
ARC
  5
3126A
  8
0
 10
2947.4851271781731157
 20
151.6950863504389986
 30
0.0
 40
3.383606144191913
 50
355.2104504749838725
 51
358.2658505406702716
  0
ARC
  5
3126B
  8
0
 10
2950.3846705133100841
 20
151.4521374775927995
 30
0.0
 40
0.4739024295237255
 50
346.4728862966645124
 51
355.2104504749838725
  0
ARC
  5
3126C
  8
0
 10
2950.917812783276986
 20
150.8705783785293022
 30
0.0
 40
0.0599858340557304
 50
270.0106987840269994
 51
0.0008062777875162
  0
LINE
  5
3126D
  8
0
 10
2950.9777986173271529
 20
150.8705792226620872
 30
0.0
 11
2950.977798270851963
 21
150.8952004197062138
 31
0.0
  0
LINE
  5
3126E
  8
0
 10
2950.977798270851963
 20
150.8952004197062138
 30
0.0
 11
2950.9202431075727873
 21
151.2056039701193129
 31
0.0
  0
ARC
  5
3126F
  8
0
 10
2950.6785086837271592
 20
151.1607814665869967
 30
0.0
 40
0.2458548118193533
 50
10.5045087198697296
 51
47.2400139071806606
  0
ARC
  5
31270
  8
0
 10
2950.6704325708919896
 20
151.152047831223598
 30
0.0
 40
0.257750188450031
 50
47.2400139071806606
 51
86.7871171221591879
  0
ARC
  5
31271
  8
0
 10
2950.4313360558999193
 20
197.2435083552693129
 30
0.0
 40
45.8348167303787832
 50
267.7246848129465207
 51
270.3169420882668987
  0
ARC
  5
31272
  8
0
 10
2942.2004125974781346
 20
1.524467023005627
 30
0.0
 40
150.9366062635868104
 50
86.9112562460511242
 51
89.3595390620211845
  0
ARC
  5
31273
  8
0
 10
2950.2393541541828199
 20
150.5012628517380904
 30
0.0
 40
1.743073304721682
 50
79.7287407150298719
 51
86.9112562460511242
  0
ARC
  5
31274
  8
0
 10
2950.5027373742491363
 20
151.9547110776680938
 30
0.0
 40
0.265953652807224
 50
11.7357988440296204
 51
79.7287407150298719
  0
ARC
  5
31275
  8
0
 10
4013.0082465636301094
 20
348.4398964073517959
 30
0.0
 40
1080.2545338070399339
 50
190.4768238590515921
 51
190.4974496057793942
  0
ARC
  5
31276
  8
0
 10
2950.7735665152340516
 20
151.6166083166338012
 30
0.0
 40
0.061139558765461
 50
271.2601865218376247
 51
9.2384746208068016
  0
ARC
  5
31277
  8
0
 10
2950.4817502265800613
 20
150.6605696005933908
 30
0.0
 40
0.1500286041176041
 50
90.4976559058054733
 51
150.0784188831125903
  0
ARC
  5
31278
  8
0
 10
2950.4816714804010189
 20
150.6606149211314118
 30
0.0
 40
0.1499377475719663
 50
150.0784188831125903
 51
168.3498859080623049
  0
ARC
  5
31279
  8
0
 10
2950.1879247821539138
 20
150.7211802600319004
 30
0.0
 40
0.1499877148465497
 50
269.9961760792314749
 51
348.3498859080622765
  0
LINE
  5
3127A
  8
0
 10
2950.187914771972828
 20
150.5711925455194091
 30
0.0
 11
2949.8157548798790231
 21
150.571217383473396
 31
0.0
  0
ARC
  5
3127B
  8
0
 10
2949.8157725868099988
 20
150.8365294759437063
 30
0.0
 40
0.2653120930611444
 50
222.2087946106913989
 51
269.9961760792314749
  0
ARC
  5
3127C
  8
0
 10
2949.7451728913470106
 20
150.7568228821259027
 30
0.0
 40
0.1598910581479185
 50
191.8812647204233883
 51
218.0456720030691997
  0
LINE
  5
3127D
  8
0
 10
2949.5887072816731234
 20
150.7239038380193961
 30
0.0
 11
2949.5734216492728592
 21
150.8105925455193983
 31
0.0
  0
LINE
  5
3127E
  8
0
 10
2949.6437875479728064
 20
150.5101925455194021
 30
0.0
 11
2949.6437875479728064
 21
150.6345105334146979
 31
0.0
  0
ARC
  5
3127F
  8
0
 10
2948.5739776601872109
 20
150.7000752194595066
 30
0.0
 40
0.1109535971112819
 50
95.0826188431191071
 51
174.7748783796012901
  0
LINE
  5
31280
  8
0
 10
2948.4634851235819042
 20
150.7101796772215891
 30
0.0
 11
2948.4580390176997753
 21
150.6506263525668032
 31
0.0
  0
ARC
  5
31281
  8
0
 10
2948.3479991509461797
 20
150.6606894140182078
 30
0.0
 40
0.1104990383716562
 50
270.3590676133686088
 51
354.7748783796013754
  0
LINE
  5
31282
  8
0
 10
2950.7749111103730684
 20
151.5554835455193938
 30
0.0
 11
2950.2122851282729243
 21
151.5558840000194039
 31
0.0
  0
ARC
  5
31283
  8
0
 10
2945.5692372034068285
 20
-132.1759885269237031
 30
0.0
 40
283.7863476956835029
 50
89.551223649859736
 51
90.3395232938418502
  0
ARC
  5
31284
  8
0
 10
2950.666223338511827
 20
262.4208509338200201
 30
0.0
 40
110.8564635782570065
 50
268.5143044850996716
 51
268.88214352491309
  0
ARC
  5
31285
  8
0
 10
2972.1474317431261625
 20
1363.3013644254649535
 30
0.0
 40
1211.9465358703250786
 50
268.88214352491309
 51
268.9418941260441898
  0
ARC
  5
31286
  8
0
 10
2950.4665942866581645
 20
189.4308739475121968
 30
0.0
 40
37.8758450140357326
 50
268.9418941260441898
 51
269.6152970407005114
  0
LINE
  5
31287
  8
0
 10
2947.7920064928698594
 20
151.6016540651964988
 30
0.0
 11
2947.7946161244731229
 21
151.4538851741193923
 31
0.0
  0
ARC
  5
31288
  8
0
 10
2947.8695068717652248
 20
151.4552077614339112
 30
0.0
 40
0.0749024249756632
 50
181.0117510819117967
 51
226.1966018916720031
  0
ARC
  5
31289
  8
0
 10
2948.678199267283162
 20
151.5172397038359122
 30
0.0
 40
0.0649781825071981
 50
92.6578865313098419
 51
170.424167614121103
  0
LINE
  5
3128A
  8
0
 10
2948.6141264717230115
 20
151.5280490086693135
 30
0.0
 11
2948.6124006903060035
 21
151.4558727506855007
 31
0.0
  0
ARC
  5
3128B
  8
0
 10
2948.5236938400039435
 20
151.4564813840279953
 30
0.0
 40
0.0887089382478918
 50
352.4515275571621942
 51
359.6068897217571134
  0
ARC
  5
3128C
  8
0
 10
2948.5344778611511174
 20
151.4550523582230142
 30
0.0
 40
0.0778306467073891
 50
316.1661663471875272
 51
352.4515275571621942
  0
ARC
  5
3128D
  8
0
 10
2949.1010663244937859
 20
151.1887325794774881
 30
0.0
 40
0.4065513407175775
 50
107.5719037832712957
 51
142.105576017015494
  0
ARC
  5
3128E
  8
0
 10
2950.6247878943868272
 20
151.4941827349666994
 30
0.0
 40
0.0614445707875214
 50
91.9456469831112173
 51
161.9105889751481016
  0
ARC
  5
3128F
  8
0
 10
2950.4936069145292095
 20
151.5370324560321933
 30
0.0
 40
0.0765574149659894
 50
270.8540262449809006
 51
341.9105889751480731
  0
LINE
  5
31290
  8
0
 10
2950.494748004172834
 20
151.460483545519395
 30
0.0
 11
2950.2254653853719901
 21
151.460483545519395
 31
0.0
  0
ARC
  5
31291
  8
0
 10
2950.2280146527309626
 20
151.5380832421327
 30
0.0
 40
0.0776415589652685
 50
182.8855970144556977
 51
268.1184237011688083
  0
LINE
  5
31292
  8
0
 10
2950.1504715398727967
 20
151.5341746200192858
 30
0.0
 11
2950.1500945896841586
 21
151.5563513304670096
 31
0.0
  0
ARC
  5
31293
  8
0
 10
2947.1546754792229876
 20
150.6593519516682989
 30
0.0
 40
0.109495577176079
 50
193.3448359208817067
 51
265.5091281924570126
  0
ARC
  5
31294
  8
0
 10
2946.8081181560660298
 20
150.577142871532601
 30
0.0
 40
0.2466789742597163
 50
13.3448359208817902
 51
71.1504801712618047
  0
LINE
  5
31295
  8
0
 10
2945.7625697652729286
 20
150.5501925455193941
 30
0.0
 11
2945.7625697652729286
 21
150.5101925455194021
 31
0.0
  0
LINE
  5
31296
  8
0
 10
2946.4475697652719646
 20
150.5501925455193941
 30
0.0
 11
2946.4475697652719646
 21
150.5101925455194021
 31
0.0
  0
LINE
  5
31297
  8
0
 10
2947.1676807185199323
 20
150.5502034757595027
 30
0.0
 11
2947.1676807185199323
 21
150.5101925455194021
 31
0.0
  0
LINE
  5
31298
  8
0
 10
2948.3384680152730652
 20
150.5501764700194087
 30
0.0
 11
2948.3384680152730652
 21
150.5101925455194021
 31
0.0
  0
LINE
  5
31299
  8
0
 10
2949.5997848178722052
 20
150.6902837314922863
 30
0.0
 11
2948.4973547647909982
 21
150.6902837314922863
 31
0.0
  0
ARC
  5
3129A
  8
0
 10
2947.5961424733100102
 20
156.0948047934928127
 30
0.0
 40
5.4791451435350549
 50
279.0831732871382087
 51
285.3292130312755717
  0
LINE
  5
3129B
  8
0
 10
2948.8746719364730779
 20
150.6901925455194089
 30
0.0
 11
2948.8746719364730779
 21
150.5101925455194021
 31
0.0
  0
ARC
  5
3129C
  8
0
 10
2945.3486846203841196
 20
143.0656077705874907
 30
0.0
 40
2.75675650081343
 50
356.0026264993509244
 51
6.8091942460880084
  0
ARC
  5
3129D
  8
0
 10
2945.3399006670151721
 20
143.0736217763642912
 30
0.0
 40
2.7660875981417048
 50
342.2174529104880207
 51
355.8497145300951843
  0
ARC
  5
3129E
  8
0
 10
2775.8802434539898059
 20
206.2988908064195925
 30
0.0
 40
183.633259266615795
 50
339.5204626147174167
 51
339.5798170095534942
  0
ARC
  5
3129F
  8
0
 10
2949.7078051504490759
 20
162.2865145879100055
 30
0.0
 40
10.3304973428750895
 50
270.4214386238458019
 51
275.8619167620107078
  0
ARC
  5
312A0
  8
0
 10
2951.4460962103539714
 20
-74.034836814765896
 30
0.0
 40
225.9972470812529082
 50
90.4214386238458019
 51
91.290760504119234
  0
ARC
  5
312A1
  8
0
 10
2944.8475874399591703
 20
459.0987092219529018
 30
0.0
 40
307.1973443597253777
 50
269.8209506902409203
 51
270.2811984056153278
  0
LINE
  5
313D9
  8
0
 10
2944.0866366983391345
 20
144.6819657676194026
 30
0.0
 11
2943.5521884307058826
 21
144.6819657676194026
 31
0.0
  0
ARC
  5
313DA
  8
0
 10
2944.033738464238013
 20
121.7178150126104015
 30
0.0
 40
22.9691991661349384
 50
91.201295958159875
 51
95.9791700584463854
  0
ARC
  5
313DB
  8
0
 10
2942.1925122544880651
 20
139.2973885918588053
 30
0.0
 40
5.2934666160062038
 50
95.9791700584463854
 51
109.3159848978228013
  0
ARC
  5
313DC
  8
0
 10
2940.6644128551579342
 20
143.6570559716788011
 30
0.0
 40
0.6737493695830591
 50
109.3159848978228013
 51
143.4786344347488978
  0
ARC
  5
313DD
  8
0
 10
2932.7820619909839479
 20
149.494238775663689
 30
0.0
 40
9.1346224745649227
 50
318.3975204169576045
 51
323.4786344347489262
  0
ARC
  5
313DE
  8
0
 10
2943.8267348521640088
 20
122.5861712778435049
 30
0.0
 40
22.0973229850145998
 50
84.5479482490396492
 51
89.3260893076734703
  0
ARC
  5
313DF
  8
0
 10
2945.255353152203952
 20
137.5542235600885022
 30
0.0
 40
7.0612483851987493
 50
73.5288822778452129
 51
84.5479482490396492
  0
ARC
  5
313E0
  8
0
 10
2947.0347542811050516
 20
143.572519907527294
 30
0.0
 40
0.7854090546283813
 50
38.1810532636866569
 51
73.5288822778452129
  0
ARC
  5
313E1
  8
0
 10
3009.0925938506989041
 20
192.3740035115557987
 30
0.0
 40
78.1624234298652709
 50
218.1810532636866924
 51
218.7732989133988042
  0
LINE
  5
313E2
  8
0
 10
2938.6889241460121411
 20
135.016494405043801
 30
0.0
 11
2949.0861804815717733
 21
135.016494405043801
 31
0.0
  0
ATTDEF
  5
313E8
  8
DEFPOINTS
 10
2943.8741062504209367
 20
134.0141915156578136
 30
0.0
 40
0.001
  1
30115
  3

  2
MODELNUMBER
 70
     0
1001
ACDBATTR
1070
     0
1070
     1
  0
ATTDEF
  5
313E9
  8
DEFPOINTS
 10
2943.8741062504209367
 20
134.0125248489912053
 30
0.0
 40
0.001
  1
STINSON
  3

  2
TRADENAME
 70
     0
1001
ACDBATTR
1070
     0
1070
     1
  0
ATTDEF
  5
313EA
  8
DEFPOINTS
 10
2943.8741062504209367
 20
134.0108581823245117
 30
0.0
 40
0.001
  1
TOILET
  3

  2
PRODUCT
 70
     0
1001
ACDBATTR
1070
     0
1070
     1
  0
ENDSEC
  0
EOF
