  0
SECTION
  2
HEADER
  9
$ACADVER
  1
AC1009
  9
$INSBASE
 10
3668.095552269026939
 20
166.0335875826615961
 30
0.0
  9
$EXTMIN
 10
3651.5955522690769612
 20
156.7431495174616032
 30
0.0
  9
$EXTMAX
 10
3684.5955522689778263
 20
166.0389747767488018
 30
0.0
  9
$LIMMIN
 10
0.0
 20
0.0
  9
$LIMMAX
 10
11.6929133858000007
 20
8.2677165353999982
  9
$ORTHOMODE
 70
     0
  9
$REGENMODE
 70
     1
  9
$FILLMODE
 70
     1
  9
$QTEXTMODE
 70
     0
  9
$MIRRTEXT
 70
     0
  9
$DRAGMODE
 70
     2
  9
$LTSCALE
 40
0.6431102362
  9
$OSMODE
 70
  4095
  9
$ATTMODE
 70
     1
  9
$TEXTSIZE
 40
0.2
  9
$TRACEWID
 40
0.05
  9
$TEXTSTYLE
  7
STANDARD
  9
$CLAYER
  8
0
  9
$CELTYPE
  6
BYLAYER
  9
$CECOLOR
 62
   256
  9
$DIMSCALE
 40
1.0
  9
$DIMASZ
 40
0.1875
  9
$DIMEXO
 40
0.0625
  9
$DIMDLI
 40
0.4443307087
  9
$DIMRND
 40
0.0
  9
$DIMDLE
 40
0.0
  9
$DIMEXE
 40
0.125
  9
$DIMTP
 40
0.01
  9
$DIMTM
 40
0.01
  9
$DIMTXT
 40
2.0
  9
$DIMCEN
 40
0.1052362205
  9
$DIMTSZ
 40
0.0
  9
$DIMTOL
 70
     1
  9
$DIMLIM
 70
     0
  9
$DIMTIH
 70
     1
  9
$DIMTOH
 70
     1
  9
$DIMSE1
 70
     0
  9
$DIMSE2
 70
     0
  9
$DIMTAD
 70
     0
  9
$DIMZIN
 70
     0
  9
$DIMBLK
  1

  9
$DIMASO
 70
     1
  9
$DIMSHO
 70
     1
  9
$DIMPOST
  1
\X
  9
$DIMAPOST
  1

  9
$DIMALT
 70
     1
  9
$DIMALTD
 70
     2
  9
$DIMALTF
 40
25.3999999999999986
  9
$DIMLFAC
 40
1.0
  9
$DIMTOFL
 70
     0
  9
$DIMTVP
 40
0.0
  9
$DIMTIX
 70
     0
  9
$DIMSOXD
 70
     0
  9
$DIMSAH
 70
     0
  9
$DIMBLK1
  1

  9
$DIMBLK2
  1

  9
$DIMSTYLE
  2
STANDARD
  9
$DIMCLRD
 70
     0
  9
$DIMCLRE
 70
     0
  9
$DIMCLRT
 70
     0
  9
$DIMTFAC
 40
1.0
  9
$DIMGAP
 40
0.09
  9
$LUNITS
 70
     2
  9
$LUPREC
 70
     4
  9
$SKETCHINC
 40
0.1
  9
$FILLETRAD
 40
0.0
  9
$AUNITS
 70
     0
  9
$AUPREC
 70
     0
  9
$MENU
  1
.
  9
$ELEVATION
 40
0.0
  9
$PELEVATION
 40
0.0
  9
$THICKNESS
 40
0.0
  9
$LIMCHECK
 70
     0
  9
$BLIPMODE
 70
     0
  9
$CHAMFERA
 40
0.0
  9
$CHAMFERB
 40
0.0
  9
$SKPOLY
 70
     0
  9
$TDCREATE
 40
2458060.468368056230247
  9
$TDUPDATE
 40
2459446.617326389066875
  9
$TDINDWG
 40
0.7212686343
  9
$TDUSRTIMER
 40
0.7212686343
  9
$USRTIMER
 70
     1
  9
$ANGBASE
 50
0.0
  9
$ANGDIR
 70
     0
  9
$PDMODE
 70
     0
  9
$PDSIZE
 40
0.3125
  9
$PLINEWID
 40
0.0
  9
$COORDS
 70
     1
  9
$SPLFRAME
 70
     0
  9
$SPLINETYPE
 70
     6
  9
$SPLINESEGS
 70
     8
  9
$ATTDIA
 70
     1
  9
$ATTREQ
 70
     1
  9
$HANDLING
 70
     1
  9
$HANDSEED
  5
10F31
  9
$SURFTAB1
 70
     6
  9
$SURFTAB2
 70
     6
  9
$SURFTYPE
 70
     6
  9
$SURFU
 70
     6
  9
$SURFV
 70
     6
  9
$UCSNAME
  2

  9
$UCSORG
 10
0.0
 20
0.0
 30
0.0
  9
$UCSXDIR
 10
1.0
 20
0.0
 30
0.0
  9
$UCSYDIR
 10
0.0
 20
1.0
 30
0.0
  9
$PUCSNAME
  2

  9
$PUCSORG
 10
0.0
 20
0.0
 30
0.0
  9
$PUCSXDIR
 10
1.0
 20
0.0
 30
0.0
  9
$PUCSYDIR
 10
0.0
 20
1.0
 30
0.0
  9
$USERI1
 70
     0
  9
$USERI2
 70
     0
  9
$USERI3
 70
     0
  9
$USERI4
 70
     0
  9
$USERI5
 70
     0
  9
$USERR1
 40
0.0
  9
$USERR2
 40
0.0
  9
$USERR3
 40
0.0
  9
$USERR4
 40
0.0
  9
$USERR5
 40
0.0
  9
$WORLDVIEW
 70
     1
  9
$SHADEDGE
 70
     3
  9
$SHADEDIF
 70
    70
  9
$TILEMODE
 70
     1
  9
$MAXACTVP
 70
    64
  9
$PLIMCHECK
 70
     0
  9
$PEXTMIN
 10
1.0000000000000000E+20
 20
1.0000000000000000E+20
 30
1.0000000000000000E+20
  9
$PEXTMAX
 10
-1.0000000000000000E+20
 20
-1.0000000000000000E+20
 30
-1.0000000000000000E+20
  9
$PLIMMIN
 10
0.0
 20
0.0
  9
$PLIMMAX
 10
12.0
 20
9.0
  9
$UNITMODE
 70
     0
  9
$VISRETAIN
 70
     1
  9
$PLINEGEN
 70
     0
  9
$PSLTSCALE
 70
     1
  0
ENDSEC
  0
SECTION
  2
TABLES
  0
TABLE
  2
VPORT
 70
     1
  0
VPORT
  2
*ACTIVE
 70
     0
 10
0.0
 20
0.0
 11
1.0
 21
1.0
 12
24.0167102007089888
 22
1.4441913664617789
 13
0.0
 23
0.0
 14
1.0
 24
1.0
 15
0.0
 25
0.0
 16
0.0
 26
0.0
 36
26.6346482412083887
 17
3644.0758056640620453
 27
159.9442404997975871
 37
0.0
 40
11.7868256579121802
 41
2.8440779610194902
 42
50.0
 43
0.0
 44
0.0
 50
0.0
 51
0.0
 71
     0
 72
   100
 73
     1
 74
     1
 75
     0
 76
     0
 77
     0
 78
     0
  0
ENDTAB
  0
TABLE
  2
LTYPE
 70
     2
  0
LTYPE
  2
CONTINUOUS
 70
     0
  3
Solid line
 72
    65
 73
     0
 40
0.0
  0
LTYPE
  2
PHANTOM2
 70
     0
  3
___ _ _ ___ _ _ ___ _ _ ___ _ _
 72
    65
 73
     6
 40
1.25
 49
0.625
 49
-0.125
 49
0.125
 49
-0.125
 49
0.125
 49
-0.125
  0
ENDTAB
  0
TABLE
  2
LAYER
 70
     2
  0
LAYER
  2
0
 70
     0
 62
   255
  6
CONTINUOUS
  0
LAYER
  2
DEFPOINTS
 70
     0
 62
     7
  6
CONTINUOUS
  0
ENDTAB
  0
TABLE
  2
STYLE
 70
     1
  0
STYLE
  2
STANDARD
 70
     0
 40
0.0
 41
0.8
 50
0.0
 71
     0
 42
0.2
  3
txt
  4

  0
ENDTAB
  0
TABLE
  2
VIEW
 70
     0
  0
ENDTAB
  0
TABLE
  2
UCS
 70
     0
  0
ENDTAB
  0
TABLE
  2
APPID
 70
    10
  0
APPID
  2
ACAD
 70
     0
  0
APPID
  2
ACAD_MLEADERVER
 70
     0
  0
APPID
  2
ACAD_EXEMPT_FROM_CAD_STANDARDS
 70
     0
  0
APPID
  2
ACAD_NAV_VCDISPLAY
 70
     0
  0
APPID
  2
ACAECLAYERSTANDARD
 70
     0
  0
APPID
  2
ACCMTRANSPARENCY
 70
     0
  0
APPID
  2
ACAD_DSTYLE_DIMJAG
 70
     0
  0
APPID
  2
ACAD_DSTYLE_DIMTALN
 70
     0
  0
APPID
  2
ACDBATTR
 70
     0
  0
APPID
  2
ACAD_PSEXT
 70
     0
  0
ENDTAB
  0
TABLE
  2
DIMSTYLE
 70
     1
  0
DIMSTYLE
  2
STANDARD
 70
     0
  3

  4

  5

  6

  7

 40
1.0
 41
0.1875
 42
0.0625
 43
0.38
 44
0.125
 45
0.0
 46
0.0
 47
0.01
 48
0.01
140
0.15625
141
0.09
142
0.0
143
25.3999999999999986
144
1.0
145
0.0
146
1.0
147
0.09
 71
     1
 72
     0
 73
     1
 74
     1
 75
     0
 76
     0
 77
     0
 78
     4
170
     0
171
     2
172
     0
173
     0
174
     0
175
     0
176
     0
177
     0
178
     0
  0
ENDTAB
  0
ENDSEC
  0
SECTION
  2
BLOCKS
  0
BLOCK
  8
0
  2
$MODEL_SPACE
 70
     0
 10
0.0
 20
0.0
 30
0.0
  3
$MODEL_SPACE
  1

  0
ENDBLK
  5
21
  8
0
  0
BLOCK
 67
     1
  8
0
  2
$PAPER_SPACE
 70
     0
 10
0.0
 20
0.0
 30
0.0
  3
$PAPER_SPACE
  1

  0
ENDBLK
  5
1D
 67
     1
  8
0
  0
ENDSEC
  0
SECTION
  2
ENTITIES
  0
ATTDEF
  5
AA11
  8
DEFPOINTS
 10
3668.0909337582979788
 20
166.0379747767487117
 30
0.0
 40
0.001
  1
K-28197-1
  3

  2
MODELNUMBER
 70
     0
1001
ACDBATTR
1070
     0
1070
     1
  0
ATTDEF
  5
AA12
  8
DEFPOINTS
 10
3668.0909337582979788
 20
166.0363081100821034
 30
0.0
 40
0.001
  1

  3

  2
TRADENAME
 70
     0
1001
ACDBATTR
1070
     0
1070
     1
  0
ATTDEF
  5
AA13
  8
DEFPOINTS
 10
3668.0909337582979788
 20
166.0346414434154099
 30
0.0
 40
0.001
  1
KITCHEN SINK 
  3

  2
PRODUCT
 70
     0
1001
ACDBATTR
1070
     0
1070
     1
  0
LINE
  5
10CD1
  8
0
 10
3651.7941566641898135
 20
166.0335875826615961
 30
0.0
 11
3684.3969478738640646
 21
166.0335875826615961
 31
0.0
  0
LINE
  5
10CD2
  8
0
 10
3651.6280029732770345
 20
165.8682187857615986
 30
0.0
 11
3684.5631015647782078
 21
165.8682187857615986
 31
0.0
  0
LINE
  5
10CD3
  8
0
 10
3651.7170221510141346
 20
166.0055129158243972
 30
0.0
 11
3651.5955522690769612
 21
165.9035875826616007
 31
0.0
  0
LINE
  5
10CD4
  8
0
 10
3651.5955522690769612
 20
165.9035875826616007
 30
0.0
 11
3651.6280029732770345
 21
165.8682187857615986
 31
0.0
  0
ARC
  5
10CD5
  8
0
 10
3651.7941566641898135
 20
165.9135875826615916
 30
0.0
 40
0.12
 50
90.0
 51
130.000000008497409
  0
LINE
  5
10CD6
  8
0
 10
3652.8455522690769612
 20
165.4295875826616111
 30
0.0
 11
3656.653552269076954
 21
165.4295875826616111
 31
0.0
  0
LINE
  5
10CD7
  8
0
 10
3657.0385522690771722
 20
165.4295875826616111
 30
0.0
 11
3679.1525522689771606
 21
165.4295875826616111
 31
0.0
  0
LINE
  5
10CD8
  8
0
 10
3652.8455522690769612
 20
165.8682187857615986
 30
0.0
 11
3652.8455522690769612
 21
165.4295875826616111
 31
0.0
  0
LINE
  5
10CD9
  8
0
 10
3656.653552269076954
 20
165.4295875826616111
 30
0.0
 11
3656.653552269076954
 21
165.5595875826616066
 31
0.0
  0
LINE
  5
10CDA
  8
0
 10
3656.653552269076954
 20
165.5595875826616066
 30
0.0
 11
3657.0385522690771722
 21
165.5595875826616066
 31
0.0
  0
LINE
  5
10CDB
  8
0
 10
3657.0385522690771722
 20
165.5595875826616066
 30
0.0
 11
3657.0385522690771722
 21
165.4295875826616111
 31
0.0
  0
LINE
  5
10CDC
  8
0
 10
3662.7786993316390181
 20
156.9869786328266059
 30
0.0
 11
3664.9262869658491582
 21
157.0619720309564968
 31
0.0
  0
LINE
  5
10CDD
  8
0
 10
3662.2580522690768703
 20
156.7431495174616032
 30
0.0
 11
3658.5380522690770704
 21
156.7431495174616032
 31
0.0
  0
LINE
  5
10CDE
  8
0
 10
3662.7026001984090726
 20
156.9032321625664963
 30
0.0
 11
3662.7539365308789456
 21
156.973819619652204
 31
0.0
  0
LINE
  5
10CDF
  8
0
 10
3662.2580522690768703
 20
156.7431495174616032
 30
0.0
 11
3662.6636221094058783
 21
156.8749271467384006
 31
0.0
  0
ARC
  5
10CE0
  8
0
 10
3662.6395187838520542
 20
156.9491095550116881
 30
0.0
 40
0.078
 50
287.9999999943755142
 51
323.9726265907244738
  0
ARC
  5
10CE1
  8
0
 10
3662.7798160855691094
 20
156.9549981253155977
 30
0.0
 40
0.032
 50
91.9999463174725065
 51
143.9726265907231948
  0
LINE
  5
10CE2
  8
0
 10
3667.2877498315938283
 20
159.4234326841454106
 30
0.0
 11
3667.497489382376898
 21
165.4295875826616111
 31
0.0
  0
ARC
  5
10CE3
  8
0
 10
3664.8408413307211049
 20
159.5088806118882871
 30
0.0
 40
2.448399999999999
 50
271.9999463174725065
 51
357.9999999996135784
  0
LINE
  5
10CE4
  8
0
 10
3658.0174052065158321
 20
156.9869786328266059
 30
0.0
 11
3655.8698175723061468
 21
157.0619720309564968
 31
0.0
  0
LINE
  5
10CE5
  8
0
 10
3658.0935043397457775
 20
156.9032321625664963
 30
0.0
 11
3658.0421680072759045
 21
156.973819619652204
 31
0.0
  0
LINE
  5
10CE6
  8
0
 10
3658.5380522690770704
 20
156.7431495174616032
 30
0.0
 11
3658.1324824287489719
 21
156.8749271467384006
 31
0.0
  0
ARC
  5
10CE7
  8
0
 10
3658.156585754302796
 20
156.9491095550116881
 30
0.0
 40
0.078
 50
216.0273734092754978
 51
252.0000000056245995
  0
ARC
  5
10CE8
  8
0
 10
3658.0162884525861955
 20
156.9549981253155977
 30
0.0
 40
0.032
 50
36.0273734092768123
 51
88.0000536825274935
  0
LINE
  5
10CE9
  8
0
 10
3653.5083547065601124
 20
159.4234326841454106
 30
0.0
 11
3653.2986151557770427
 21
165.4295875826616111
 31
0.0
  0
ARC
  5
10CEA
  8
0
 10
3655.9552632074342
 20
159.5088806118882871
 30
0.0
 40
2.448399999999999
 50
182.0000000003863931
 51
268.0000536825274935
  0
LINE
  5
10CEB
  8
0
 10
3658.0174052065158321
 20
156.9869786328266059
 30
0.0
 11
3662.7786993316390181
 21
156.9869786328266059
 31
0.0
  0
LINE
  5
10CEC
  8
0
 10
3662.6636221094058783
 20
156.8749271467382869
 30
0.0
 11
3658.1324824287489719
 21
156.8749271467382869
 31
0.0
  0
LINE
  5
10CED
  8
0
 10
3652.1365522690771286
 20
165.6595875826616009
 30
0.0
 11
3652.1365522690771286
 21
165.4895875826616134
 31
0.0
  0
LINE
  5
10CEE
  8
0
 10
3652.1655522690771249
 20
165.6595875826616009
 30
0.0
 11
3652.1655522690771249
 21
165.4895875826616134
 31
0.0
  0
LINE
  5
10CEF
  8
0
 10
3652.0745522690767757
 20
165.4895875826616134
 30
0.0
 11
3652.0745522690767757
 21
165.8682187857615986
 31
0.0
  0
LINE
  5
10CF0
  8
0
 10
3652.0455522690781436
 20
165.4895875826616134
 30
0.0
 11
3652.0455522690781436
 21
165.8682187857615986
 31
0.0
  0
LINE
  5
10CF1
  8
0
 10
3652.1365522690771286
 20
165.6595875826616009
 30
0.0
 11
3652.1655522690771249
 21
165.6595875826616009
 31
0.0
  0
ARC
  5
10CF2
  8
0
 10
3652.1055522690771795
 20
165.4895875826616134
 30
0.0
 40
0.0600000000000005
 50
180.0
 51
0.0
  0
ARC
  5
10CF3
  8
0
 10
3652.1055522690771795
 20
165.4895875826616134
 30
0.0
 40
0.0310000000000006
 50
180.0
 51
0.0
  0
LINE
  5
10CF4
  8
0
 10
3652.4045522690771577
 20
165.6595875826616009
 30
0.0
 11
3652.4045522690771577
 21
165.4895875826616134
 31
0.0
  0
LINE
  5
10CF5
  8
0
 10
3652.3755522690771613
 20
165.6595875826616009
 30
0.0
 11
3652.3755522690771613
 21
165.4895875826616134
 31
0.0
  0
LINE
  5
10CF6
  8
0
 10
3652.4665522690779653
 20
165.4895875826616134
 30
0.0
 11
3652.4665522690779653
 21
165.8682187857615986
 31
0.0
  0
LINE
  5
10CF7
  8
0
 10
3652.4955522690779617
 20
165.4895875826616134
 30
0.0
 11
3652.4955522690779617
 21
165.8682187857615986
 31
0.0
  0
LINE
  5
10CF8
  8
0
 10
3652.4045522690771577
 20
165.6595875826616009
 30
0.0
 11
3652.3755522690771613
 21
165.6595875826616009
 31
0.0
  0
ARC
  5
10CF9
  8
0
 10
3652.4355522690771068
 20
165.4895875826616134
 30
0.0
 40
0.0600000000000005
 50
180.0
 51
0.0
  0
ARC
  5
10CFA
  8
0
 10
3652.4355522690771068
 20
165.4895875826616134
 30
0.0
 40
0.0310000000000006
 50
180.0
 51
0.0
  0
LINE
  5
10CFB
  8
0
 10
3651.5955522690769612
 20
165.9035875826616007
 30
0.0
 11
3684.5955522689778263
 21
165.9035875826616007
 31
0.0
  0
LINE
  5
10CFC
  8
0
 10
3684.4740823870411077
 20
166.0055129158243972
 30
0.0
 11
3684.5955522689778263
 21
165.9035875826616007
 31
0.0
  0
LINE
  5
10CFD
  8
0
 10
3684.5955522689778263
 20
165.9035875826616007
 30
0.0
 11
3684.5631015647782078
 21
165.8682187857615986
 31
0.0
  0
ARC
  5
10CFE
  8
0
 10
3684.3969478738640646
 20
165.9135875826615916
 30
0.0
 40
0.12
 50
49.9999999915025768
 51
90.0
  0
LINE
  5
10CFF
  8
0
 10
3683.3455522689778263
 20
165.4295875826616111
 30
0.0
 11
3679.5375522689769241
 21
165.4295875826616111
 31
0.0
  0
LINE
  5
10D00
  8
0
 10
3683.3455522689778263
 20
165.8682187857615986
 30
0.0
 11
3683.3455522689778263
 21
165.4295875826616111
 31
0.0
  0
LINE
  5
10D01
  8
0
 10
3679.5375522689769241
 20
165.4295875826616111
 30
0.0
 11
3679.5375522689769241
 21
165.5595875826616066
 31
0.0
  0
LINE
  5
10D02
  8
0
 10
3679.5375522689769241
 20
165.5595875826616066
 30
0.0
 11
3679.1525522689771606
 21
165.5595875826616066
 31
0.0
  0
LINE
  5
10D03
  8
0
 10
3679.1525522689771606
 20
165.5595875826616066
 30
0.0
 11
3679.1525522689771606
 21
165.4295875826616111
 31
0.0
  0
LINE
  5
10D04
  8
0
 10
3673.4124052064162242
 20
156.9869786328266059
 30
0.0
 11
3671.2648175722060842
 21
157.0619720309564968
 31
0.0
  0
LINE
  5
10D05
  8
0
 10
3673.9330522689770078
 20
156.7431495174616032
 30
0.0
 11
3677.6530522689781719
 21
156.7431495174616032
 31
0.0
  0
LINE
  5
10D06
  8
0
 10
3673.4885043396461697
 20
156.9032321625664963
 30
0.0
 11
3673.4371680071758419
 21
156.973819619652204
 31
0.0
  0
LINE
  5
10D07
  8
0
 10
3673.9330522689770078
 20
156.7431495174616032
 30
0.0
 11
3673.5274824286489093
 21
156.8749271467384006
 31
0.0
  0
ARC
  5
10D08
  8
0
 10
3673.5515857542031881
 20
156.9491095550116881
 30
0.0
 40
0.078
 50
216.0273734092754978
 51
252.0000000056245995
  0
ARC
  5
10D09
  8
0
 10
3673.4112884524861329
 20
156.9549981253155977
 30
0.0
 40
0.032
 50
36.0273734092768123
 51
88.0000536825274935
  0
LINE
  5
10D0A
  8
0
 10
3668.9033547064600498
 20
159.4234326841454106
 30
0.0
 11
3668.6936151556769801
 21
165.4295875826616111
 31
0.0
  0
ARC
  5
10D0B
  8
0
 10
3671.3502632073341374
 20
159.5088806118882871
 30
0.0
 40
2.448399999999999
 50
182.0000000003863931
 51
268.0000536825274935
  0
LINE
  5
10D0C
  8
0
 10
3678.1736993315389554
 20
156.9869786328266059
 30
0.0
 11
3680.3212869657490955
 21
157.0619720309564968
 31
0.0
  0
LINE
  5
10D0D
  8
0
 10
3678.09760019830901
 20
156.9032321625664963
 30
0.0
 11
3678.148936530778883
 21
156.973819619652204
 31
0.0
  0
LINE
  5
10D0E
  8
0
 10
3677.6530522689781719
 20
156.7431495174616032
 30
0.0
 11
3678.0586221093058157
 21
156.8749271467384006
 31
0.0
  0
ARC
  5
10D0F
  8
0
 10
3678.0345187837519916
 20
156.9491095550116881
 30
0.0
 40
0.078
 50
287.9999999943755142
 51
323.9726265907244738
  0
ARC
  5
10D10
  8
0
 10
3678.1748160854690468
 20
156.9549981253155977
 30
0.0
 40
0.032
 50
91.9999463174725065
 51
143.9726265907231948
  0
LINE
  5
10D11
  8
0
 10
3682.6827498314942204
 20
159.4234326841454106
 30
0.0
 11
3682.8924893822781996
 21
165.4295875826616111
 31
0.0
  0
ARC
  5
10D12
  8
0
 10
3680.2358413306210423
 20
159.5088806118882871
 30
0.0
 40
2.448399999999999
 50
271.9999463174725065
 51
357.9999999996135784
  0
LINE
  5
10D13
  8
0
 10
3678.1736993315389554
 20
156.9869786328266059
 30
0.0
 11
3673.4124052064162242
 21
156.9869786328266059
 31
0.0
  0
LINE
  5
10D14
  8
0
 10
3673.5274824286489093
 20
156.8749271467382869
 30
0.0
 11
3678.0586221093058157
 21
156.8749271467382869
 31
0.0
  0
LINE
  5
10D15
  8
0
 10
3684.0545522689772042
 20
165.6595875826616009
 30
0.0
 11
3684.0545522689772042
 21
165.4895875826616134
 31
0.0
  0
LINE
  5
10D16
  8
0
 10
3684.0255522689772079
 20
165.6595875826616009
 30
0.0
 11
3684.0255522689772079
 21
165.4895875826616134
 31
0.0
  0
LINE
  5
10D17
  8
0
 10
3684.1165522689771024
 20
165.4895875826616134
 30
0.0
 11
3684.1165522689771024
 21
165.8682187857615986
 31
0.0
  0
LINE
  5
10D18
  8
0
 10
3684.1455522689770987
 20
165.4895875826616134
 30
0.0
 11
3684.1455522689770987
 21
165.8682187857615986
 31
0.0
  0
LINE
  5
10D19
  8
0
 10
3684.0545522689772042
 20
165.6595875826616009
 30
0.0
 11
3684.0255522689772079
 21
165.6595875826616009
 31
0.0
  0
ARC
  5
10D1A
  8
0
 10
3684.0855522689771533
 20
165.4895875826616134
 30
0.0
 40
0.0600000000000005
 50
180.0
 51
0.0
  0
ARC
  5
10D1B
  8
0
 10
3684.0855522689771533
 20
165.4895875826616134
 30
0.0
 40
0.0310000000000006
 50
180.0
 51
0.0
  0
LINE
  5
10D1C
  8
0
 10
3683.7865522689780846
 20
165.6595875826616009
 30
0.0
 11
3683.7865522689780846
 21
165.4895875826616134
 31
0.0
  0
LINE
  5
10D1D
  8
0
 10
3683.815552268978081
 20
165.6595875826616009
 30
0.0
 11
3683.815552268978081
 21
165.4895875826616134
 31
0.0
  0
LINE
  5
10D1E
  8
0
 10
3683.7245522689781865
 20
165.4895875826616134
 30
0.0
 11
3683.7245522689781865
 21
165.8682187857615986
 31
0.0
  0
LINE
  5
10D1F
  8
0
 10
3683.6955522689768259
 20
165.4895875826616134
 30
0.0
 11
3683.6955522689768259
 21
165.8682187857615986
 31
0.0
  0
LINE
  5
10D20
  8
0
 10
3683.7865522689780846
 20
165.6595875826616009
 30
0.0
 11
3683.815552268978081
 21
165.6595875826616009
 31
0.0
  0
ARC
  5
10D21
  8
0
 10
3683.7555522689781355
 20
165.4895875826616134
 30
0.0
 40
0.0600000000000005
 50
180.0
 51
0.0
  0
ARC
  5
10D22
  8
0
 10
3683.7555522689781355
 20
165.4895875826616134
 30
0.0
 40
0.0310000000000006
 50
180.0
 51
0.0
  0
ENDSEC
  0
EOF
