  0
SECTION
  2
HEADER
  9
$ACADVER
  1
AC1009
  9
$INSBASE
 10
2402.1413967390089965
 20
137.5296846385639924
 30
0.0
  9
$EXTMIN
 10
2397.0898643718569474
 20
131.7015430854108899
 30
-0.0015258207003583
  9
$EXTMAX
 10
2407.1905267422289398
 20
138.7180900890826933
 30
0.0000000349246037
  9
$LIMMIN
 10
0.0
 20
0.0
  9
$LIMMAX
 10
11.6929133858000007
 20
8.2677165353999982
  9
$ORTHOMODE
 70
     0
  9
$REGENMODE
 70
     1
  9
$FILLMODE
 70
     1
  9
$QTEXTMODE
 70
     0
  9
$MIRRTEXT
 70
     0
  9
$DRAGMODE
 70
     2
  9
$LTSCALE
 40
0.6431102362
  9
$OSMODE
 70
  4095
  9
$ATTMODE
 70
     1
  9
$TEXTSIZE
 40
0.2
  9
$TRACEWID
 40
0.05
  9
$TEXTSTYLE
  7
STANDARD
  9
$CLAYER
  8
0
  9
$CELTYPE
  6
BYLAYER
  9
$CECOLOR
 62
   256
  9
$DIMSCALE
 40
1.0
  9
$DIMASZ
 40
0.1875
  9
$DIMEXO
 40
0.0625
  9
$DIMDLI
 40
0.4443307087
  9
$DIMRND
 40
0.0
  9
$DIMDLE
 40
0.0
  9
$DIMEXE
 40
0.125
  9
$DIMTP
 40
0.01
  9
$DIMTM
 40
0.01
  9
$DIMTXT
 40
2.0
  9
$DIMCEN
 40
0.1052362205
  9
$DIMTSZ
 40
0.0
  9
$DIMTOL
 70
     1
  9
$DIMLIM
 70
     0
  9
$DIMTIH
 70
     1
  9
$DIMTOH
 70
     1
  9
$DIMSE1
 70
     0
  9
$DIMSE2
 70
     0
  9
$DIMTAD
 70
     0
  9
$DIMZIN
 70
     0
  9
$DIMBLK
  1

  9
$DIMASO
 70
     1
  9
$DIMSHO
 70
     1
  9
$DIMPOST
  1
\X
  9
$DIMAPOST
  1

  9
$DIMALT
 70
     1
  9
$DIMALTD
 70
     2
  9
$DIMALTF
 40
25.3999999999999986
  9
$DIMLFAC
 40
1.0
  9
$DIMTOFL
 70
     0
  9
$DIMTVP
 40
0.0
  9
$DIMTIX
 70
     0
  9
$DIMSOXD
 70
     0
  9
$DIMSAH
 70
     0
  9
$DIMBLK1
  1

  9
$DIMBLK2
  1

  9
$DIMSTYLE
  2
STANDARD
  9
$DIMCLRD
 70
     0
  9
$DIMCLRE
 70
     0
  9
$DIMCLRT
 70
     0
  9
$DIMTFAC
 40
1.0
  9
$DIMGAP
 40
0.09
  9
$LUNITS
 70
     2
  9
$LUPREC
 70
     4
  9
$SKETCHINC
 40
0.1
  9
$FILLETRAD
 40
0.0
  9
$AUNITS
 70
     0
  9
$AUPREC
 70
     0
  9
$MENU
  1
.
  9
$ELEVATION
 40
0.0
  9
$PELEVATION
 40
0.0
  9
$THICKNESS
 40
0.0
  9
$LIMCHECK
 70
     0
  9
$BLIPMODE
 70
     0
  9
$CHAMFERA
 40
0.0
  9
$CHAMFERB
 40
0.0
  9
$SKPOLY
 70
     0
  9
$TDCREATE
 40
2458060.468368056230247
  9
$TDUPDATE
 40
2459594.5871412041597068
  9
$TDINDWG
 40
0.3253195602
  9
$TDUSRTIMER
 40
0.3253195602
  9
$USRTIMER
 70
     1
  9
$ANGBASE
 50
0.0
  9
$ANGDIR
 70
     0
  9
$PDMODE
 70
     0
  9
$PDSIZE
 40
0.3125
  9
$PLINEWID
 40
0.0
  9
$COORDS
 70
     1
  9
$SPLFRAME
 70
     0
  9
$SPLINETYPE
 70
     6
  9
$SPLINESEGS
 70
     8
  9
$ATTDIA
 70
     1
  9
$ATTREQ
 70
     1
  9
$HANDLING
 70
     1
  9
$HANDSEED
  5
8F74
  9
$SURFTAB1
 70
     6
  9
$SURFTAB2
 70
     6
  9
$SURFTYPE
 70
     6
  9
$SURFU
 70
     6
  9
$SURFV
 70
     6
  9
$UCSNAME
  2

  9
$UCSORG
 10
0.0
 20
0.0
 30
0.0
  9
$UCSXDIR
 10
1.0
 20
0.0
 30
0.0
  9
$UCSYDIR
 10
0.0
 20
1.0
 30
0.0
  9
$PUCSNAME
  2

  9
$PUCSORG
 10
0.0
 20
0.0
 30
0.0
  9
$PUCSXDIR
 10
1.0
 20
0.0
 30
0.0
  9
$PUCSYDIR
 10
0.0
 20
1.0
 30
0.0
  9
$USERI1
 70
     0
  9
$USERI2
 70
     0
  9
$USERI3
 70
     0
  9
$USERI4
 70
     0
  9
$USERI5
 70
     0
  9
$USERR1
 40
0.0
  9
$USERR2
 40
0.0
  9
$USERR3
 40
0.0
  9
$USERR4
 40
0.0
  9
$USERR5
 40
0.0
  9
$WORLDVIEW
 70
     1
  9
$SHADEDGE
 70
     3
  9
$SHADEDIF
 70
    70
  9
$TILEMODE
 70
     1
  9
$MAXACTVP
 70
    64
  9
$PLIMCHECK
 70
     0
  9
$PEXTMIN
 10
1.0000000000000000E+20
 20
1.0000000000000000E+20
 30
1.0000000000000000E+20
  9
$PEXTMAX
 10
-1.0000000000000000E+20
 20
-1.0000000000000000E+20
 30
-1.0000000000000000E+20
  9
$PLIMMIN
 10
0.0
 20
0.0
  9
$PLIMMAX
 10
12.0
 20
9.0
  9
$UNITMODE
 70
     0
  9
$VISRETAIN
 70
     1
  9
$PLINEGEN
 70
     0
  9
$PSLTSCALE
 70
     1
  0
ENDSEC
  0
SECTION
  2
TABLES
  0
TABLE
  2
VPORT
 70
     1
  0
VPORT
  2
*ACTIVE
 70
     0
 10
0.0
 20
0.0
 11
1.0
 21
1.0
 12
60.165342041418171
 22
-1.123680992945111
 13
0.0
 23
0.0
 14
1.0
 24
1.0
 15
0.0
 25
0.0
 16
0.0
 26
0.0
 36
48.1717359839548322
 17
2341.974853515625
 27
136.3334975801919029
 37
0.0
 40
7.0721603220628033
 41
1.67063492063492
 42
50.0
 43
0.0
 44
0.0
 50
0.0
 51
0.0
 71
     0
 72
   100
 73
     1
 74
     1
 75
     0
 76
     0
 77
     0
 78
     0
  0
ENDTAB
  0
TABLE
  2
LTYPE
 70
     2
  0
LTYPE
  2
CONTINUOUS
 70
     0
  3
Solid line
 72
    65
 73
     0
 40
0.0
  0
LTYPE
  2
PHANTOM2
 70
     0
  3
___ _ _ ___ _ _ ___ _ _ ___ _ _
 72
    65
 73
     6
 40
1.25
 49
0.625
 49
-0.125
 49
0.125
 49
-0.125
 49
0.125
 49
-0.125
  0
ENDTAB
  0
TABLE
  2
LAYER
 70
     2
  0
LAYER
  2
0
 70
     0
 62
   255
  6
CONTINUOUS
  0
LAYER
  2
DEFPOINTS
 70
     0
 62
     7
  6
CONTINUOUS
  0
ENDTAB
  0
TABLE
  2
STYLE
 70
     1
  0
STYLE
  2
STANDARD
 70
     0
 40
0.0
 41
0.8
 50
0.0
 71
     0
 42
0.2
  3
txt
  4

  0
ENDTAB
  0
TABLE
  2
VIEW
 70
     0
  0
ENDTAB
  0
TABLE
  2
UCS
 70
     0
  0
ENDTAB
  0
TABLE
  2
APPID
 70
     9
  0
APPID
  2
ACAD
 70
     0
  0
APPID
  2
ACAD_MLEADERVER
 70
     0
  0
APPID
  2
ACAD_EXEMPT_FROM_CAD_STANDARDS
 70
     0
  0
APPID
  2
ACAD_NAV_VCDISPLAY
 70
     0
  0
APPID
  2
ACAECLAYERSTANDARD
 70
     0
  0
APPID
  2
ACCMTRANSPARENCY
 70
     0
  0
APPID
  2
ACAD_DSTYLE_DIMJAG
 70
     0
  0
APPID
  2
ACAD_DSTYLE_DIMTALN
 70
     0
  0
APPID
  2
ACDBATTR
 70
     0
  0
ENDTAB
  0
TABLE
  2
DIMSTYLE
 70
     1
  0
DIMSTYLE
  2
STANDARD
 70
     0
  3

  4

  5

  6

  7

 40
1.0
 41
0.1875
 42
0.0625
 43
0.38
 44
0.125
 45
0.0
 46
0.0
 47
0.01
 48
0.01
140
0.15625
141
0.09
142
0.0
143
25.3999999999999986
144
1.0
145
0.0
146
1.0
147
0.09
 71
     1
 72
     0
 73
     1
 74
     1
 75
     0
 76
     0
 77
     0
 78
     4
170
     0
171
     2
172
     0
173
     0
174
     0
175
     0
176
     0
177
     0
178
     0
  0
ENDTAB
  0
ENDSEC
  0
SECTION
  2
BLOCKS
  0
BLOCK
  8
0
  2
$MODEL_SPACE
 70
     0
 10
0.0
 20
0.0
 30
0.0
  3
$MODEL_SPACE
  1

  0
ENDBLK
  5
21
  8
0
  0
BLOCK
 67
     1
  8
0
  2
$PAPER_SPACE
 70
     0
 10
0.0
 20
0.0
 30
0.0
  3
$PAPER_SPACE
  1

  0
ENDBLK
  5
1D
 67
     1
  8
0
  0
ENDSEC
  0
SECTION
  2
ENTITIES
  0
ATTDEF
  5
3930
  8
DEFPOINTS
 10
2402.1354918409579113
 20
137.5280683632342118
 30
0.0
 40
0.001
  1
27376-4
  3

  2
MODELNUMBER
 70
     0
1001
ACDBATTR
1070
     0
1070
     1
  0
ATTDEF
  5
3931
  8
DEFPOINTS
 10
2402.1354918409579113
 20
137.5264016965676035
 30
0.0
 40
0.001
  1
MEDLEY
  3

  2
TRADENAME
 70
     0
1001
ACDBATTR
1070
     0
1070
     1
  0
ATTDEF
  5
3932
  8
DEFPOINTS
 10
2402.1354918409579113
 20
137.5247350299009099
 30
0.0
 40
0.001
  1
BATHROOM SINK FAUCET
  3

  2
PRODUCT
 70
     0
1001
ACDBATTR
1070
     0
1070
     1
  0
ARC
  5
8DAB
  8
0
 10
2358.9788356571480108
 20
137.8683168660475076
 30
0.0
 40
42.7189249205077104
 50
352.8429258241413891
 51
357.9715834566446233
  0
ARC
  5
8DAC
  8
0
 10
2369.2399544017212065
 20
136.4381581256498919
 30
0.0
 40
32.3598795355627686
 50
352.1936005849278786
 51
353.0918411372696255
  0
ARC
  5
8DAD
  8
0
 10
2402.1509015508208904
 20
133.1074118535400999
 30
0.0
 40
1.4009395685520409
 50
260.9681624388289833
 51
269.6112681858826932
  0
ARC
  5
8DAE
  8
0
 10
2402.1222643435239661
 20
132.9713870050796061
 30
0.0
 40
1.262124711505191
 50
236.6656929193304961
 51
261.2826929666005071
  0
ARC
  5
8DAF
  8
0
 10
2401.9324064472621103
 20
132.6941599190234911
 30
0.0
 40
0.926197421974756
 50
229.0711364496264082
 51
237.0541524637519046
  0
ARC
  5
8DB0
  8
0
 10
2401.3767288569038101
 20
132.0542992372913886
 30
0.0
 40
0.0787338871883263
 50
197.0783894122365894
 51
229.5376124418521044
  0
ARC
  5
8DB1
  8
0
 10
2401.3347126881858458
 20
132.0425779546388867
 30
0.0
 40
0.0351464931452107
 50
188.5507983733266997
 51
198.9287927922266874
  0
ARC
  5
8DB2
  8
0
 10
2400.9726509722731862
 20
132.021701294233111
 30
0.0
 40
0.3276798729495245
 50
2.7376402306599239
 51
3.257572051883904
  0
ARC
  5
8DB3
  8
0
 10
2401.3215803643229265
 20
132.0403452343929871
 30
0.0
 40
0.0217790070489859
 50
173.4284321965772904
 51
180.0621371425596919
  0
ARC
  5
8DB4
  8
0
 10
2387.6512013782821668
 20
136.6087624298615992
 30
0.0
 40
14.0220647208554308
 50
358.9682473043716868
 51
0.2319978371157801
  0
ARC
  5
8DB5
  8
0
 10
2394.8889697318450089
 20
136.6380692268834878
 30
0.0
 40
6.7842370337529854
 50
0.2319978371157801
 51
1.8308610846408031
  0
ARC
  5
8DB6
  8
0
 10
2392.3658036683509636
 20
136.5574151268087917
 30
0.0
 40
9.3086918398107201
 50
1.8308610846408031
 51
5.9205920931729228
  0
ARC
  5
8DB7
  8
0
 10
2399.6057962092017988
 20
137.3082255126055884
 30
0.0
 40
2.0298726892205958
 50
5.9205920931729228
 51
22.1911719454965493
  0
ARC
  5
8DB8
  8
0
 10
2400.4960983887531256
 20
137.6713910903353053
 30
0.0
 40
1.0683493105335691
 50
22.1911719454965493
 51
35.6069995475337535
  0
LINE
  5
8DB9
  8
0
 10
2401.8054759686460784
 20
138.4076414856307906
 30
0.0
 11
2402.1413967390089965
 21
138.4076414856307906
 31
0.0
  0
ARC
  5
8DBA
  8
0
 10
2400.4691824251840444
 20
137.6963197571691921
 30
0.0
 40
1.1054246935522449
 50
24.9441421827978793
 51
35.2119407762922805
  0
ARC
  5
8DBB
  8
0
 10
2399.9908731302721208
 20
137.4816159902248103
 30
0.0
 40
1.6296802017207219
 50
3.3725560448108109
 51
24.6965094338141498
  0
ARC
  5
8DBC
  8
0
 10
2401.389828231860065
 20
138.290121258508492
 30
0.0
 40
0.0253441953110066
 50
100.6371930802160932
 51
172.5489270390025922
  0
ARC
  5
8DBD
  8
0
 10
2401.4406504896028309
 20
138.3193444508139009
 30
0.0
 40
0.0775344551686717
 50
92.1247854488954374
 51
153.8153690049198872
  0
ARC
  5
8DBE
  8
0
 10
2401.3890076979519108
 20
138.3447401698130079
 30
0.0
 40
0.0199851678943487
 50
153.8192785109947067
 51
213.4969241636952972
  0
ARC
  5
8DBF
  8
0
 10
2403.5697518326669524
 20
72.1731679851877459
 30
0.0
 40
66.2579666848090056
 50
91.5258166679560077
 51
91.8439188824235657
  0
ARC
  5
8DC0
  8
0
 10
2406.1597625450490341
 20
138.2438032356114093
 30
0.0
 40
4.7952421823916973
 50
179.4085879742069949
 51
186.1781465557992021
  0
ARC
  5
8DC1
  8
0
 10
2406.3374083920439261
 20
138.2630331968325947
 30
0.0
 40
4.9739258088472669
 50
186.1781465557992021
 51
197.8364621170757971
  0
ARC
  5
8DC2
  8
0
 10
2401.7142821846127845
 20
136.7754637315404977
 30
0.0
 40
0.1173674756335413
 50
197.8364621170757971
 51
249.4853656948864966
  0
ARC
  5
8DC3
  8
0
 10
2397.3855401030700705
 20
137.9744391185724908
 30
0.0
 40
0.0448160522705394
 50
84.5923262480113749
 51
131.6837411769394066
  0
ARC
  5
8DC4
  8
0
 10
2397.7622296371660013
 20
137.6411217354466885
 30
0.0
 40
0.547512055801921
 50
137.9393995272567963
 51
141.8292691024460055
  0
ARC
  5
8DC5
  8
0
 10
2397.8592957507798928
 20
137.5626673439055878
 30
0.0
 40
0.6723102640752556
 50
141.6851431485820001
 51
150.0617883568976083
  0
ARC
  5
8DC6
  8
0
 10
2397.9048056045890007
 20
137.5386594240715965
 30
0.0
 40
0.723731516122356
 50
150.21284021903179
 51
170.9376909815985925
  0
ARC
  5
8DC7
  8
0
 10
2397.9746859323167882
 20
137.5275135529657859
 30
0.0
 40
0.7944951412840414
 50
170.9376909815985925
 51
179.8434298838434984
  0
ARC
  5
8DC8
  8
0
 10
2924.2588014869511426
 20
9421.6068012253381312
 30
0.0
 40
9298.5263569942071626
 50
266.7517919107760918
 51
266.7657673807246965
  0
ARC
  5
8DC9
  8
0
 10
2399.9113821098071639
 20
142.441835008048912
 30
0.0
 40
4.5582762182783743
 50
266.7657673807246965
 51
272.0097733915367826
  0
ARC
  5
8DCA
  8
0
 10
2400.0800723793231555
 20
138.2538411222411128
 30
0.0
 40
0.3675844626177442
 50
268.6232675380574051
 51
325.2940229365221967
  0
ARC
  5
8DCB
  8
0
 10
2397.2671808548261652
 20
140.4997627157628131
 30
0.0
 40
3.9663293220516529
 50
321.755868689017916
 51
325.229748814158711
  0
ARC
  5
8DCC
  8
0
 10
2400.5373553990880282
 20
138.1613263942109029
 30
0.0
 40
0.0774333012768338
 50
12.9411259513882495
 51
98.9537393397073544
  0
ARC
  5
8DCD
  8
0
 10
2401.1017066847471142
 20
134.3944460420337919
 30
0.0
 40
3.8863522351297539
 50
98.5292676520075332
 51
100.0048061449452064
  0
ARC
  5
8DCE
  8
0
 10
2400.8439097557388777
 20
135.8557682671828957
 30
0.0
 40
2.4024648060029739
 50
100.0048061449452064
 51
113.001013643481997
  0
ARC
  5
8DCF
  8
0
 10
2400.3173656574867891
 20
137.2085587127475037
 30
0.0
 40
0.9524912146052441
 50
115.6436928781526063
 51
134.2483610824785103
  0
ARC
  5
8DD0
  8
0
 10
2397.7962948964968746
 20
137.5263272939980936
 30
0.0
 40
2.8910849967860939
 50
0.0665361680641066
 51
13.0404308483039095
  0
ARC
  5
8DD1
  8
0
 10
2402.1781856864681686
 20
110.9503429590691042
 30
0.0
 40
27.7580854526992802
 50
90.0759365065982536
 51
90.3051160069245213
  0
ARC
  5
8DD2
  8
0
 10
2402.1737220090258234
 20
111.7885404147966
 30
0.0
 40
26.9198761117799492
 50
90.3051160068984871
 51
90.4491257994938138
  0
ARC
  5
8DD3
  8
0
 10
2402.1251180576218758
 20
117.9889062098887962
 30
0.0
 40
20.7193198192332204
 50
90.4491257994938138
 51
90.6797894592478144
  0
ARC
  5
8DD4
  8
0
 10
2402.0900098760839683
 20
120.9478462360929001
 30
0.0
 40
17.7601715189475513
 50
90.6797894592478144
 51
91.9339117493073559
  0
ARC
  5
8DD5
  8
0
 10
2401.9684876714718484
 20
124.5468031685204977
 30
0.0
 40
14.1591635145572905
 50
91.9339117493073559
 51
92.7068801709012433
  0
ARC
  5
8DD6
  8
0
 10
2401.8790813246450853
 20
126.437834258758997
 30
0.0
 40
12.2660200759606504
 50
92.7068801709012433
 51
93.6225694246792557
  0
ARC
  5
8DD7
  8
0
 10
2401.5946607293831221
 20
130.6446064387504009
 30
0.0
 40
8.0497028884323285
 50
93.4940719476003039
 51
97.0573333346441984
  0
ARC
  5
8DD8
  8
0
 10
2401.0711880037169976
 20
134.6940372242086141
 30
0.0
 40
3.9666975440478578
 50
96.7397956144735502
 51
105.2225510663785002
  0
ARC
  5
8DD9
  8
0
 10
2400.5686947285871611
 20
136.5610612179717975
 30
0.0
 40
2.033249320797208
 50
105.3735979388729049
 51
114.743350665373498
  0
ARC
  5
8DDA
  8
0
 10
2400.3164280977980525
 20
137.1084369130500988
 30
0.0
 40
1.430539934299917
 50
114.743350665373498
 51
125.1981362610062973
  0
ARC
  5
8DDB
  8
0
 10
2399.9651501062958232
 20
137.6064396001285957
 30
0.0
 40
0.8211115926128297
 50
125.1981362610062973
 51
128.618476096614387
  0
ARC
  5
8DDC
  8
0
 10
2400.0848246664409089
 20
137.4282117930380878
 30
0.0
 40
1.0352089843921921
 50
127.6369272867138989
 51
141.7195470762337095
  0
ARC
  5
8DDD
  8
0
 10
2400.0039005026710583
 20
137.4938136046812929
 30
0.0
 40
0.9310444425190501
 50
141.8034367422893069
 51
152.9026483448708973
  0
ARC
  5
8DDE
  8
0
 10
2402.1524070930781818
 20
137.9992349851927997
 30
0.0
 40
0.6049679018370956
 50
91.0428349156314027
 51
104.0818150252744942
  0
ARC
  5
8DDF
  8
0
 10
2402.0247693948190317
 20
138.5200631407377045
 30
0.0
 40
0.0687977943109671
 50
106.5136399087328982
 51
130.8439976285957016
  0
ARC
  5
8DE0
  8
0
 10
2401.9883455102008156
 20
138.5612720958494037
 30
0.0
 40
0.0138154184996389
 50
128.3395599023284888
 51
191.3751048250462929
  0
ARC
  5
8DE1
  8
0
 10
2401.990643301009186
 20
138.563552866427699
 30
0.0
 40
0.016613841759305
 50
197.5351737929777869
 51
228.6421318334471096
  0
ARC
  5
8DE2
  8
0
 10
2402.0124233182659736
 20
138.5863294705922044
 30
0.0
 40
0.0481187763384383
 50
227.0962194579572042
 51
245.4152346118183061
  0
ARC
  5
8DE3
  8
0
 10
2402.1168471317678268
 20
138.8818064298208981
 30
0.0
 40
0.3613385249830511
 50
249.8551447102827012
 51
269.3767323790365822
  0
ARC
  5
8DE4
  8
0
 10
2402.1410173329709323
 20
139.1592137280073018
 30
0.0
 40
0.6393422950284151
 50
267.4808869395019997
 51
270.0340011384759009
  0
ARC
  5
8DE5
  8
0
 10
2402.1451184807510799
 20
138.0070402292053018
 30
0.0
 40
0.5829513268447984
 50
90.365782458496227
 51
101.3032660816410981
  0
ARC
  5
8DE6
  8
0
 10
2402.0608240629921966
 20
138.4447165913049105
 30
0.0
 40
0.1372780793461322
 50
102.6081035878173964
 51
120.4147485462243026
  0
ARC
  5
8DE7
  8
0
 10
2402.0072336519688179
 20
138.5360053881260001
 30
0.0
 40
0.0314216833248871
 50
120.4147485462235068
 51
151.3254725198229949
  0
ARC
  5
8DE8
  8
0
 10
2401.0173805977260599
 20
137.6576441913788926
 30
0.0
 40
0.802456299748745
 50
93.9847800009175387
 51
113.071058239973695
  0
ARC
  5
8DE9
  8
0
 10
2400.8910655051399772
 20
138.0057337309291086
 30
0.0
 40
0.4331786867775602
 50
115.7430964445490957
 51
147.6041293255221944
  0
ARC
  5
8DEA
  8
0
 10
2401.1208619743160853
 20
137.1225247035121981
 30
0.0
 40
1.345095635801419
 50
82.3552234011189057
 51
96.7991673916690019
  0
ARC
  5
8DEB
  8
0
 10
2401.2579818498170425
 20
138.1440997802075117
 30
0.0
 40
0.3143592497246772
 50
58.2955544187909922
 51
82.3552234011189057
  0
ARC
  5
8DEC
  8
0
 10
2401.3999637293709384
 20
138.3739481423509119
 30
0.0
 40
0.044194256245375
 50
31.1752012522029496
 51
58.2955544187901182
  0
ARC
  5
8DED
  8
0
 10
2445.3039418776497769
 20
137.868315225532001
 30
0.0
 40
42.7189088971216577
 50
182.0284061277336889
 51
187.1570746568656887
  0
ARC
  5
8DEE
  8
0
 10
2435.042839076295877
 20
136.4381581256498919
 30
0.0
 40
32.3598795355627686
 50
186.9081588627304029
 51
187.806399415072093
  0
ARC
  5
8DEF
  8
0
 10
2402.1318919271961931
 20
133.1074118535400999
 30
0.0
 40
1.4009395685520141
 50
270.3887318141171932
 51
279.0318375611710167
  0
ARC
  5
8DF0
  8
0
 10
2402.1605291344931175
 20
132.9713870050796061
 30
0.0
 40
1.262124711505191
 50
278.7173070333994929
 51
303.3343070806694755
  0
ARC
  5
8DF1
  8
0
 10
2402.3503870307549732
 20
132.6941599190234911
 30
0.0
 40
0.926197421974756
 50
302.9458475362480954
 51
310.9288635503735918
  0
ARC
  5
8DF2
  8
0
 10
2402.906064621114183
 20
132.0542992372913886
 30
0.0
 40
0.0787338871883263
 50
310.4623875581478956
 51
342.9216105877633822
  0
ARC
  5
8DF3
  8
0
 10
2402.948080789830783
 20
132.0425779546388867
 30
0.0
 40
0.0351464931452107
 50
341.0712072077732273
 51
351.4492016266733003
  0
ARC
  5
8DF4
  8
0
 10
2403.3101425057438973
 20
132.021701294233111
 30
0.0
 40
0.3276798729495245
 50
176.7424279481161022
 51
177.2623597693400086
  0
ARC
  5
8DF5
  8
0
 10
2402.9612131136941571
 20
132.0403452343929871
 30
0.0
 40
0.0217790070489859
 50
359.9378628574402228
 51
6.5715678034227034
  0
ARC
  5
8DF6
  8
0
 10
2412.6462213408781281
 20
136.4949215304118866
 30
0.0
 40
10.0404882208454502
 50
174.1539345161826873
 51
177.9456332842107997
  0
ARC
  5
8DF7
  8
0
 10
2404.67699726881483
 20
137.3082255126055884
 30
0.0
 40
2.0298726892205958
 50
157.8088280545034081
 51
174.0794079068271003
  0
ARC
  5
8DF8
  8
0
 10
2403.7866950892639579
 20
137.6713910903353053
 30
0.0
 40
1.0683493105335691
 50
144.3930004524661967
 51
157.8088280545034081
  0
LINE
  5
8DF9
  8
0
 10
2402.4773175093710051
 20
138.4076414856307906
 30
0.0
 11
2402.1413967390089965
 21
138.4076414856307906
 31
0.0
  0
ARC
  5
8DFA
  8
0
 10
2403.8136110528339486
 20
137.6963197571691921
 30
0.0
 40
1.1054246935522449
 50
144.7880592237077053
 51
155.05585781720211
  0
ARC
  5
8DFB
  8
0
 10
2404.2919203477449628
 20
137.4816159902248103
 30
0.0
 40
1.6296802017207219
 50
155.3034905661857863
 51
176.627443955189193
  0
ARC
  5
8DFC
  8
0
 10
2402.8929652461570186
 20
138.290121258508492
 30
0.0
 40
0.0253441953110066
 50
7.4510729609974096
 51
79.3628069197838784
  0
ARC
  5
8DFD
  8
0
 10
2402.8421429884151621
 20
138.3193444508139009
 30
0.0
 40
0.0775344551686717
 50
26.1846309950800595
 51
87.8752145511045484
  0
ARC
  5
8DFE
  8
0
 10
2402.8937857800660822
 20
138.3447401698130079
 30
0.0
 40
0.0199851678943487
 50
326.5030758363046175
 51
26.1807214890052791
  0
ARC
  5
8DFF
  8
0
 10
2400.7130416453501311
 20
72.1731679851877459
 30
0.0
 40
66.2579666848090056
 50
88.1560811175764343
 51
88.4741833320440065
  0
ARC
  5
8E00
  8
0
 10
2398.123030932968959
 20
138.2438032356114093
 30
0.0
 40
4.7952421823916973
 50
353.8218534442008263
 51
0.5914120257929668
  0
ARC
  5
8E01
  8
0
 10
2397.9453850859731574
 20
138.2630331968325947
 30
0.0
 40
4.9739258088472669
 50
342.1635378829241745
 51
353.8218534442008263
  0
ARC
  5
8E02
  8
0
 10
2406.8972533749470131
 20
137.9744391185708139
 30
0.0
 40
0.0448160522724922
 50
48.3162588235831194
 51
95.4076737548936649
  0
ARC
  5
8E03
  8
0
 10
2406.5205638408510822
 20
137.6411217354466885
 30
0.0
 40
0.547512055801921
 50
38.1707308975540016
 51
42.0606004727432534
  0
ARC
  5
8E04
  8
0
 10
2406.4234977272371907
 20
137.5626673439055878
 30
0.0
 40
0.6723102640752556
 50
29.9382116431023597
 51
38.314856851418007
  0
ARC
  5
8E05
  8
0
 10
2406.3779878734280828
 20
137.5386594240715965
 30
0.0
 40
0.723731516122356
 50
9.0623090184013915
 51
29.7871597809681496
  0
ARC
  5
8E06
  8
0
 10
2406.3081075456998406
 20
137.5275135529657859
 30
0.0
 40
0.7944951412840414
 50
0.1565701161564962
 51
9.0623090184013915
  0
ARC
  5
8E07
  8
0
 10
1880.023991991065941
 20
9421.6068012253381312
 30
0.0
 40
9298.5263569942071626
 50
273.2342326192753035
 51
273.2482080892240219
  0
ARC
  5
8E08
  8
0
 10
2404.3714113682099196
 20
142.441835008048912
 30
0.0
 40
4.5582762182783743
 50
267.9902266084631037
 51
273.2342326192753035
  0
ARC
  5
8E09
  8
0
 10
2404.2027210986939281
 20
138.2538411222411128
 30
0.0
 40
0.3675844626177442
 50
214.7059770634776896
 51
271.3767324619424812
  0
ARC
  5
8E0A
  8
0
 10
2407.0156126231909184
 20
140.4997627157628131
 30
0.0
 40
3.9663293220516529
 50
214.770251185841289
 51
218.2441313109821124
  0
ARC
  5
8E0B
  8
0
 10
2403.7454380789290553
 20
138.1613263942109029
 30
0.0
 40
0.0774333012768338
 50
81.0462606602926456
 51
167.058874048611699
  0
ARC
  5
8E0C
  8
0
 10
2403.1810867932690599
 20
134.3944460420337919
 30
0.0
 40
3.8863522351297539
 50
79.9951938550548221
 51
81.4707323479924668
  0
ARC
  5
8E0D
  8
0
 10
2403.4388837222768416
 20
135.8557682671828957
 30
0.0
 40
2.4024648060029739
 50
66.9989863565185999
 51
79.9951938550548221
  0
ARC
  5
8E0E
  8
0
 10
2403.9654278205298397
 20
137.2085587127475037
 30
0.0
 40
0.9524912146052441
 50
45.75163891752144
 51
64.356307121847351
  0
ARC
  5
8E0F
  8
0
 10
2409.082853908575089
 20
137.2280546445821869
 30
0.0
 40
5.4957220241343663
 50
170.0392645167578962
 51
176.853768466876005
  0
ARC
  5
8E10
  8
0
 10
2402.1046077914811576
 20
110.9503429384993041
 30
0.0
 40
27.7580854732691904
 50
89.6948839931536384
 51
89.9240634933235867
  0
ARC
  5
8E11
  8
0
 10
2402.1090714689908054
 20
111.7885404147966
 30
0.0
 40
26.9198761117799492
 50
89.550874200506172
 51
89.6948839931015272
  0
ARC
  5
8E12
  8
0
 10
2402.1576754203952078
 20
117.9889062098887962
 30
0.0
 40
20.7193198192332204
 50
89.320210540752214
 51
89.550874200506172
  0
ARC
  5
8E13
  8
0
 10
2402.1927836019331153
 20
120.9478462360929001
 30
0.0
 40
17.7601715189475513
 50
88.0660882506926441
 51
89.320210540752214
  0
ARC
  5
8E14
  8
0
 10
2402.3143058065447804
 20
124.5468031685204977
 30
0.0
 40
14.1591635145572905
 50
87.2931198290987567
 51
88.0660882506926441
  0
ARC
  5
8E15
  8
0
 10
2402.4037121533719983
 20
126.437834258758997
 30
0.0
 40
12.2660200759606504
 50
86.3774305753207443
 51
87.2931198290987567
  0
ARC
  5
8E16
  8
0
 10
2402.6881327486339615
 20
130.6446064387504009
 30
0.0
 40
8.0497028884323285
 50
82.9426666653558016
 51
86.5059280523997245
  0
ARC
  5
8E17
  8
0
 10
2403.2116054742991764
 20
134.6940372242086141
 30
0.0
 40
3.9666975440478578
 50
74.7774489336214714
 51
83.2602043855264782
  0
ARC
  5
8E18
  8
0
 10
2403.7140987494299225
 20
136.5610612179717975
 30
0.0
 40
2.033249320797208
 50
65.2566493346264878
 51
74.6264020611270382
  0
ARC
  5
8E19
  8
0
 10
2403.9663653802190311
 20
137.1084369130500988
 30
0.0
 40
1.430539934299917
 50
54.8018637389937098
 51
65.2566493346264878
  0
ARC
  5
8E1A
  8
0
 10
2404.3176433717208056
 20
137.6064396001285957
 30
0.0
 40
0.8211115926128297
 50
51.381523903385613
 51
54.8018637389937098
  0
ARC
  5
8E1B
  8
0
 10
2404.1979688115770841
 20
137.4282117930380878
 30
0.0
 40
1.0352089843921921
 50
38.2804529237662834
 51
52.3630727132861225
  0
ARC
  5
8E1C
  8
0
 10
2404.2788929753451157
 20
137.4938136046812929
 30
0.0
 40
0.9310444425190501
 50
27.0973516551290814
 51
38.1965632577106931
  0
ARC
  5
8E1D
  8
0
 10
2402.1357028478250868
 20
138.0392808685145951
 30
0.0
 40
0.5648505154953494
 50
75.4529213813142832
 51
89.4224286777861295
  0
ARC
  5
8E1E
  8
0
 10
2402.2580240831980518
 20
138.5200631407377045
 30
0.0
 40
0.0687977943109671
 50
49.1560023714042629
 51
73.4863600912670307
  0
ARC
  5
8E1F
  8
0
 10
2402.2944479678158132
 20
138.5612720958494037
 30
0.0
 40
0.0138154184996389
 50
348.6248951749536218
 51
51.6604400976714331
  0
ARC
  5
8E20
  8
0
 10
2402.2921501770078976
 20
138.563552866427699
 30
0.0
 40
0.016613841759305
 50
311.3578681665529189
 51
342.4648262070220994
  0
ARC
  5
8E21
  8
0
 10
2402.2703701597520194
 20
138.5863294705922044
 30
0.0
 40
0.0481187763384383
 50
294.5847653881817223
 51
312.9037805420427958
  0
ARC
  5
8E22
  8
0
 10
2402.165946346248802
 20
138.8818064298208981
 30
0.0
 40
0.3613385249830511
 50
270.6232676209634178
 51
290.1448552897173272
  0
ARC
  5
8E23
  8
0
 10
2402.141776145044787
 20
139.1592137280073018
 30
0.0
 40
0.639342295028472
 50
269.9659988615242128
 51
272.5191130604980003
  0
ARC
  5
8E24
  8
0
 10
2402.1350255442339403
 20
137.9811122542893997
 30
0.0
 40
0.6089007538924335
 50
78.9304597645591173
 51
89.4004916952888493
  0
ARC
  5
8E25
  8
0
 10
2402.221969415024887
 20
138.4447165913049105
 30
0.0
 40
0.1372780793461322
 50
59.5852514537756619
 51
77.3918964121825752
  0
ARC
  5
8E26
  8
0
 10
2402.2755598260478109
 20
138.5360053881260001
 30
0.0
 40
0.0314216833248871
 50
28.674527480176959
 51
59.5852514537764932
  0
ARC
  5
8E27
  8
0
 10
2403.2654128802910236
 20
137.6576441913788926
 30
0.0
 40
0.802456299748745
 50
66.928941760026234
 51
86.0152199990824613
  0
ARC
  5
8E28
  8
0
 10
2403.3917279728771064
 20
138.0057337309291086
 30
0.0
 40
0.4331786867775602
 50
32.3958706744778198
 51
64.2569035554508332
  0
ARC
  5
8E29
  8
0
 10
2403.1619315037009983
 20
137.1225247035121981
 30
0.0
 40
1.345095635801419
 50
83.2008326083309839
 51
97.6447765988811085
  0
ARC
  5
8E2A
  8
0
 10
2403.024811628200041
 20
138.1440997802075117
 30
0.0
 40
0.3143592497246772
 50
97.6447765988811085
 51
121.7044455812090007
  0
ARC
  5
8E2B
  8
0
 10
2402.8828297486461452
 20
138.3739481423509119
 30
0.0
 40
0.044194256245375
 50
121.7044455812097965
 51
148.82479874779699
  0
ARC
  5
8E2C
  8
0
 10
2414.2503579314670787
 20
136.5965563024012113
 30
0.0
 40
11.64103731150451
 50
178.7286015749635908
 51
181.1826915221543004
  0
ARC
  5
8E2D
  8
0
 10
2402.5736296078857777
 20
136.7722765406606129
 30
0.0
 40
0.1115285862077397
 50
320.1267679207530819
 51
342.9173306239185877
  0
ARC
  5
8E2E
  8
0
 10
2402.567302781647868
 20
136.7775615681970862
 30
0.0
 40
0.1197723866854536
 50
290.6413017697825012
 51
320.1267679207530819
  0
ARC
  5
8E2F
  8
0
 10
2397.385540103072799
 20
137.0849301585598994
 30
0.0
 40
0.044816052275438
 50
228.3162588243577886
 51
275.4076737511247757
  0
ARC
  5
8E30
  8
0
 10
2397.7622296371660013
 20
137.41824754168141
 30
0.0
 40
0.547512055801921
 50
218.1707308975539945
 51
222.0606004727432037
  0
ARC
  5
8E31
  8
0
 10
2397.8592957507798928
 20
137.4967019332225107
 30
0.0
 40
0.6723102640752556
 50
209.9382116431023917
 51
218.3148568514179999
  0
ARC
  5
8E32
  8
0
 10
2397.9048056045890007
 20
137.520709853056502
 30
0.0
 40
0.723731516122356
 50
189.0623090184012938
 51
209.7871597809680964
  0
ARC
  5
8E33
  8
0
 10
2397.9746859323167882
 20
137.5318557241621988
 30
0.0
 40
0.7944951412840414
 50
180.1565701161565016
 51
189.0623090184012938
  0
ARC
  5
8E34
  8
0
 10
2924.2588014869511426
 20
-9146.5474319482127612
 30
0.0
 40
9298.5263569942071626
 50
93.2342326192753461
 51
93.2482080892239225
  0
ARC
  5
8E35
  8
0
 10
2399.9113821098071639
 20
132.6175342690791865
 30
0.0
 40
4.5582762182783743
 50
87.9902266084631748
 51
93.2342326192753461
  0
ARC
  5
8E36
  8
0
 10
2400.0800723793231555
 20
136.8055281548869004
 30
0.0
 40
0.3675844626177442
 50
34.7059770634777109
 51
91.3767324619425239
  0
ARC
  5
8E37
  8
0
 10
2397.2671808548261652
 20
134.5596065613653138
 30
0.0
 40
3.9663293220516529
 50
34.7702511858413033
 51
38.2441313109821124
  0
ARC
  5
8E38
  8
0
 10
2400.5440663808080899
 20
136.9040915035085959
 30
0.0
 40
0.0846440100681644
 50
257.1932585818901771
 51
344.8238226483853168
  0
ARC
  5
8E39
  8
0
 10
2401.1017066847471142
 20
140.6649232350941929
 30
0.0
 40
3.8863522351297539
 50
259.9951938550548221
 51
261.4707323479925094
  0
ARC
  5
8E3A
  8
0
 10
2400.8439097557388777
 20
139.2036010099452028
 30
0.0
 40
2.4024648060029739
 50
246.9989863565178894
 51
259.9951938550548221
  0
ARC
  5
8E3B
  8
0
 10
2400.3173656574867891
 20
137.8508105643805948
 30
0.0
 40
0.9524912146052441
 50
225.7516389175214897
 51
244.3563071218472942
  0
ARC
  5
8E3C
  8
0
 10
2397.3130119328880028
 20
137.5238751879658139
 30
0.0
 40
3.3743710118891839
 50
349.0331726417330742
 51
0.0986427289215115
  0
ARC
  5
8E3D
  8
0
 10
2401.9684876714718484
 20
150.5125661086075866
 30
0.0
 40
14.1591635145572905
 50
267.2931198290988277
 51
268.7961012936677889
  0
ARC
  5
8E3E
  8
0
 10
2401.8790813246450853
 20
148.6215350183690873
 30
0.0
 40
12.2660200759606504
 50
266.3774305753207727
 51
267.2931198290988277
  0
ARC
  5
8E3F
  8
0
 10
2401.5946607293831221
 20
144.4147628383776976
 30
0.0
 40
8.0497028884323285
 50
262.9426666653557731
 51
266.5059280523997245
  0
ARC
  5
8E40
  8
0
 10
2401.0711880037169976
 20
140.3653320529195128
 30
0.0
 40
3.9666975440478578
 50
254.777448933621514
 51
263.2602043855263787
  0
ARC
  5
8E41
  8
0
 10
2400.5686947285871611
 20
138.4983080591563009
 30
0.0
 40
2.033249320797208
 50
245.256649334626502
 51
254.6264020611270098
  0
ARC
  5
8E42
  8
0
 10
2400.3164280977980525
 20
137.9509323640779996
 30
0.0
 40
1.430539934299917
 50
234.8018637389936885
 51
245.256649334626502
  0
ARC
  5
8E43
  8
0
 10
2399.9651501062958232
 20
137.4529296769993891
 30
0.0
 40
0.8211115926128297
 50
231.381523903385613
 51
234.8018637389936885
  0
ARC
  5
8E44
  8
0
 10
2400.0848246664409089
 20
137.6311574840900107
 30
0.0
 40
1.0352089843921921
 50
218.2804529237662052
 51
232.3630727132861011
  0
ARC
  5
8E45
  8
0
 10
2400.0039005026710583
 20
137.5655556724468056
 30
0.0
 40
0.9310444425190501
 50
207.0973516551291027
 51
218.1965632577106931
  0
ARC
  5
8E46
  8
0
 10
2401.056958760013913
 20
137.2410409261692905
 30
0.0
 40
0.7183734255596304
 50
238.1213477686642079
 51
261.2910653398361092
  0
ARC
  5
8E47
  8
0
 10
2401.3394055711569308
 20
137.3160428978283107
 30
0.0
 40
0.9525133106875378
 50
211.2747213381308882
 51
225.9862624836549969
  0
ARC
  5
8E48
  8
0
 10
2401.2555641324679527
 20
138.2384047396834887
 30
0.0
 40
1.7349012532164469
 50
259.7948551806633759
 51
271.5458956682846861
  0
ARC
  5
8E49
  8
0
 10
2406.8972533749429203
 20
137.0849301585614057
 30
0.0
 40
0.044816052277188
 50
264.592326246257926
 51
311.683741175164073
  0
ARC
  5
8E4A
  8
0
 10
2406.5205638408510822
 20
137.41824754168141
 30
0.0
 40
0.547512055801921
 50
317.9393995272567963
 51
321.8292691024460055
  0
ARC
  5
8E4B
  8
0
 10
2406.4234977272371907
 20
137.4967019332225107
 30
0.0
 40
0.6723102640752556
 50
321.6851431485819717
 51
330.0617883568976936
  0
ARC
  5
8E4C
  8
0
 10
2406.3779878734280828
 20
137.520709853056502
 30
0.0
 40
0.723731516122356
 50
330.2128402190318184
 51
350.937690981598621
  0
ARC
  5
8E4D
  8
0
 10
2406.3081075456998406
 20
137.5318557241621988
 30
0.0
 40
0.7944951412840414
 50
350.937690981598621
 51
359.8434298838434984
  0
ARC
  5
8E4E
  8
0
 10
1880.023991991065941
 20
-9146.5474319482127612
 30
0.0
 40
9298.5263569942071626
 50
86.7517919107760633
 51
86.7657673807246681
  0
ARC
  5
8E4F
  8
0
 10
2404.3714113682099196
 20
132.6175342690791865
 30
0.0
 40
4.5582762182783743
 50
86.7657673807246681
 51
92.0097733915368536
  0
ARC
  5
8E50
  8
0
 10
2404.2027210986939281
 20
136.8055281548869004
 30
0.0
 40
0.3675844626177442
 50
88.6232675380574761
 51
145.2940229365223104
  0
ARC
  5
8E51
  8
0
 10
2407.0156126231909184
 20
134.5596065613653138
 30
0.0
 40
3.9663293220516529
 50
141.7558686890178876
 51
145.229748814158711
  0
ARC
  5
8E52
  8
0
 10
2403.7454380789290553
 20
136.8980428829171103
 30
0.0
 40
0.0774333012768338
 50
192.9411259513881873
 51
278.9537393397072833
  0
ARC
  5
8E53
  8
0
 10
2403.1810867932690599
 20
140.6649232350941929
 30
0.0
 40
3.8863522351297539
 50
278.5292676520074906
 51
280.0048061449451779
  0
ARC
  5
8E54
  8
0
 10
2403.4388837222768416
 20
139.2036010099452028
 30
0.0
 40
2.4024648060029739
 50
280.0048061449451779
 51
293.0010136434813717
  0
ARC
  5
8E55
  8
0
 10
2403.9654278205298397
 20
137.8508105643805948
 30
0.0
 40
0.9524912146052441
 50
295.6436928781525921
 51
314.2483610824784819
  0
ARC
  5
8E56
  8
0
 10
2409.082853908575089
 20
137.8313146325457978
 30
0.0
 40
5.4957220241343663
 50
183.146231533123995
 51
189.9607354832421038
  0
ARC
  5
8E57
  8
0
 10
2402.316183545273816
 20
150.1952356788252985
 30
0.0
 40
13.8421119986052101
 50
271.2237219289362997
 51
273.5725739358585997
  0
ARC
  5
8E58
  8
0
 10
2402.6881327486339615
 20
144.4147628383776976
 30
0.0
 40
8.0497028884323285
 50
273.4940719476002755
 51
277.0573333346442269
  0
ARC
  5
8E59
  8
0
 10
2403.2116054742991764
 20
140.3653320529195128
 30
0.0
 40
3.9666975440478578
 50
276.7397956144735076
 51
285.2225510663785144
  0
ARC
  5
8E5A
  8
0
 10
2403.7140987494299225
 20
138.4983080591563009
 30
0.0
 40
2.033249320797208
 50
285.3735979388729902
 51
294.743350665373498
  0
ARC
  5
8E5B
  8
0
 10
2403.9663653802190311
 20
137.9509323640779996
 30
0.0
 40
1.430539934299917
 50
294.743350665373498
 51
305.1981362610063115
  0
ARC
  5
8E5C
  8
0
 10
2404.3176433717208056
 20
137.4529296769993891
 30
0.0
 40
0.8211115926128297
 50
305.1981362610063115
 51
308.6184760966144154
  0
ARC
  5
8E5D
  8
0
 10
2404.1979688115770841
 20
137.6311574840900107
 30
0.0
 40
1.0352089843921921
 50
307.6369272867137852
 51
321.7195470762337095
  0
ARC
  5
8E5E
  8
0
 10
2404.2788929753451157
 20
137.5655556724468056
 30
0.0
 40
0.9310444425190501
 50
321.8034367422893069
 51
332.9026483448708973
  0
ARC
  5
8E5F
  8
0
 10
2403.1701985923718894
 20
137.4062265000804928
 30
0.0
 40
0.8929653443829207
 50
277.5927563472683914
 51
296.7142246026828047
  0
ARC
  5
8E60
  8
0
 10
2403.1357603933001883
 20
137.1765495516245039
 30
0.0
 40
0.7159396610253603
 50
307.502631261548288
 51
330.2743949284512723
  0
ARC
  5
8E61
  8
0
 10
2403.0237904092027748
 20
138.2776678364722045
 30
0.0
 40
1.7763641814137201
 50
268.5989390764062819
 51
278.5597939383209791
  0
ARC
  5
8E62
  8
0
 10
2402.9839208657231211
 20
137.3859794873519888
 30
0.0
 40
0.8841519478710198
 50
254.4215372986745081
 51
269.7690550841992945
  0
ARC
  5
8E63
  8
0
 10
2401.3083793273408446
 20
137.3327725823612013
 30
0.0
 40
0.8286594596967766
 50
269.5843409081255118
 51
287.5113035287764092
  0
ARC
  5
8E64
  8
0
 10
2401.5013502170618267
 20
136.7211678652236913
 30
0.0
 40
0.1873341956500551
 50
287.5113035287764092
 51
322.0763039114398794
  0
ARC
  5
8E65
  8
0
 10
2401.2795446401041772
 20
136.8939861694267108
 30
0.0
 40
0.4685171969800077
 50
322.0763039114398794
 51
327.1699420509341962
  0
ARC
  5
8E66
  8
0
 10
2402.7939578714458548
 20
136.7375847080604103
 30
0.0
 40
0.2087486450013928
 50
207.8582303829651892
 51
256.8521694667222164
  0
ENDSEC
  0
EOF
