  0
SECTION
  2
HEADER
  9
$ACADVER
  1
AC1009
  9
$INSBASE
 10
2407.0133171992429197
 20
131.9386603930807951
 30
0.0
  9
$EXTMIN
 10
2401.3278038984472005
 20
131.9311201890571112
 30
-0.0015258207003583
  9
$EXTMAX
 10
2408.4939691718491304
 20
139.3181403373621094
 30
0.0000000349246037
  9
$LIMMIN
 10
0.0
 20
0.0
  9
$LIMMAX
 10
11.6929133858000007
 20
8.2677165353999982
  9
$ORTHOMODE
 70
     0
  9
$REGENMODE
 70
     1
  9
$FILLMODE
 70
     1
  9
$QTEXTMODE
 70
     0
  9
$MIRRTEXT
 70
     0
  9
$DRAGMODE
 70
     2
  9
$LTSCALE
 40
0.6431102362
  9
$OSMODE
 70
  4095
  9
$ATTMODE
 70
     1
  9
$TEXTSIZE
 40
0.2
  9
$TRACEWID
 40
0.05
  9
$TEXTSTYLE
  7
STANDARD
  9
$CLAYER
  8
0
  9
$CELTYPE
  6
BYLAYER
  9
$CECOLOR
 62
   256
  9
$DIMSCALE
 40
1.0
  9
$DIMASZ
 40
0.1875
  9
$DIMEXO
 40
0.0625
  9
$DIMDLI
 40
0.4443307087
  9
$DIMRND
 40
0.0
  9
$DIMDLE
 40
0.0
  9
$DIMEXE
 40
0.125
  9
$DIMTP
 40
0.01
  9
$DIMTM
 40
0.01
  9
$DIMTXT
 40
2.0
  9
$DIMCEN
 40
0.1052362205
  9
$DIMTSZ
 40
0.0
  9
$DIMTOL
 70
     1
  9
$DIMLIM
 70
     0
  9
$DIMTIH
 70
     1
  9
$DIMTOH
 70
     1
  9
$DIMSE1
 70
     0
  9
$DIMSE2
 70
     0
  9
$DIMTAD
 70
     0
  9
$DIMZIN
 70
     0
  9
$DIMBLK
  1

  9
$DIMASO
 70
     1
  9
$DIMSHO
 70
     1
  9
$DIMPOST
  1
\X
  9
$DIMAPOST
  1

  9
$DIMALT
 70
     1
  9
$DIMALTD
 70
     2
  9
$DIMALTF
 40
25.3999999999999986
  9
$DIMLFAC
 40
1.0
  9
$DIMTOFL
 70
     0
  9
$DIMTVP
 40
0.0
  9
$DIMTIX
 70
     0
  9
$DIMSOXD
 70
     0
  9
$DIMSAH
 70
     0
  9
$DIMBLK1
  1

  9
$DIMBLK2
  1

  9
$DIMSTYLE
  2
STANDARD
  9
$DIMCLRD
 70
     0
  9
$DIMCLRE
 70
     0
  9
$DIMCLRT
 70
     0
  9
$DIMTFAC
 40
1.0
  9
$DIMGAP
 40
0.09
  9
$LUNITS
 70
     2
  9
$LUPREC
 70
     4
  9
$SKETCHINC
 40
0.1
  9
$FILLETRAD
 40
0.0
  9
$AUNITS
 70
     0
  9
$AUPREC
 70
     0
  9
$MENU
  1
.
  9
$ELEVATION
 40
0.0
  9
$PELEVATION
 40
0.0
  9
$THICKNESS
 40
0.0
  9
$LIMCHECK
 70
     0
  9
$BLIPMODE
 70
     0
  9
$CHAMFERA
 40
0.0
  9
$CHAMFERB
 40
0.0
  9
$SKPOLY
 70
     0
  9
$TDCREATE
 40
2458060.468368056230247
  9
$TDUPDATE
 40
2459592.8256481480784714
  9
$TDINDWG
 40
0.3285950231
  9
$TDUSRTIMER
 40
0.3285950231
  9
$USRTIMER
 70
     1
  9
$ANGBASE
 50
0.0
  9
$ANGDIR
 70
     0
  9
$PDMODE
 70
     0
  9
$PDSIZE
 40
0.3125
  9
$PLINEWID
 40
0.0
  9
$COORDS
 70
     1
  9
$SPLFRAME
 70
     0
  9
$SPLINETYPE
 70
     6
  9
$SPLINESEGS
 70
     8
  9
$ATTDIA
 70
     1
  9
$ATTREQ
 70
     1
  9
$HANDLING
 70
     1
  9
$HANDSEED
  5
90D0
  9
$SURFTAB1
 70
     6
  9
$SURFTAB2
 70
     6
  9
$SURFTYPE
 70
     6
  9
$SURFU
 70
     6
  9
$SURFV
 70
     6
  9
$UCSNAME
  2

  9
$UCSORG
 10
0.0
 20
0.0
 30
0.0
  9
$UCSXDIR
 10
1.0
 20
0.0
 30
0.0
  9
$UCSYDIR
 10
0.0
 20
1.0
 30
0.0
  9
$PUCSNAME
  2

  9
$PUCSORG
 10
0.0
 20
0.0
 30
0.0
  9
$PUCSXDIR
 10
1.0
 20
0.0
 30
0.0
  9
$PUCSYDIR
 10
0.0
 20
1.0
 30
0.0
  9
$USERI1
 70
     0
  9
$USERI2
 70
     0
  9
$USERI3
 70
     0
  9
$USERI4
 70
     0
  9
$USERI5
 70
     0
  9
$USERR1
 40
0.0
  9
$USERR2
 40
0.0
  9
$USERR3
 40
0.0
  9
$USERR4
 40
0.0
  9
$USERR5
 40
0.0
  9
$WORLDVIEW
 70
     1
  9
$SHADEDGE
 70
     3
  9
$SHADEDIF
 70
    70
  9
$TILEMODE
 70
     1
  9
$MAXACTVP
 70
    64
  9
$PLIMCHECK
 70
     0
  9
$PEXTMIN
 10
1.0000000000000000E+20
 20
1.0000000000000000E+20
 30
1.0000000000000000E+20
  9
$PEXTMAX
 10
-1.0000000000000000E+20
 20
-1.0000000000000000E+20
 30
-1.0000000000000000E+20
  9
$PLIMMIN
 10
0.0
 20
0.0
  9
$PLIMMAX
 10
12.0
 20
9.0
  9
$UNITMODE
 70
     0
  9
$VISRETAIN
 70
     1
  9
$PLINEGEN
 70
     0
  9
$PSLTSCALE
 70
     1
  0
ENDSEC
  0
SECTION
  2
TABLES
  0
TABLE
  2
VPORT
 70
     1
  0
VPORT
  2
*ACTIVE
 70
     0
 10
0.0
 20
0.0
 11
1.0
 21
1.0
 12
62.9360330195226965
 22
-0.708867316982321
 13
0.0
 23
0.0
 14
1.0
 24
1.0
 15
0.0
 25
0.0
 16
0.0
 26
0.0
 36
48.1717359839548322
 17
2341.974853515625
 27
136.3334975801919029
 37
0.0
 40
7.4455698456496133
 41
1.67063492063492
 42
50.0
 43
0.0
 44
0.0
 50
0.0
 51
0.0
 71
     0
 72
   100
 73
     1
 74
     1
 75
     0
 76
     0
 77
     0
 78
     0
  0
ENDTAB
  0
TABLE
  2
LTYPE
 70
     2
  0
LTYPE
  2
CONTINUOUS
 70
     0
  3
Solid line
 72
    65
 73
     0
 40
0.0
  0
LTYPE
  2
PHANTOM2
 70
     0
  3
___ _ _ ___ _ _ ___ _ _ ___ _ _
 72
    65
 73
     6
 40
1.25
 49
0.625
 49
-0.125
 49
0.125
 49
-0.125
 49
0.125
 49
-0.125
  0
ENDTAB
  0
TABLE
  2
LAYER
 70
     2
  0
LAYER
  2
0
 70
     0
 62
   255
  6
CONTINUOUS
  0
LAYER
  2
DEFPOINTS
 70
     0
 62
     7
  6
CONTINUOUS
  0
ENDTAB
  0
TABLE
  2
STYLE
 70
     1
  0
STYLE
  2
STANDARD
 70
     0
 40
0.0
 41
0.8
 50
0.0
 71
     0
 42
0.2
  3
txt
  4

  0
ENDTAB
  0
TABLE
  2
VIEW
 70
     0
  0
ENDTAB
  0
TABLE
  2
UCS
 70
     0
  0
ENDTAB
  0
TABLE
  2
APPID
 70
     9
  0
APPID
  2
ACAD
 70
     0
  0
APPID
  2
ACAD_MLEADERVER
 70
     0
  0
APPID
  2
ACAD_EXEMPT_FROM_CAD_STANDARDS
 70
     0
  0
APPID
  2
ACAD_NAV_VCDISPLAY
 70
     0
  0
APPID
  2
ACAECLAYERSTANDARD
 70
     0
  0
APPID
  2
ACCMTRANSPARENCY
 70
     0
  0
APPID
  2
ACAD_DSTYLE_DIMJAG
 70
     0
  0
APPID
  2
ACAD_DSTYLE_DIMTALN
 70
     0
  0
APPID
  2
ACDBATTR
 70
     0
  0
ENDTAB
  0
TABLE
  2
DIMSTYLE
 70
     1
  0
DIMSTYLE
  2
STANDARD
 70
     0
  3

  4

  5

  6

  7

 40
1.0
 41
0.1875
 42
0.0625
 43
0.38
 44
0.125
 45
0.0
 46
0.0
 47
0.01
 48
0.01
140
0.15625
141
0.09
142
0.0
143
25.3999999999999986
144
1.0
145
0.0
146
1.0
147
0.09
 71
     1
 72
     0
 73
     1
 74
     1
 75
     0
 76
     0
 77
     0
 78
     4
170
     0
171
     2
172
     0
173
     0
174
     0
175
     0
176
     0
177
     0
178
     0
  0
ENDTAB
  0
ENDSEC
  0
SECTION
  2
BLOCKS
  0
BLOCK
  8
0
  2
$MODEL_SPACE
 70
     0
 10
0.0
 20
0.0
 30
0.0
  3
$MODEL_SPACE
  1

  0
ENDBLK
  5
21
  8
0
  0
BLOCK
 67
     1
  8
0
  2
$PAPER_SPACE
 70
     0
 10
0.0
 20
0.0
 30
0.0
  3
$PAPER_SPACE
  1

  0
ENDBLK
  5
1D
 67
     1
  8
0
  0
ENDSEC
  0
SECTION
  2
ENTITIES
  0
ATTDEF
  5
3930
  8
DEFPOINTS
 10
2407.0091125551339246
 20
131.9366785290966106
 30
0.0
 40
0.001
  1
27373-4
  3

  2
MODELNUMBER
 70
     0
1001
ACDBATTR
1070
     0
1070
     1
  0
ATTDEF
  5
3931
  8
DEFPOINTS
 10
2407.0091125551339246
 20
131.9350118624298887
 30
0.0
 40
0.001
  1
LUDINGTON
  3

  2
TRADENAME
 70
     0
1001
ACDBATTR
1070
     0
1070
     1
  0
ATTDEF
  5
3932
  8
DEFPOINTS
 10
2407.0091125551339246
 20
131.9333451957631951
 30
0.0
 40
0.001
  1
BATHROOM SINK FAUCET
  3

  2
PRODUCT
 70
     0
1001
ACDBATTR
1070
     0
1070
     1
  0
LINE
  5
8F4A
  8
0
 10
2405.705317199242927
 20
131.9776603930808108
 30
0.0
 11
2408.3213171992429125
 21
131.9776603930808108
 31
0.0
  0
LINE
  5
8F4B
  8
0
 10
2401.5036045079650648
 20
136.5251924523199989
 30
0.0
 11
2402.5031417865211552
 21
136.1613906348414957
 31
0.0
  0
LINE
  5
8F4C
  8
0
 10
2401.4856743336417821
 20
136.5636438352439086
 30
0.0
 11
2401.570843010005774
 21
136.7976428503721991
 31
0.0
  0
ARC
  5
8F4D
  8
0
 10
2404.6091662728458687
 20
136.4696799594539982
 30
0.0
 40
2.8422598646000021
 50
0.0
 51
159.9999999997774012
  0
ARC
  5
8F4E
  8
0
 10
2404.6091662728458687
 20
136.4696799594539982
 30
0.0
 40
1.9672598645999979
 50
359.9934400606053941
 51
159.9999999992774065
  0
LINE
  5
8F4F
  8
0
 10
2401.9383156517251336
 20
137.4417900857133077
 30
0.0
 11
2401.8569148575970758
 21
137.2181432419747864
 31
0.0
  0
LINE
  5
8F50
  8
0
 10
2401.864086927309927
 20
137.2027626887627889
 30
0.0
 11
2402.6637653476159358
 21
136.9117035467781989
 31
0.0
  0
ARC
  5
8F51
  8
0
 10
2401.5138651122651936
 20
136.5533832309432114
 30
0.0
 40
0.03
 50
159.999999998103192
 51
249.9999999977636094
  0
ARC
  5
8F52
  8
0
 10
2400.944024895452003
 20
137.5070078361870003
 30
0.0
 40
0.9567387907881593
 50
325.0499050800617056
 51
340.9926652392964002
  0
ARC
  5
8F53
  8
0
 10
2401.3075241696301418
 20
137.2529544588390991
 30
0.0
 40
0.5132584182014165
 50
303.8961851180231974
 51
325.0499050800617056
  0
ARC
  5
8F54
  8
0
 10
2401.6272245672521422
 20
136.7771216417708047
 30
0.0
 40
0.06
 50
123.8961851180250022
 51
159.9999999981124006
  0
ARC
  5
8F55
  8
0
 10
2401.8599451250679522
 20
137.1915000003907892
 30
0.0
 40
0.0120001118414871
 50
70.0005367302726427
 51
160.9924413352744921
  0
ARC
  5
8F56
  8
0
 10
2401.8681911690309789
 20
137.2140390002122103
 30
0.0
 40
0.012
 50
159.999999995449997
 51
249.9999999994572875
  0
LINE
  5
8F57
  8
0
 10
2402.7605466948461981
 20
137.1425224603540016
 30
0.0
 11
2402.6791459007968115
 21
136.9188756165380028
 31
0.0
  0
ARC
  5
8F58
  8
0
 10
2402.6678695893369877
 20
136.9229798582275919
 30
0.0
 40
0.012
 50
249.9999999994564917
 51
340.0000000198023145
  0
LINE
  5
8F59
  8
0
 10
2402.5428196231459879
 20
136.1788419402261923
 30
0.0
 11
2402.6280009946931386
 21
136.412836334295406
 31
0.0
  0
ARC
  5
8F5A
  8
0
 10
2402.5146294012401995
 20
136.1891040739654954
 30
0.0
 40
0.03
 50
247.4852976942698888
 51
339.9968914908162105
  0
ARC
  5
8F5B
  8
0
 10
2403.564150172780046
 20
136.5532797328602896
 30
0.0
 40
0.9567387907881592
 50
159.0042262496147885
 51
174.9469864088513873
  0
ARC
  5
8F5C
  8
0
 10
2403.122393329094848
 20
136.5923403514831875
 30
0.0
 40
0.5132584182014164
 50
174.9469864088497957
 51
196.100706370887707
  0
ARC
  5
8F5D
  8
0
 10
2402.5716205508811072
 20
136.4333606017740124
 30
0.0
 40
0.06
 50
339.9968914908070019
 51
16.10070637088387
  0
ARC
  5
8F5E
  8
0
 10
2402.6596846166771684
 20
136.9003765937067953
 30
0.0
 40
0.0120409552929857
 50
339.0859390310845924
 51
69.4818394002976447
  0
LINE
  5
8F5F
  8
0
 10
2401.5937631766328195
 20
136.8269246069216081
 30
0.0
 11
2402.6292670949937929
 21
136.4500001916686927
 31
0.0
  0
LINE
  5
8F60
  8
0
 10
2406.0245035193011063
 20
132.694327983670803
 30
0.0
 11
2408.002130879185188
 21
132.694327983670803
 31
0.0
  0
ARC
  5
8F61
  8
0
 10
2405.561492062823163
 20
132.5792699816524021
 30
0.0
 40
0.3768251411504268
 50
322.2834806495494036
 51
0.0090790461576624
  0
ARC
  5
8F62
  8
0
 10
2405.5603417566271673
 20
132.5802579369481862
 30
0.0
 40
0.3783394823608149
 50
298.8656013279556873
 51
322.2716965583579167
  0
ARC
  5
8F63
  8
0
 10
2405.7753171994149852
 20
132.1960217228808006
 30
0.0
 40
0.0620000001724332
 50
121.4291590442366982
 51
179.9999999583654926
  0
ARC
  5
8F64
  8
0
 10
-2037233.658045100979507
 20
132.0893414018730141
 30
0.0
 40
2039639.3713623019866645
 50
359.9999970032102965
 51
0.0000029967717489
  0
ARC
  5
8F65
  8
0
 10
2406.0239996962168334
 20
132.6323278133033909
 30
0.0
 40
0.062002217406134
 50
89.5344157774331251
 51
134.9995925172081002
  0
LINE
  5
8F66
  8
0
 10
2405.9383171992440111
 20
132.5793296930808083
 30
0.0
 11
2405.9383171992440111
 21
132.6086484521808018
 31
0.0
  0
ARC
  5
8F67
  8
0
 10
2406.0003171993957949
 20
132.6086484521503905
 30
0.0
 40
0.0620000001526586
 50
135.0000000799232964
 51
179.9999999719385926
  0
LINE
  5
8F68
  8
0
 10
2405.9564765788541081
 20
132.6524890726919068
 30
0.0
 11
2405.9801578196429546
 21
132.6761703134808101
 31
0.0
  0
ARC
  5
8F69
  8
0
 10
2405.7183171973451863
 20
131.9826603912241012
 30
0.0
 40
0.0049999981433574
 50
179.9999790748171051
 51
270.0000217441566974
  0
LINE
  5
8F6A
  8
0
 10
2405.6933171992432108
 20
131.9506603930807955
 30
0.0
 11
2405.6933171992432108
 21
131.9656603930806966
 31
0.0
  0
ARC
  5
8F6B
  8
0
 10
2405.705317199242927
 20
131.9656603930806966
 30
0.0
 40
0.0120000000000005
 50
90.0
 51
180.0
  0
ARC
  5
8F6C
  8
0
 10
2405.705317199242927
 20
131.9506603930807955
 30
0.0
 40
0.0119999999999996
 50
180.0
 51
270.0
  0
LINE
  5
8F6D
  8
0
 10
2405.705317199242927
 20
131.9386603930807951
 30
0.0
 11
2408.3213171992429125
 21
131.9386603930807951
 31
0.0
  0
LINE
  5
8F6E
  8
0
 10
2405.7450939645350445
 20
132.2501563336807919
 30
0.0
 11
2408.2814313548537939
 21
132.2501563336807919
 31
0.0
  0
LINE
  5
8F6F
  8
0
 10
2406.027262891142982
 20
132.8858150530417106
 30
0.0
 11
2406.027262891142982
 21
132.709327983670704
 31
0.0
  0
LINE
  5
8F70
  8
0
 10
2406.5442407680629913
 20
134.3298296932808
 30
0.0
 11
2406.595304074042815
 21
134.3298296932808
 31
0.0
  0
LINE
  5
8F71
  8
0
 10
2406.5042369617099212
 20
134.8459047745159012
 30
0.0
 11
2407.5223974367750088
 21
134.8459047745159012
 31
0.0
  0
LINE
  5
8F72
  8
0
 10
2406.4889704531760799
 20
134.8558993374807926
 30
0.0
 11
2407.5376639453070311
 21
134.8558993374807926
 31
0.0
  0
LINE
  5
8F73
  8
0
 10
2406.5764261245521993
 20
136.4694547228735075
 30
0.0
 11
2406.5764261245521993
 21
135.3398690353998859
 31
0.0
  0
LINE
  5
8F74
  8
0
 10
2407.4514261374461057
 20
136.4696799594539982
 30
0.0
 11
2407.4514261374461057
 21
135.3391519239659999
 31
0.0
  0
LINE
  5
8F75
  8
0
 10
2406.5336341350998737
 20
134.3254362637530903
 30
0.0
 11
2406.4735485095379772
 21
134.2653502841843931
 31
0.0
  0
ARC
  5
8F76
  8
0
 10
2406.5088823855257942
 20
134.2299912273556117
 30
0.0
 40
0.0499874553475074
 50
134.9795912288915929
 51
180.0029261128632072
  0
ARC
  5
8F77
  8
0
 10
1052.80702274558098
 20
134.1608572621435087
 30
0.0
 40
1353.6518739499429103
 50
359.9973894330606754
 51
0.0029261128632474
  0
ARC
  5
8F78
  8
0
 10
2402.8540919869737991
 20
134.0993450830920892
 30
0.0
 40
3.60480330721145
 50
351.2679502041734736
 51
359.9973894330606754
  0
ARC
  5
8F79
  8
0
 10
2405.3002803144008794
 20
133.8026018512470898
 30
0.0
 40
1.1445837692924199
 50
328.630552556224302
 51
347.3573095901663805
  0
ARC
  5
8F7A
  8
0
 10
2405.1038594049218773
 20
133.935643904395107
 30
0.0
 40
1.3815957668551071
 50
312.8219435690576802
 51
328.1599653980065909
  0
ARC
  5
8F7B
  8
0
 10
2406.0773708830402029
 20
132.8858607077152953
 30
0.0
 40
0.0501080126952302
 50
133.3708707602845891
 51
180.0522036363472012
  0
ARC
  5
8F7C
  8
0
 10
2406.0422628911428546
 20
132.709327983670704
 30
0.0
 40
0.015
 50
179.9999999999886029
 51
270.0000000000259774
  0
ARC
  5
8F7D
  8
0
 10
2406.5442407680629913
 20
134.3148296932808137
 30
0.0
 40
0.015
 50
89.9999999999739515
 51
135.000168784349313
  0
LINE
  5
8F7E
  8
0
 10
2406.5758171992429197
 20
134.3298296932808
 30
0.0
 11
2406.5758171992429197
 21
134.6913018457586873
 31
0.0
  0
ARC
  5
8F7F
  8
0
 10
2407.1641351789789951
 20
135.0603554768460128
 30
0.0
 40
0.7633199695715009
 50
173.2346913114101881
 51
186.7945605729308056
  0
ARC
  5
8F80
  8
0
 10
2406.4557764739652157
 20
134.9714703298355971
 30
0.0
 40
0.0496206818703365
 50
181.6433391655444893
 51
228.5036024086745101
  0
ARC
  5
8F81
  8
0
 10
2406.3071556222998879
 20
134.8250334300055044
 30
0.0
 40
0.1591752069645364
 50
20.5694608169880304
 51
43.3523810012921871
  0
ARC
  5
8F82
  8
0
 10
2406.4970817142288979
 20
134.8886636483559869
 30
0.0
 40
0.0416228569732902
 50
190.6107596874857109
 51
216.5827094087582907
  0
ARC
  5
8F83
  8
0
 10
2406.4800037020881973
 20
134.8789429177292902
 30
0.0
 40
0.0222427616381224
 50
222.7056889137020903
 51
263.1629442754187949
  0
ARC
  5
8F84
  8
0
 10
2406.4880534304111279
 20
134.9156069171926902
 30
0.0
 40
0.0597146213736868
 50
259.6799718652595743
 51
270.8799117923952053
  0
ARC
  5
8F85
  8
0
 10
2406.4558273731449844
 20
135.1489413754219129
 30
0.0
 40
0.0497151148320511
 50
130.9277200866353894
 51
178.4609328095245928
  0
ARC
  5
8F86
  8
0
 10
2406.3527834263768455
 20
135.267782332604412
 30
0.0
 40
0.1075783308978281
 50
310.9277200866347926
 51
346.2394635335646171
  0
ARC
  5
8F87
  8
0
 10
2406.5203133856180102
 20
135.2267553581131949
 30
0.0
 40
0.0649021024250272
 50
124.9589343698478956
 51
166.2394635335660951
  0
ARC
  5
8F88
  8
0
 10
2407.2928743438678794
 20
134.1217391557860026
 30
0.0
 40
1.4132014911432531
 50
118.6721172435552063
 51
124.9589343698488051
  0
ARC
  5
8F89
  8
0
 10
2406.586911021116066
 20
134.8241152751670029
 30
0.0
 40
0.1167379366413014
 50
186.5903842481602055
 51
238.3985568991699893
  0
ARC
  5
8F8A
  8
0
 10
2406.5023509315319643
 20
134.8143457201198885
 30
0.0
 40
0.0316153605738079
 50
86.579960984277804
 51
186.5903842481569086
  0
ARC
  5
8F8B
  8
0
 10
2406.4903528838208331
 20
134.6173593862096141
 30
0.0
 40
0.1130116654805802
 50
40.8658740708296193
 51
71.7524363433899453
  0
LINE
  5
8F8C
  8
0
 10
2406.5953075065440316
 20
134.1430667185809114
 30
0.0
 11
2406.5953075065440316
 21
134.6369616872017048
 31
0.0
  0
ARC
  5
8F8D
  8
0
 10
2406.5555626865470913
 20
134.1318149177940029
 30
0.0
 40
0.0392895638322034
 50
303.8391365680109857
 51
353.6711310957560954
  0
ARC
  5
8F8E
  8
0
 10
2406.2355615746891999
 20
134.1512977150441088
 30
0.0
 40
0.3598400822423952
 50
356.2054445833442173
 51
358.6892997282897113
  0
ARC
  5
8F8F
  8
0
 10
2406.7968804743759392
 20
133.7057983533503887
 30
0.0
 40
0.4504477779626462
 50
119.1539034002535971
 51
129.258992759903208
  0
ARC
  5
8F90
  8
0
 10
2406.5437025207979787
 20
134.0155734461635859
 30
0.0
 40
0.0503731795369738
 50
129.258992759903208
 51
175.5862947300336998
  0
ARC
  5
8F91
  8
0
 10
2407.1605787599942232
 20
133.9679589719793
 30
0.0
 40
0.6690842854956706
 50
175.5862947300336998
 51
178.2274114680836874
  0
ARC
  5
8F92
  8
0
 10
2393.1378822418391792
 20
133.9173739692870981
 30
0.0
 40
13.3541226513918598
 50
358.6762097609897069
 51
0.3058342811459157
  0
ARC
  5
8F93
  8
0
 10
2405.1422721401499984
 20
133.5911299420612863
 30
0.0
 40
1.34628534594017
 50
339.9815037805428233
 51
0.754632574050271
  0
ARC
  5
8F94
  8
0
 10
2405.8871161013348683
 20
133.3786375797033941
 30
0.0
 40
0.5763634445639059
 50
306.3743094903530846
 51
334.4733590623155806
  0
ARC
  5
8F95
  8
0
 10
2406.2594409775852
 20
132.8750712489191983
 30
0.0
 40
0.0499110911012451
 50
127.6796699309163046
 51
180.050072551279186
  0
ARC
  5
8F96
  8
0
 10
2314.2698595028391537
 20
132.7946786921307876
 30
0.0
 40
91.9397055124149745
 50
359.949927448720814
 51
0.0500725512792467
  0
ARC
  5
8F97
  8
0
 10
2406.229519269424145
 20
132.7143122848538894
 30
0.0
 40
0.0199893715142749
 50
179.9499274487158971
 51
268.5076974643196763
  0
ARC
  5
8F98
  8
0
 10
2406.2289984401431866
 20
132.6323296930808056
 30
0.0
 40
0.0620000000000032
 50
89.9997643829393752
 51
135.0000000000034106
  0
ARC
  5
8F99
  8
0
 10
2406.2053171997818026
 20
132.6086484518903887
 30
0.0
 40
0.0620000005389301
 50
135.0000001624293873
 51
179.9999997316697886
  0
ARC
  5
8F9A
  8
0
 10
2405.7663172022507752
 20
132.5793296913151949
 30
0.0
 40
0.3769999969921756
 50
299.1745271054683144
 51
0.0000002683301165
  0
ARC
  5
8F9B
  8
0
 10
2405.9803171987491623
 20
132.1960217231952868
 30
0.0
 40
0.0619999995061083
 50
119.1745271054683002
 51
180.0000002906299983
  0
ARC
  5
8F9C
  8
0
 10
-21028988.5321923084557056
 20
132.0893407077836059
 30
0.0
 40
21031394.4505095109343529
 50
359.9999997093715933
 51
0.0000002906300286
  0
ARC
  5
8F9D
  8
0
 10
2405.9233171992182179
 20
131.9826603930553972
 30
0.0
 40
0.0049999999746397
 50
179.9999997093487991
 51
270.0000002905925953
  0
LINE
  5
8F9E
  8
0
 10
2406.1614765788431214
 20
132.6524890725808064
 30
0.0
 11
2406.1851578197088202
 21
132.6761703135142909
 31
0.0
  0
LINE
  5
8F9F
  8
0
 10
2406.1433171992430289
 20
132.6086484521808018
 30
0.0
 11
2406.1433171992430289
 21
132.5793296930808083
 31
0.0
  0
ARC
  5
8FA0
  8
0
 10
2406.4857106639979065
 20
134.6282410952968007
 30
0.0
 40
0.1099432427169713
 50
4.5494249230851134
 51
34.9579077740360233
  0
ARC
  5
8FA1
  8
0
 10
2407.0542605159780578
 20
138.2872044031792882
 30
0.0
 40
3.208032615497149
 50
265.8207429344607249
 51
269.2687284638712981
  0
ARC
  5
8FA2
  8
0
 10
2406.8515148405272157
 20
135.4370814233433862
 30
0.0
 40
0.3507559576186493
 50
251.9685281379584865
 51
264.9219201873723932
  0
ARC
  5
8FA3
  8
0
 10
2406.8182028455271393
 20
135.334748939112302
 30
0.0
 40
0.2431379928552032
 50
228.7425227576877091
 51
251.9685281379584865
  0
ARC
  5
8FA4
  8
0
 10
2406.727768999959153
 20
135.2316560448732901
 30
0.0
 40
0.1060014723118298
 50
201.1560316893603897
 51
228.7425227576877091
  0
ARC
  5
8FA5
  8
0
 10
2406.9125540065160749
 20
135.2915727034113047
 30
0.0
 40
0.3001514278858247
 50
182.2222625074930136
 51
199.0916420157458901
  0
ARC
  5
8FA6
  8
0
 10
2406.9882068779079418
 20
135.3100514217246086
 30
0.0
 40
0.3767841762591282
 50
161.9812643550083067
 51
184.5847027904659114
  0
ARC
  5
8FA7
  8
0
 10
2406.7852309065369809
 20
135.3572615309458058
 30
0.0
 40
0.1701031958431791
 50
105.7998137731647006
 51
155.9437331065308001
  0
ARC
  5
8FA8
  8
0
 10
2406.8382919581567876
 20
135.228092627646987
 30
0.0
 40
0.3092475949108413
 50
94.2579101357837175
 51
108.7444978365680015
  0
ARC
  5
8FA9
  8
0
 10
2407.0321519088188325
 20
131.9454763067240037
 30
0.0
 40
3.5975500831580578
 50
90.2999692212955978
 51
93.455247746885675
  0
ARC
  5
8FAA
  8
0
 10
2407.1178451719779332
 20
135.0664986838600896
 30
0.0
 40
0.3523717661333748
 50
175.1191842182936966
 51
192.6496331853248023
  0
ARC
  5
8FAB
  8
0
 10
2406.8683126681439717
 20
135.0104945559760949
 30
0.0
 40
0.0966317950499087
 50
192.6496331853248023
 51
213.1299571791591916
  0
ARC
  5
8FAC
  8
0
 10
2406.8254648554711821
 20
134.9825304839129103
 30
0.0
 40
0.045466138822114
 50
213.1299571791585095
 51
256.6592052048159758
  0
ARC
  5
8FAD
  8
0
 10
2407.0035725037050724
 20
135.7965919956932908
 30
0.0
 40
0.8787773319965959
 50
257.6070704564982066
 51
263.490470792305473
  0
ARC
  5
8FAE
  8
0
 10
2407.0133107291699162
 20
135.8637389469884056
 30
0.0
 40
0.9465976437297841
 50
263.3655953108777794
 51
270.0003916213440789
  0
LINE
  5
8FAF
  8
0
 10
2406.5953075065440316
 20
134.1430667185809114
 30
0.0
 11
2407.4313268919431721
 21
134.1430667185809114
 31
0.0
  0
LINE
  5
8FB0
  8
0
 10
2406.5758171992429197
 20
134.8558993374807926
 30
0.0
 11
2406.5758171992429197
 21
134.8459047745159012
 31
0.0
  0
LINE
  5
8FB1
  8
0
 10
2406.4061373451040708
 20
135.1505205385105057
 30
0.0
 11
2406.659533440847099
 21
135.1505205385105057
 31
0.0
  0
ARC
  5
8FB2
  8
0
 10
2408.4651423356622217
 20
132.5792699816524021
 30
0.0
 40
0.3768251411504268
 50
179.9909209538423056
 51
217.7165193504505964
  0
ARC
  5
8FB3
  8
0
 10
2408.4662926418591269
 20
132.5802579369481862
 30
0.0
 40
0.3783394823608149
 50
217.7283034416414012
 51
241.1343986720443979
  0
ARC
  5
8FB4
  8
0
 10
2408.2513171990699448
 20
132.1960217228808006
 30
0.0
 40
0.0620000001724332
 50
0.0000000416344277
 51
58.5708409557632805
  0
ARC
  5
8FB5
  8
0
 10
2042047.6846794988960028
 20
132.0893414018730141
 30
0.0
 40
2039639.3713623019866645
 50
179.9999970032282022
 51
180.0000029967897035
  0
ARC
  5
8FB6
  8
0
 10
2408.0026347022699156
 20
132.6323278133033909
 30
0.0
 40
0.062002217406134
 50
45.0004074827919425
 51
90.4655842225668891
  0
LINE
  5
8FB7
  8
0
 10
2408.0883171992431926
 20
132.5793296930808083
 30
0.0
 11
2408.0883171992431926
 21
132.6086484521808018
 31
0.0
  0
ARC
  5
8FB8
  8
0
 10
2408.0263171990900446
 20
132.6086484521503905
 30
0.0
 40
0.0620000001526586
 50
0.000000028061347
 51
44.9999999200766609
  0
LINE
  5
8FB9
  8
0
 10
2408.0701578196321861
 20
132.6524890726919068
 30
0.0
 11
2408.0464765788428849
 21
132.6761703134808101
 31
0.0
  0
ARC
  5
8FBA
  8
0
 10
2408.3083172011411079
 20
131.9826603912241012
 30
0.0
 40
0.0049999981433574
 50
269.9999782558431889
 51
0.0000209251829284
  0
LINE
  5
8FBB
  8
0
 10
2408.3333171992439929
 20
131.9506603930807955
 30
0.0
 11
2408.3333171992439929
 21
131.9656603930806966
 31
0.0
  0
ARC
  5
8FBC
  8
0
 10
2408.3213171992429125
 20
131.9656603930806966
 30
0.0
 40
0.0120000000000005
 50
0.0
 51
90.0
  0
ARC
  5
8FBD
  8
0
 10
2408.3213171992429125
 20
131.9506603930807955
 30
0.0
 40
0.0119999999999996
 50
270.0
 51
0.0
  0
LINE
  5
8FBE
  8
0
 10
2407.9993715073428575
 20
132.8858150530417106
 30
0.0
 11
2407.9993715073428575
 21
132.709327983670704
 31
0.0
  0
LINE
  5
8FBF
  8
0
 10
2407.4823936304228482
 20
134.3298296932808
 30
0.0
 11
2407.4313303244430244
 21
134.3298296932808
 31
0.0
  0
LINE
  5
8FC0
  8
0
 10
2407.4930002633859658
 20
134.3254362637530903
 30
0.0
 11
2407.5530858889478623
 21
134.2653502841843931
 31
0.0
  0
ARC
  5
8FC1
  8
0
 10
2407.5177520129609547
 20
134.2299912273556117
 30
0.0
 40
0.0499874553475074
 50
359.9970738871367075
 51
45.0204087711083218
  0
ARC
  5
8FC2
  8
0
 10
3761.21961165290395
 20
134.1608572621435087
 30
0.0
 40
1353.6518739499429103
 50
179.9970738871367075
 51
180.0026105669392109
  0
ARC
  5
8FC3
  8
0
 10
2411.1725424115129499
 20
134.0993450830920892
 30
0.0
 40
3.60480330721145
 50
180.0026105669392109
 51
188.732049795826498
  0
ARC
  5
8FC4
  8
0
 10
2408.72635408408496
 20
133.8026018512470898
 30
0.0
 40
1.1445837692924199
 50
192.642690409833591
 51
211.3694474437756128
  0
ARC
  5
8FC5
  8
0
 10
2408.9227749935639622
 20
133.935643904395107
 30
0.0
 40
1.3815957668551071
 50
211.8400346019932954
 51
227.1780564309422914
  0
ARC
  5
8FC6
  8
0
 10
2407.9492635154460913
 20
132.8858607077152953
 30
0.0
 40
0.0501080126952302
 50
359.9477963636526852
 51
46.6291292397153967
  0
ARC
  5
8FC7
  8
0
 10
2407.9843715073429848
 20
132.709327983670704
 30
0.0
 40
0.015
 50
269.9999999999739089
 51
0.0000000000113991
  0
ARC
  5
8FC8
  8
0
 10
2407.4823936304228482
 20
134.3148296932808137
 30
0.0
 40
0.015
 50
44.9998312156507083
 51
90.0000000000260485
  0
LINE
  5
8FC9
  8
0
 10
2407.4508171992429197
 20
134.3298296932808
 30
0.0
 11
2407.4508171992429197
 21
134.6913018457586873
 31
0.0
  0
ARC
  5
8FCA
  8
0
 10
2406.8624992195068444
 20
135.0603554768460128
 30
0.0
 40
0.7633199695715009
 50
353.2054394270692228
 51
6.7653086885898297
  0
ARC
  5
8FCB
  8
0
 10
2407.570857924520169
 20
134.9714703298355971
 30
0.0
 40
0.0496206818703365
 50
311.4963975913254899
 51
358.356660834455397
  0
ARC
  5
8FCC
  8
0
 10
2407.7194787761859516
 20
134.8250334300055044
 30
0.0
 40
0.1591752069645364
 50
136.6476189987077987
 51
159.4305391830118879
  0
ARC
  5
8FCD
  8
0
 10
2407.5295526842569416
 20
134.8886636483559869
 30
0.0
 40
0.0416228569732902
 50
323.4172905912417946
 51
349.3892403125144028
  0
ARC
  5
8FCE
  8
0
 10
2407.5466306963990064
 20
134.8789429177292902
 30
0.0
 40
0.0222427616381224
 50
276.8370557245812051
 51
317.2943110862979097
  0
ARC
  5
8FCF
  8
0
 10
2407.5385809680760758
 20
134.9156069171926902
 30
0.0
 40
0.0597146213736868
 50
269.1200882076047947
 51
280.3200281347404257
  0
ARC
  5
8FD0
  8
0
 10
2407.570807025340855
 20
135.1489413754219129
 30
0.0
 40
0.0497151148320511
 50
1.539067190475369
 51
49.0722799133646035
  0
ARC
  5
8FD1
  8
0
 10
2407.673850972108994
 20
135.267782332604412
 30
0.0
 40
0.1075783308978281
 50
193.7605364664354113
 51
229.0722799133646106
  0
ARC
  5
8FD2
  8
0
 10
2407.5063210128678293
 20
135.2267553581131949
 30
0.0
 40
0.0649021024250272
 50
13.7605364664338694
 51
55.0410656301511523
  0
ARC
  5
8FD3
  8
0
 10
2406.7337600546179601
 20
134.1217391557860026
 30
0.0
 40
1.4132014911432531
 50
55.0410656301511523
 51
61.3278827564447866
  0
ARC
  5
8FD4
  8
0
 10
2407.4397233773697735
 20
134.8241152751670029
 30
0.0
 40
0.1167379366413014
 50
301.601443100829897
 51
353.4096157518399082
  0
ARC
  5
8FD5
  8
0
 10
2407.5242834669547847
 20
134.8143457201198885
 30
0.0
 40
0.0316153605738079
 50
353.4096157518429777
 51
93.420039015722196
  0
ARC
  5
8FD6
  8
0
 10
2407.5362815146650064
 20
134.6173593862096141
 30
0.0
 40
0.1130116654805802
 50
108.2475636566100974
 51
139.1341259291704091
  0
LINE
  5
8FD7
  8
0
 10
2407.4313268919431721
 20
134.1430667185809114
 30
0.0
 11
2407.4313268919431721
 21
134.6369616872017048
 31
0.0
  0
ARC
  5
8FD8
  8
0
 10
2407.4710717119392029
 20
134.1318149177940029
 30
0.0
 40
0.0392895638322034
 50
186.3288689042437909
 51
236.1608634319889006
  0
ARC
  5
8FD9
  8
0
 10
2407.7910728237970943
 20
134.1512977150441088
 30
0.0
 40
0.3598400822423952
 50
181.3107002717102887
 51
183.7945554166558111
  0
ARC
  5
8FDA
  8
0
 10
2407.2297539241099003
 20
133.7057983533503887
 30
0.0
 40
0.4504477779626462
 50
50.7410072400967422
 51
60.8460965997463532
  0
ARC
  5
8FDB
  8
0
 10
2407.4829318776878608
 20
134.0155734461635859
 30
0.0
 40
0.0503731795369738
 50
4.4137052699678714
 51
50.7410072400967422
  0
ARC
  5
8FDC
  8
0
 10
2406.866055638492071
 20
133.9679589719793
 30
0.0
 40
0.6690842854956706
 50
1.772588531916268
 51
4.4137052699678714
  0
ARC
  5
8FDD
  8
0
 10
2420.888752156647115
 20
133.9173739692870981
 30
0.0
 40
13.3541226513918598
 50
179.6941657188540944
 51
181.3237902390102931
  0
ARC
  5
8FDE
  8
0
 10
2408.884362258335841
 20
133.5911299420612863
 30
0.0
 40
1.34628534594017
 50
179.245367425949695
 51
200.0184962194572051
  0
ARC
  5
8FDF
  8
0
 10
2408.1395182971509712
 20
133.3786375797033941
 30
0.0
 40
0.5763634445639059
 50
205.526640937684391
 51
233.6256905096470007
  0
ARC
  5
8FE0
  8
0
 10
2407.7671934209020037
 20
132.8750712489191983
 30
0.0
 40
0.0499110911012451
 50
359.949927448720814
 51
52.3203300690837025
  0
ARC
  5
8FE1
  8
0
 10
2499.7567748956457763
 20
132.7946786921307876
 30
0.0
 40
91.9397055124149745
 50
179.9499274487207003
 51
180.050072551279186
  0
ARC
  5
8FE2
  8
0
 10
2407.7971151290621492
 20
132.7143122848538894
 30
0.0
 40
0.0199893715142749
 50
271.4923025356803237
 51
0.0500725512841321
  0
ARC
  5
8FE3
  8
0
 10
2407.7976359583431076
 20
132.6323296930808056
 30
0.0
 40
0.0620000000000032
 50
44.9999999999965397
 51
90.0002356170606248
  0
ARC
  5
8FE4
  8
0
 10
2407.8213171987040369
 20
132.6086484518903887
 30
0.0
 40
0.0620000005389301
 50
0.0000002683301165
 51
44.9999998375705488
  0
ARC
  5
8FE5
  8
0
 10
2408.2603171962350643
 20
132.5793296913151949
 30
0.0
 40
0.3769999969921756
 50
179.9999997316697886
 51
240.825472894531714
  0
ARC
  5
8FE6
  8
0
 10
2408.0463171997371319
 20
132.1960217231952868
 30
0.0
 40
0.0619999995061083
 50
359.9999997093684101
 51
60.8254728945316998
  0
ARC
  5
8FE7
  8
0
 10
21033802.5588267110288143
 20
132.0893407077836059
 30
0.0
 40
21031394.4505095109343529
 50
179.999999709369888
 51
180.0000002906284067
  0
ARC
  5
8FE8
  8
0
 10
2408.1033171992680764
 20
131.9826603930553972
 30
0.0
 40
0.0049999999746397
 50
269.9999997094074047
 51
0.0000002906511983
  0
LINE
  5
8FE9
  8
0
 10
2407.8651578196431728
 20
132.6524890725808064
 30
0.0
 11
2407.8414765787770193
 21
132.6761703135142909
 31
0.0
  0
LINE
  5
8FEA
  8
0
 10
2407.8833171992428106
 20
132.6086484521808018
 30
0.0
 11
2407.8833171992428106
 21
132.5793296930808083
 31
0.0
  0
ARC
  5
8FEB
  8
0
 10
2407.5409237344888425
 20
134.6282410952968007
 30
0.0
 40
0.1099432427169713
 50
145.0420922259640122
 51
175.4505750769149017
  0
ARC
  5
8FEC
  8
0
 10
2407.0070694253140573
 20
137.4780486633717942
 30
0.0
 40
2.398623727305857
 50
270.1492403657459818
 51
274.7612882359252922
  0
ARC
  5
8FED
  8
0
 10
2407.1751195579590785
 20
135.4370814233433862
 30
0.0
 40
0.3507559576186493
 50
275.0780798126276068
 51
288.0314718620414851
  0
ARC
  5
8FEE
  8
0
 10
2407.2084315529591549
 20
135.334748939112302
 30
0.0
 40
0.2431379928552032
 50
288.0314718620414851
 51
311.2574772423122909
  0
ARC
  5
8FEF
  8
0
 10
2407.2988653985271412
 20
135.2316560448732901
 30
0.0
 40
0.1060014723118298
 50
311.2574772423122909
 51
338.843968310639525
  0
ARC
  5
8FF0
  8
0
 10
2407.1140803919702194
 20
135.2915727034113047
 30
0.0
 40
0.3001514278858247
 50
340.9083579842539962
 51
357.7777374925069012
  0
ARC
  5
8FF1
  8
0
 10
2407.0384275205778977
 20
135.3100514217246086
 30
0.0
 40
0.3767841762591282
 50
355.4152972095340033
 51
18.0187356449917004
  0
ARC
  5
8FF2
  8
0
 10
2407.2414034919502228
 20
135.3572615309458058
 30
0.0
 40
0.1701031958431791
 50
24.0562668934692105
 51
74.2001862268352568
  0
ARC
  5
8FF3
  8
0
 10
2407.1883424403290519
 20
135.228092627646987
 30
0.0
 40
0.3092475949108413
 50
71.2555021634319701
 51
85.742089864216311
  0
ARC
  5
8FF4
  8
0
 10
2406.9802295979470728
 20
131.510700792954907
 30
0.0
 40
4.0324120437008677
 50
86.7149237718980999
 51
89.5298592599044127
  0
ARC
  5
8FF5
  8
0
 10
2406.9087892265079063
 20
135.0664986838600896
 30
0.0
 40
0.3523717661333748
 50
347.3503668146752261
 51
4.8808157817062527
  0
ARC
  5
8FF6
  8
0
 10
2407.1583217303418678
 20
135.0104945559760949
 30
0.0
 40
0.0966317950499087
 50
326.8700428208401263
 51
347.3503668146752261
  0
ARC
  5
8FF7
  8
0
 10
2407.2011695430151121
 20
134.9825304839129103
 30
0.0
 40
0.045466138822114
 50
283.3407947951840242
 51
326.8700428208421158
  0
ARC
  5
8FF8
  8
0
 10
2407.0230618947812218
 20
135.7965919956932908
 30
0.0
 40
0.8787773319965959
 50
276.509529207694527
 51
282.3929295435017934
  0
ARC
  5
8FF9
  8
0
 10
2407.0133236693150138
 20
135.8637389469884056
 30
0.0
 40
0.9465976437297841
 50
269.9996083786559211
 51
276.6344046891221069
  0
LINE
  5
8FFA
  8
0
 10
2407.4508171992429197
 20
134.8558993374807926
 30
0.0
 11
2407.4508171992429197
 21
134.8459047745159012
 31
0.0
  0
LINE
  5
8FFB
  8
0
 10
2407.6204581978431634
 20
134.970047320480802
 30
0.0
 11
2407.2460812025110499
 21
134.970047320480802
 31
0.0
  0
LINE
  5
8FFC
  8
0
 10
2407.6204970533822234
 20
135.1505205385105057
 30
0.0
 11
2407.3671009576391953
 21
135.1505205385105057
 31
0.0
  0
LINE
  5
8FFD
  8
0
 10
2406.4918146491099833
 20
133.9886554567808048
 30
0.0
 11
2407.5348197493758562
 21
133.9886554567808048
 31
0.0
  0
LINE
  5
8FFE
  8
0
 10
2406.2289228470508533
 20
132.9145650550622975
 30
0.0
 11
2407.7977115514349862
 21
132.9145650550622975
 31
0.0
  0
LINE
  5
8FFF
  8
0
 10
2406.042949845792009
 20
132.9222750610807964
 30
0.0
 11
2406.2391502926097928
 21
132.9222750610807964
 31
0.0
  0
LINE
  5
9000
  8
0
 10
2407.7874841058760467
 20
132.9222750610807964
 30
0.0
 11
2407.9836845526951947
 21
132.9222750610807964
 31
0.0
  0
LINE
  5
9001
  8
0
 10
2405.9383171992440111
 20
132.6086484521503905
 30
0.0
 11
2408.0883171992431926
 21
132.6086484521503905
 31
0.0
  0
LINE
  5
9002
  8
0
 10
2406.5257226405610709
 20
134.7246983352808058
 30
0.0
 11
2407.5009117579252234
 21
134.7246983352808058
 31
0.0
  0
LINE
  5
9004
  8
0
 10
2406.4831070160298623
 20
135.2799340094807974
 30
0.0
 11
2406.6126283149428673
 21
135.2799340094807974
 31
0.0
  0
LINE
  5
9005
  8
0
 10
2407.4140060835429722
 20
135.2799340094807974
 30
0.0
 11
2407.5435273824559772
 21
135.2799340094807974
 31
0.0
  0
LINE
  5
9006
  8
0
 10
2406.4229032338089382
 20
134.9343002453807969
 30
0.0
 11
2406.8341542739481156
 21
134.9343002453807969
 31
0.0
  0
LINE
  5
9007
  8
0
 10
2407.1924801245390881
 20
134.9343002453807969
 30
0.0
 11
2407.6037311646778107
 21
134.9343002453807969
 31
0.0
  0
ENDSEC
  0
EOF
