  0
SECTION
  2
HEADER
  9
$ACADVER
  1
AC1009
  9
$INSBASE
 10
2422.0734784338960708
 20
136.5110075036677983
 30
0.0
  9
$EXTMIN
 10
2416.6547959338208784
 20
130.969323129940193
 30
-0.0000000000112498
  9
$EXTMAX
 10
2427.3966334459778409
 20
137.8361005291228025
 30
0.0000000000002956
  9
$LIMMIN
 10
0.0
 20
0.0
  9
$LIMMAX
 10
11.6929133858000007
 20
8.2677165353999982
  9
$ORTHOMODE
 70
     0
  9
$REGENMODE
 70
     1
  9
$FILLMODE
 70
     1
  9
$QTEXTMODE
 70
     0
  9
$MIRRTEXT
 70
     0
  9
$DRAGMODE
 70
     2
  9
$LTSCALE
 40
0.6431102362
  9
$OSMODE
 70
  4095
  9
$ATTMODE
 70
     1
  9
$TEXTSIZE
 40
0.2
  9
$TRACEWID
 40
0.05
  9
$TEXTSTYLE
  7
STANDARD
  9
$CLAYER
  8
0
  9
$CELTYPE
  6
BYLAYER
  9
$CECOLOR
 62
   256
  9
$DIMSCALE
 40
1.0
  9
$DIMASZ
 40
0.1875
  9
$DIMEXO
 40
0.0625
  9
$DIMDLI
 40
0.4443307087
  9
$DIMRND
 40
0.0
  9
$DIMDLE
 40
0.0
  9
$DIMEXE
 40
0.125
  9
$DIMTP
 40
0.01
  9
$DIMTM
 40
0.01
  9
$DIMTXT
 40
2.0
  9
$DIMCEN
 40
0.1052362205
  9
$DIMTSZ
 40
0.0
  9
$DIMTOL
 70
     1
  9
$DIMLIM
 70
     0
  9
$DIMTIH
 70
     1
  9
$DIMTOH
 70
     1
  9
$DIMSE1
 70
     0
  9
$DIMSE2
 70
     0
  9
$DIMTAD
 70
     0
  9
$DIMZIN
 70
     0
  9
$DIMBLK
  1

  9
$DIMASO
 70
     1
  9
$DIMSHO
 70
     1
  9
$DIMPOST
  1
\X
  9
$DIMAPOST
  1

  9
$DIMALT
 70
     1
  9
$DIMALTD
 70
     2
  9
$DIMALTF
 40
25.3999999999999986
  9
$DIMLFAC
 40
1.0
  9
$DIMTOFL
 70
     0
  9
$DIMTVP
 40
0.0
  9
$DIMTIX
 70
     0
  9
$DIMSOXD
 70
     0
  9
$DIMSAH
 70
     0
  9
$DIMBLK1
  1

  9
$DIMBLK2
  1

  9
$DIMSTYLE
  2
STANDARD
  9
$DIMCLRD
 70
     0
  9
$DIMCLRE
 70
     0
  9
$DIMCLRT
 70
     0
  9
$DIMTFAC
 40
1.0
  9
$DIMGAP
 40
0.09
  9
$LUNITS
 70
     2
  9
$LUPREC
 70
     4
  9
$SKETCHINC
 40
0.1
  9
$FILLETRAD
 40
0.0
  9
$AUNITS
 70
     0
  9
$AUPREC
 70
     0
  9
$MENU
  1
.
  9
$ELEVATION
 40
0.0
  9
$PELEVATION
 40
0.0
  9
$THICKNESS
 40
0.0
  9
$LIMCHECK
 70
     0
  9
$BLIPMODE
 70
     0
  9
$CHAMFERA
 40
0.0
  9
$CHAMFERB
 40
0.0
  9
$SKPOLY
 70
     0
  9
$TDCREATE
 40
2458060.468368056230247
  9
$TDUPDATE
 40
2459592.8259375002235174
  9
$TDINDWG
 40
0.3326922454
  9
$TDUSRTIMER
 40
0.3326922454
  9
$USRTIMER
 70
     1
  9
$ANGBASE
 50
0.0
  9
$ANGDIR
 70
     0
  9
$PDMODE
 70
     0
  9
$PDSIZE
 40
0.3125
  9
$PLINEWID
 40
0.0
  9
$COORDS
 70
     1
  9
$SPLFRAME
 70
     0
  9
$SPLINETYPE
 70
     6
  9
$SPLINESEGS
 70
     8
  9
$ATTDIA
 70
     1
  9
$ATTREQ
 70
     1
  9
$HANDLING
 70
     1
  9
$HANDSEED
  5
9162
  9
$SURFTAB1
 70
     6
  9
$SURFTAB2
 70
     6
  9
$SURFTYPE
 70
     6
  9
$SURFU
 70
     6
  9
$SURFV
 70
     6
  9
$UCSNAME
  2

  9
$UCSORG
 10
0.0
 20
0.0
 30
0.0
  9
$UCSXDIR
 10
1.0
 20
0.0
 30
0.0
  9
$UCSYDIR
 10
0.0
 20
1.0
 30
0.0
  9
$PUCSNAME
  2

  9
$PUCSORG
 10
0.0
 20
0.0
 30
0.0
  9
$PUCSXDIR
 10
1.0
 20
0.0
 30
0.0
  9
$PUCSYDIR
 10
0.0
 20
1.0
 30
0.0
  9
$USERI1
 70
     0
  9
$USERI2
 70
     0
  9
$USERI3
 70
     0
  9
$USERI4
 70
     0
  9
$USERI5
 70
     0
  9
$USERR1
 40
0.0
  9
$USERR2
 40
0.0
  9
$USERR3
 40
0.0
  9
$USERR4
 40
0.0
  9
$USERR5
 40
0.0
  9
$WORLDVIEW
 70
     1
  9
$SHADEDGE
 70
     3
  9
$SHADEDIF
 70
    70
  9
$TILEMODE
 70
     1
  9
$MAXACTVP
 70
    64
  9
$PLIMCHECK
 70
     0
  9
$PEXTMIN
 10
1.0000000000000000E+20
 20
1.0000000000000000E+20
 30
1.0000000000000000E+20
  9
$PEXTMAX
 10
-1.0000000000000000E+20
 20
-1.0000000000000000E+20
 30
-1.0000000000000000E+20
  9
$PLIMMIN
 10
0.0
 20
0.0
  9
$PLIMMAX
 10
12.0
 20
9.0
  9
$UNITMODE
 70
     0
  9
$VISRETAIN
 70
     1
  9
$PLINEGEN
 70
     0
  9
$PSLTSCALE
 70
     1
  0
ENDSEC
  0
SECTION
  2
TABLES
  0
TABLE
  2
VPORT
 70
     1
  0
VPORT
  2
*ACTIVE
 70
     0
 10
0.0
 20
0.0
 11
1.0
 21
1.0
 12
80.0508611742743739
 22
-1.93078575066039
 13
0.0
 23
0.0
 14
1.0
 24
1.0
 15
0.0
 25
0.0
 16
0.0
 26
0.0
 36
48.1717359839548322
 17
2341.974853515625
 27
136.3334975801919029
 37
0.0
 40
6.9212036401272821
 41
1.67063492063492
 42
50.0
 43
0.0
 44
0.0
 50
0.0
 51
0.0
 71
     0
 72
   100
 73
     1
 74
     1
 75
     0
 76
     0
 77
     0
 78
     0
  0
ENDTAB
  0
TABLE
  2
LTYPE
 70
     2
  0
LTYPE
  2
CONTINUOUS
 70
     0
  3
Solid line
 72
    65
 73
     0
 40
0.0
  0
LTYPE
  2
PHANTOM2
 70
     0
  3
___ _ _ ___ _ _ ___ _ _ ___ _ _
 72
    65
 73
     6
 40
1.25
 49
0.625
 49
-0.125
 49
0.125
 49
-0.125
 49
0.125
 49
-0.125
  0
ENDTAB
  0
TABLE
  2
LAYER
 70
     2
  0
LAYER
  2
0
 70
     0
 62
   255
  6
CONTINUOUS
  0
LAYER
  2
DEFPOINTS
 70
     0
 62
     7
  6
CONTINUOUS
  0
ENDTAB
  0
TABLE
  2
STYLE
 70
     1
  0
STYLE
  2
STANDARD
 70
     0
 40
0.0
 41
0.8
 50
0.0
 71
     0
 42
0.2
  3
txt
  4

  0
ENDTAB
  0
TABLE
  2
VIEW
 70
     0
  0
ENDTAB
  0
TABLE
  2
UCS
 70
     0
  0
ENDTAB
  0
TABLE
  2
APPID
 70
     9
  0
APPID
  2
ACAD
 70
     0
  0
APPID
  2
ACAD_MLEADERVER
 70
     0
  0
APPID
  2
ACAD_EXEMPT_FROM_CAD_STANDARDS
 70
     0
  0
APPID
  2
ACAD_NAV_VCDISPLAY
 70
     0
  0
APPID
  2
ACAECLAYERSTANDARD
 70
     0
  0
APPID
  2
ACCMTRANSPARENCY
 70
     0
  0
APPID
  2
ACAD_DSTYLE_DIMJAG
 70
     0
  0
APPID
  2
ACAD_DSTYLE_DIMTALN
 70
     0
  0
APPID
  2
ACDBATTR
 70
     0
  0
ENDTAB
  0
TABLE
  2
DIMSTYLE
 70
     1
  0
DIMSTYLE
  2
STANDARD
 70
     0
  3

  4

  5

  6

  7

 40
1.0
 41
0.1875
 42
0.0625
 43
0.38
 44
0.125
 45
0.0
 46
0.0
 47
0.01
 48
0.01
140
0.15625
141
0.09
142
0.0
143
25.3999999999999986
144
1.0
145
0.0
146
1.0
147
0.09
 71
     1
 72
     0
 73
     1
 74
     1
 75
     0
 76
     0
 77
     0
 78
     4
170
     0
171
     2
172
     0
173
     0
174
     0
175
     0
176
     0
177
     0
178
     0
  0
ENDTAB
  0
ENDSEC
  0
SECTION
  2
BLOCKS
  0
BLOCK
  8
0
  2
$MODEL_SPACE
 70
     0
 10
0.0
 20
0.0
 30
0.0
  3
$MODEL_SPACE
  1

  0
ENDBLK
  5
21
  8
0
  0
BLOCK
 67
     1
  8
0
  2
$PAPER_SPACE
 70
     0
 10
0.0
 20
0.0
 30
0.0
  3
$PAPER_SPACE
  1

  0
ENDBLK
  5
1D
 67
     1
  8
0
  0
ENDSEC
  0
SECTION
  2
ENTITIES
  0
ATTDEF
  5
3930
  8
DEFPOINTS
 10
2422.0693788483831668
 20
136.5093526297270898
 30
0.0
 40
0.001
  1
27373-4
  3

  2
MODELNUMBER
 70
     0
1001
ACDBATTR
1070
     0
1070
     1
  0
ATTDEF
  5
3931
  8
DEFPOINTS
 10
2422.0693788483831668
 20
136.5076859630603963
 30
0.0
 40
0.001
  1
LUDINGTON
  3

  2
TRADENAME
 70
     0
1001
ACDBATTR
1070
     0
1070
     1
  0
ATTDEF
  5
3932
  8
DEFPOINTS
 10
2422.0693788483831668
 20
136.5060192963937027
 30
0.0
 40
0.001
  1
BATHROOM SINK FAUCET
  3

  2
PRODUCT
 70
     0
1001
ACDBATTR
1070
     0
1070
     1
  0
LINE
  5
9027
  8
0
 10
2421.6359612010960518
 20
131.7511553688131869
 30
0.0
 11
2421.6359612010960518
 21
136.5110075039677895
 31
0.0
  0
LINE
  5
9028
  8
0
 10
2422.5109612010960518
 20
131.7671196799321933
 30
0.0
 11
2422.5109612010960518
 21
136.5110075039677895
 31
0.0
  0
LINE
  5
9029
  8
0
 10
2420.0734612010960518
 20
137.6287045156678062
 30
0.0
 11
2421.1364446590960142
 21
137.6287045156678062
 31
0.0
  0
LINE
  5
902A
  8
0
 10
2423.0104777431029106
 20
137.6287045156678062
 30
0.0
 11
2424.0734612009960074
 21
137.6287045156678062
 31
0.0
  0
ARC
  5
902B
  8
0
 10
2420.0761614746220403
 20
136.5110075039677895
 30
0.0
 40
1.1177002735260571
 50
90.1384221071994034
 51
167.3125906740058042
  0
ARC
  5
902C
  8
0
 10
2420.0761614746220403
 20
136.5110075039677895
 30
0.0
 40
1.1177002735260571
 50
192.6874093573904929
 51
269.8615778928005966
  0
LINE
  5
902D
  8
0
 10
2420.0734612010960518
 20
135.3933104923677888
 30
0.0
 11
2421.136444665532963
 21
135.3933104923677888
 31
0.0
  0
LINE
  5
902E
  8
0
 10
2423.0104777431088223
 20
135.3933104923677888
 30
0.0
 11
2424.0734612009960074
 21
135.3933104923677888
 31
0.0
  0
ARC
  5
902F
  8
0
 10
2420.0761615369588071
 20
136.5110075039677895
 30
0.0
 40
1.097700333109578
 50
90.140947396640172
 51
167.0966762830925916
  0
ARC
  5
9030
  8
0
 10
2420.0761615369588071
 20
136.5110075039677895
 30
0.0
 40
1.097700333109578
 50
192.9033237489146018
 51
269.859052603359828
  0
LINE
  5
9031
  8
0
 10
2420.0734612010960518
 20
137.6087045156679096
 30
0.0
 11
2421.1364446590960142
 21
137.6087045156679096
 31
0.0
  0
LINE
  5
9032
  8
0
 10
2423.0104777430269678
 20
137.6087045156679096
 30
0.0
 11
2424.0734612009960074
 21
137.6087045156679096
 31
0.0
  0
LINE
  5
9033
  8
0
 10
2420.0734612010960518
 20
135.413310492367799
 30
0.0
 11
2421.1364446691218291
 21
135.413310492367799
 31
0.0
  0
LINE
  5
9034
  8
0
 10
2423.0104777430888134
 20
135.413310492367799
 30
0.0
 11
2424.0734612009960074
 21
135.413310492367799
 31
0.0
  0
LINE
  5
9035
  8
0
 10
2420.2493421418721482
 20
135.7266887445678094
 30
0.0
 11
2421.1321118459268291
 21
135.7266887445678094
 31
0.0
  0
LINE
  5
9036
  8
0
 10
2420.2493466979758523
 20
137.2953260521192078
 30
0.0
 11
2421.1242641719959465
 21
137.2953262628678033
 31
0.0
  0
LINE
  5
9037
  8
0
 10
2423.0226582300961127
 20
137.2953262628678033
 30
0.0
 11
2423.8975865356142094
 21
137.2953262628678033
 31
0.0
  0
ARC
  5
9038
  8
0
 10
2424.0734612009960074
 20
136.5110075039677895
 30
0.0
 40
1.1176970117
 50
270.0
 51
347.309869245484208
  0
ARC
  5
9039
  8
0
 10
2424.0734612009960074
 20
136.5110075039677895
 30
0.0
 40
1.1176970117
 50
12.6901307231225502
 51
90.0
  0
ARC
  5
903A
  8
0
 10
2424.0734612009960074
 20
136.5110075039677895
 30
0.0
 40
1.0976970116999989
 50
270.0
 51
347.0942706729854876
  0
ARC
  5
903B
  8
0
 10
2424.0734612009960074
 20
136.5110075039677895
 30
0.0
 40
1.0976970116999989
 50
12.9057292950103299
 51
90.0
  0
ARC
  5
903C
  8
0
 10
2422.0734612010960518
 20
136.5110075039677895
 30
0.0
 40
0.4375
 50
0.0
 51
180.0
  0
ARC
  5
903D
  8
0
 10
2421.1242641726958027
 20
138.6060075015491009
 30
0.0
 40
1.310681238681298
 50
269.9999999694113058
 51
294.3743142676570983
  0
ARC
  5
903E
  8
0
 10
2423.0226582293339561
 20
138.6060075009635
 30
0.0
 40
1.3106812380957
 50
245.6258838092005874
 51
270.0000000333245112
  0
ARC
  5
903F
  8
0
 10
2421.1280131143657854
 20
134.4344617726933961
 30
0.0
 40
1.292233472109459
 50
66.8510742029330345
 51
89.818267814103848
  0
ARC
  5
9040
  8
0
 10
2421.1364446590960142
 20
138.606007503967902
 30
0.0
 40
0.9773029883000212
 50
270.0
 51
294.0972140939995825
  0
ARC
  5
9041
  8
0
 10
2422.073461201101054
 20
136.5110075039825119
 30
0.0
 40
1.317697011684573
 50
65.9027859059414709
 51
114.0972140939995967
  0
ARC
  5
9042
  8
0
 10
2423.0104777431029106
 20
138.6060075039553112
 30
0.0
 40
0.9773029882874547
 50
245.9027859059414993
 51
270.0
  0
ARC
  5
9043
  8
0
 10
2421.1364446590960142
 20
138.6060075039677031
 30
0.0
 40
0.9973029882998432
 50
270.0
 51
294.0972140940003783
  0
ARC
  5
9044
  8
0
 10
2422.0734612010610363
 20
136.5110075040722108
 30
0.0
 40
1.297697011586407
 50
65.9027859060267787
 51
114.097214094000293
  0
ARC
  5
9045
  8
0
 10
2423.0104777430269678
 20
138.606007503971
 30
0.0
 40
0.9973029883031651
 50
245.9027859060267929
 51
270.0
  0
ARC
  5
9046
  8
0
 10
2421.9728618052208731
 20
136.2504812322378882
 30
0.0
 40
1.038582186283433
 50
245.1008099953978956
 51
251.0681830118496123
  0
ARC
  5
9047
  8
0
 10
2421.1506476078347987
 20
134.4791068009243133
 30
0.0
 40
0.9143140122622753
 50
65.1008099953978956
 51
90.8900677129769861
  0
ARC
  5
9048
  8
0
 10
2421.9940011253002012
 20
136.3088666847158947
 30
0.0
 40
1.0806217398872311
 50
245.3727881355054024
 51
250.6483639510171884
  0
ARC
  5
9049
  8
0
 10
2421.1459637447860587
 20
134.4589142117891072
 30
0.0
 40
0.9544437506652498
 50
65.3727881355055018
 51
90.5714447837051324
  0
ARC
  5
904A
  8
0
 10
2422.0734612010960518
 20
136.5110075039677895
 30
0.0
 40
1.3176970116999791
 50
289.394104729305127
 51
294.0972140938878852
  0
ARC
  5
904B
  8
0
 10
2423.0104777431088223
 20
134.4160075039563083
 30
0.0
 40
0.9773029883115851
 50
90.0
 51
114.0972140938878994
  0
ARC
  5
904C
  8
0
 10
2423.0104777430888134
 20
134.416007504046803
 30
0.0
 40
0.9973029882210724
 50
90.0
 51
114.0972140948838955
  0
ARC
  5
904D
  8
0
 10
2422.0734612012897742
 20
136.5110075034858994
 30
0.0
 40
1.297697011180958
 50
289.7043429388272102
 51
294.0972140948838955
  0
ARC
  5
904E
  8
0
 10
2422.0723403768120079
 20
131.8005415804535971
 30
0.0
 40
0.4547646374715772
 50
227.3052045547917999
 51
270.1412127521854813
  0
ARC
  5
904F
  8
0
 10
2422.0777478462509862
 20
131.5613194737138087
 30
0.0
 40
0.5820828293549664
 50
207.4346793205498045
 51
269.5780516397578026
  0
ARC
  5
9050
  8
0
 10
2422.0807015325231077
 20
131.5331174524922062
 30
0.0
 40
0.572319426456502
 50
174.5585419511814109
 51
204.7916782945077045
  0
ARC
  5
9051
  8
0
 10
2422.0818314074831505
 20
131.6412778189724122
 30
0.0
 40
0.5734079857638821
 50
185.3925353188749057
 51
269.1636068109218058
  0
ARC
  5
9052
  8
0
 10
2422.0259247547269297
 20
131.5946450414226092
 30
0.0
 40
0.515014660995636
 50
139.2427203397124913
 51
180.8071851574856055
  0
ARC
  5
9053
  8
0
 10
2422.0346735069051647
 20
131.7591375269157083
 30
0.0
 40
0.3987921985816872
 50
181.1468993519440005
 51
227.2489503589183926
  0
ARC
  5
9054
  8
0
 10
2422.0745820252800513
 20
131.8005415804535971
 30
0.0
 40
0.4547646374715772
 50
269.8587872478145187
 51
312.6947954452081717
  0
ARC
  5
9055
  8
0
 10
2422.064422028413901
 20
131.5690768279912106
 30
0.0
 40
0.5898936587677271
 50
270.8780001407238274
 51
332.109268910061985
  0
ARC
  5
9056
  8
0
 10
2422.0662208695689515
 20
131.5331174524922062
 30
0.0
 40
0.572319426456502
 50
335.2083217054923239
 51
5.4414580488185136
  0
ARC
  5
9057
  8
0
 10
2422.0692738312891379
 20
131.6367484018194034
 30
0.0
 40
0.5688328866891565
 50
270.4217772655459839
 51
355.0220806046544908
  0
ARC
  5
9058
  8
0
 10
2422.1209976473651295
 20
131.5946450414226092
 30
0.0
 40
0.515014660995636
 50
359.1928148425142808
 51
40.7572796602874377
  0
ARC
  5
9059
  8
0
 10
2422.112248895187804
 20
131.7591375269157083
 30
0.0
 40
0.3987921985816872
 50
312.7510496410815222
 51
1.1468986209880709
  0
ARC
  5
905A
  8
0
 10
2418.918408040848135
 20
137.0171012511235915
 30
0.0
 40
0.2595084406802511
 50
254.8182559645501897
 51
272.1836106641151787
  0
ARC
  5
905B
  8
0
 10
2418.8800234500617989
 20
136.8503782334433936
 30
0.0
 40
0.0887986998849605
 50
212.4409118947116042
 51
250.5449636924211916
  0
ARC
  5
905C
  8
0
 10
2418.6629450783880202
 20
136.6901639682918983
 30
0.0
 40
0.1813207881027805
 50
38.3810572145802027
 51
67.9793463565118117
  0
ARC
  5
905D
  8
0
 10
2418.6282138391129592
 20
136.5810143115033952
 30
0.0
 40
0.2956588295791777
 50
69.6708196950918648
 51
88.9597093767751801
  0
ARC
  5
905E
  8
0
 10
2418.5600884724231037
 20
135.8652063385644055
 30
0.0
 40
1.014084692780026
 50
85.843991093628091
 51
89.2471596552744444
  0
ARC
  5
905F
  8
0
 10
2581.7240930503007803
 20
6684.0786305143410573
 30
0.0
 40
6549.2319001306068458
 50
268.5610937306025789
 51
268.5725329828675854
  0
ARC
  5
9060
  8
0
 10
2417.2298855747530979
 20
135.9265385214254991
 30
0.0
 40
0.9860397130457187
 50
87.8864670582060654
 51
99.4645391351505026
  0
ARC
  5
9061
  8
0
 10
2417.113359271317222
 20
136.6255295583204088
 30
0.0
 40
0.2774023946296897
 50
99.4645391351505026
 51
148.8454644207170929
  0
ARC
  5
9062
  8
0
 10
2417.3592957254868452
 20
136.5057454715752954
 30
0.0
 40
0.5503944478254076
 50
151.4203498846933087
 51
179.4522168150224957
  0
ARC
  5
9063
  8
0
 10
2419.1353095446388579
 20
144.6906066713295047
 30
0.0
 40
7.9355260589415284
 50
268.5051579285171783
 51
271.397068950051505
  0
ARC
  5
9064
  8
0
 10
2419.4186441500778528
 20
133.0729555492368945
 30
0.0
 40
3.68557957233552
 50
89.4226318379784146
 51
91.3970689500514908
  0
ARC
  5
9065
  8
0
 10
2419.4570342856500247
 20
136.8825149161120009
 30
0.0
 40
0.1241732244028082
 50
269.422631837978372
 51
289.8662220849689106
  0
ARC
  5
9066
  8
0
 10
2419.4558415418209734
 20
136.8461100171317923
 30
0.0
 40
0.0913422486062117
 50
298.3610331964628131
 51
322.9448674472595258
  0
CIRCLE
  5
9067
  8
0
 10
2420.0734612010460296
 20
136.5110075036677983
 30
0.0
 40
0.3914942833165954
  0
ARC
  5
9068
  8
0
 10
2420.0734612010460296
 20
136.5110075036677983
 30
0.0
 40
0.612501338399941
 50
207.2092677761322079
 51
152.7907322238677068
  0
ARC
  5
9069
  8
0
 10
2418.918408040848135
 20
136.0049137562120904
 30
0.0
 40
0.2595084406802511
 50
87.8163893358847787
 51
105.1817440354496966
  0
ARC
  5
906A
  8
0
 10
2418.8800234500617989
 20
136.1716367738922031
 30
0.0
 40
0.0887986998849605
 50
109.4550363075786947
 51
147.5590881052883958
  0
ARC
  5
906B
  8
0
 10
2418.6629450783880202
 20
136.3318510390438121
 30
0.0
 40
0.1813207881027805
 50
292.0206536434881741
 51
321.6189427854197902
  0
ARC
  5
906C
  8
0
 10
2418.6282138391129592
 20
136.4410006958322867
 30
0.0
 40
0.2956588295791777
 50
271.0402906232247915
 51
290.3291803049082205
  0
ARC
  5
906D
  8
0
 10
2405.4178698572318353
 20
621.7849144554077156
 30
0.0
 40
485.8193102081519896
 50
271.3974938916687734
 51
271.5588057411633827
  0
ARC
  5
906E
  8
0
 10
2417.2298855747530979
 20
137.0954764859102113
 30
0.0
 40
0.9860397130457187
 50
260.5354608648494832
 51
272.113532941793892
  0
ARC
  5
906F
  8
0
 10
2417.113359271317222
 20
136.3964854490153016
 30
0.0
 40
0.2774023946296897
 50
211.1545355792827934
 51
260.5354608648494832
  0
ARC
  5
9070
  8
0
 10
2417.3592957254868452
 20
136.5162695357605003
 30
0.0
 40
0.5503944478254076
 50
180.5477831849775043
 51
208.5796501153066913
  0
ARC
  5
9071
  8
0
 10
2419.1353095446388579
 20
128.3314083360062057
 30
0.0
 40
7.9355260589415284
 50
88.602931049948495
 51
91.4948420714828359
  0
ARC
  5
9072
  8
0
 10
2419.4186441500778528
 20
139.9490594580987874
 30
0.0
 40
3.68557957233552
 50
268.602931049948495
 51
270.577368162021628
  0
ARC
  5
9073
  8
0
 10
2419.4570342856500247
 20
136.1395000912237094
 30
0.0
 40
0.1241732244028082
 50
70.1337779150310752
 51
90.5773681620215854
  0
ARC
  5
9074
  8
0
 10
2419.4558415418209734
 20
136.1759049902038043
 30
0.0
 40
0.0913422486062117
 50
37.0551325527405098
 51
61.6389668035371869
  0
CIRCLE
  5
9075
  8
0
 10
2420.0734612010460296
 20
136.5110075036677983
 30
0.0
 40
0.5302588684059338
  0
ARC
  5
9076
  8
0
 10
2420.0734612010460296
 20
136.5110075036677983
 30
0.0
 40
0.8037972513152167
 50
197.8179746003413868
 51
162.1820253996586132
  0
ARC
  5
9077
  8
0
 10
2422.0734784338960708
 20
136.5110075036677983
 30
0.0
 40
0.4570172330000029
 50
343.1875380858658104
 51
196.7975166003348022
  0
ARC
  5
9078
  8
0
 10
2422.0734612010960518
 20
136.5110075036677983
 30
0.0
 40
0.5544219291000001
 50
322.1024359957266938
 51
217.8975640042733062
  0
ARC
  5
9079
  8
0
 10
2422.0734612010960518
 20
136.5110075036677983
 30
0.0
 40
0.9893187590999986
 50
296.2458351901124729
 51
243.7541648098874134
  0
ARC
  5
907A
  8
0
 10
2425.2285143613448781
 20
137.0171012511235915
 30
0.0
 40
0.2595084406802511
 50
267.8163893358848213
 51
285.1817440354498103
  0
ARC
  5
907B
  8
0
 10
2425.2668989521312142
 20
136.8503782334433936
 30
0.0
 40
0.0887986998849605
 50
289.4550363075787232
 51
327.5590881052884242
  0
ARC
  5
907C
  8
0
 10
2425.4839773238049929
 20
136.6901639682918983
 30
0.0
 40
0.1813207881027805
 50
112.0206536434882025
 51
141.6189427854197902
  0
ARC
  5
907D
  8
0
 10
2425.5187085630800539
 20
136.5810143115033952
 30
0.0
 40
0.2956588295791777
 50
91.0402906232248341
 51
110.3291803049081068
  0
ARC
  5
907E
  8
0
 10
2425.5868339297699094
 20
135.8652063385644055
 30
0.0
 40
1.014084692780026
 50
90.7528403447255556
 51
94.156008906371909
  0
ARC
  5
907F
  8
0
 10
2262.4228293518908686
 20
6684.0786305143410573
 30
0.0
 40
6549.2319001306068458
 50
271.4274670171324146
 51
271.4389062693974211
  0
ARC
  5
9080
  8
0
 10
2426.9170368274399152
 20
135.9265385214254991
 30
0.0
 40
0.9860397130457187
 50
80.5354608648494832
 51
92.1135329417939204
  0
ARC
  5
9081
  8
0
 10
2427.0335631308757911
 20
136.6255295583204088
 30
0.0
 40
0.2774023946296897
 50
31.1545355792828111
 51
80.5354608648494832
  0
ARC
  5
9082
  8
0
 10
2426.7876266767048037
 20
136.5057454715752954
 30
0.0
 40
0.5503944478254076
 50
0.5477831849774976
 51
28.5796501153066487
  0
ARC
  5
9083
  8
0
 10
2425.011612857552791
 20
144.6906066713295047
 30
0.0
 40
7.9355260589415284
 50
268.602931049948495
 51
271.4948420714828785
  0
ARC
  5
9084
  8
0
 10
2424.728278252113796
 20
133.0729555492368945
 30
0.0
 40
3.68557957233552
 50
88.602931049948495
 51
90.5773681620215854
  0
ARC
  5
9085
  8
0
 10
2424.6898881165429884
 20
136.8825149161120009
 30
0.0
 40
0.1241732244028082
 50
250.1337779150310894
 51
270.577368162021628
  0
ARC
  5
9086
  8
0
 10
2424.6910808603711303
 20
136.8461100171317923
 30
0.0
 40
0.0913422486062117
 50
217.0551325527391953
 51
241.6389668035371869
  0
CIRCLE
  5
9087
  8
0
 10
2424.073461201146074
 20
136.5110075036677983
 30
0.0
 40
0.3914942833165954
  0
ARC
  5
9088
  8
0
 10
2424.073461201146074
 20
136.5110075036677983
 30
0.0
 40
0.612501338399941
 50
27.2092677761322399
 51
332.7907322238676784
  0
ARC
  5
9089
  8
0
 10
2425.2285143613448781
 20
136.0049137562120904
 30
0.0
 40
0.2595084406802511
 50
74.8182559645502323
 51
92.1836106641152355
  0
ARC
  5
908A
  8
0
 10
2425.2668989521312142
 20
136.1716367738922031
 30
0.0
 40
0.0887986998849605
 50
32.44091189471159
 51
70.5449636924212484
  0
ARC
  5
908B
  8
0
 10
2425.4839773238049929
 20
136.3318510390438121
 30
0.0
 40
0.1813207881027805
 50
218.3810572145802098
 51
247.9793463565117975
  0
ARC
  5
908C
  8
0
 10
2425.5187085630800539
 20
136.4410006958322867
 30
0.0
 40
0.2956588295791777
 50
249.6708196950918932
 51
268.9597093767752085
  0
ARC
  5
908D
  8
0
 10
2438.7290525449611778
 20
621.7849144554077156
 30
0.0
 40
485.8193102081519896
 50
268.4411942588365036
 51
268.6025061083312266
  0
ARC
  5
908E
  8
0
 10
2426.9170368274399152
 20
137.0954764859102113
 30
0.0
 40
0.9860397130457187
 50
267.8864670582059944
 51
279.4645391351505168
  0
ARC
  5
908F
  8
0
 10
2427.0335631308757911
 20
136.3964854490153016
 30
0.0
 40
0.2774023946296897
 50
279.4645391351505168
 51
328.8454644207171782
  0
ARC
  5
9090
  8
0
 10
2426.7876266767048037
 20
136.5162695357605003
 30
0.0
 40
0.5503944478254076
 50
331.4203498846932803
 51
359.4522168150224957
  0
ARC
  5
9091
  8
0
 10
2425.011612857552791
 20
128.3314083360062057
 30
0.0
 40
7.9355260589415284
 50
88.5051579285171357
 51
91.3970689500514908
  0
ARC
  5
9092
  8
0
 10
2424.728278252113796
 20
139.9490594580987874
 30
0.0
 40
3.68557957233552
 50
269.422631837978372
 51
271.397068950051505
  0
ARC
  5
9093
  8
0
 10
2424.6898881165429884
 20
136.1395000912237094
 30
0.0
 40
0.1241732244028082
 50
89.4226318379784146
 51
109.8662220849688964
  0
ARC
  5
9094
  8
0
 10
2424.6910808603711303
 20
136.1759049902038043
 30
0.0
 40
0.0913422486062117
 50
118.3610331964627989
 51
142.9448674472594973
  0
CIRCLE
  5
9095
  8
0
 10
2424.073461201146074
 20
136.5110075036677983
 30
0.0
 40
0.5302588684059338
  0
ARC
  5
9096
  8
0
 10
2424.073461201146074
 20
136.5110075036677983
 30
0.0
 40
0.8037972513152167
 50
17.8179746003414117
 51
342.1820253996585848
  0
LINE
  5
9097
  8
0
 10
2423.8975802603199554
 20
135.7266887445678094
 30
0.0
 11
2423.0148105562648198
 21
135.7266887445678094
 31
0.0
  0
ARC
  5
9098
  8
0
 10
2423.0189092878258634
 20
134.4344617726933961
 30
0.0
 40
1.292233472109459
 50
90.1817321858961378
 51
113.1489257970668945
  0
ENDSEC
  0
EOF
