  0
SECTION
  2
HEADER
  9
$ACADVER
  1
AC1009
  9
$INSBASE
 10
2440.8759710011740935
 20
136.1273788261023867
 30
0.0
  9
$EXTMIN
 10
2437.6897769246947973
 20
136.1130132826511954
 30
-0.0000000000112498
  9
$EXTMAX
 10
2444.0298634435021086
 20
143.7226050939721063
 30
0.0000000000002956
  9
$LIMMIN
 10
0.0
 20
0.0
  9
$LIMMAX
 10
11.6929133858000007
 20
8.2677165353999982
  9
$ORTHOMODE
 70
     0
  9
$REGENMODE
 70
     1
  9
$FILLMODE
 70
     1
  9
$QTEXTMODE
 70
     0
  9
$MIRRTEXT
 70
     0
  9
$DRAGMODE
 70
     2
  9
$LTSCALE
 40
0.6431102362
  9
$OSMODE
 70
  4095
  9
$ATTMODE
 70
     1
  9
$TEXTSIZE
 40
0.2
  9
$TRACEWID
 40
0.05
  9
$TEXTSTYLE
  7
STANDARD
  9
$CLAYER
  8
0
  9
$CELTYPE
  6
BYLAYER
  9
$CECOLOR
 62
   256
  9
$DIMSCALE
 40
1.0
  9
$DIMASZ
 40
0.1875
  9
$DIMEXO
 40
0.0625
  9
$DIMDLI
 40
0.4443307087
  9
$DIMRND
 40
0.0
  9
$DIMDLE
 40
0.0
  9
$DIMEXE
 40
0.125
  9
$DIMTP
 40
0.01
  9
$DIMTM
 40
0.01
  9
$DIMTXT
 40
2.0
  9
$DIMCEN
 40
0.1052362205
  9
$DIMTSZ
 40
0.0
  9
$DIMTOL
 70
     1
  9
$DIMLIM
 70
     0
  9
$DIMTIH
 70
     1
  9
$DIMTOH
 70
     1
  9
$DIMSE1
 70
     0
  9
$DIMSE2
 70
     0
  9
$DIMTAD
 70
     0
  9
$DIMZIN
 70
     0
  9
$DIMBLK
  1

  9
$DIMASO
 70
     1
  9
$DIMSHO
 70
     1
  9
$DIMPOST
  1
\X
  9
$DIMAPOST
  1

  9
$DIMALT
 70
     1
  9
$DIMALTD
 70
     2
  9
$DIMALTF
 40
25.3999999999999986
  9
$DIMLFAC
 40
1.0
  9
$DIMTOFL
 70
     0
  9
$DIMTVP
 40
0.0
  9
$DIMTIX
 70
     0
  9
$DIMSOXD
 70
     0
  9
$DIMSAH
 70
     0
  9
$DIMBLK1
  1

  9
$DIMBLK2
  1

  9
$DIMSTYLE
  2
STANDARD
  9
$DIMCLRD
 70
     0
  9
$DIMCLRE
 70
     0
  9
$DIMCLRT
 70
     0
  9
$DIMTFAC
 40
1.0
  9
$DIMGAP
 40
0.09
  9
$LUNITS
 70
     2
  9
$LUPREC
 70
     4
  9
$SKETCHINC
 40
0.1
  9
$FILLETRAD
 40
0.0
  9
$AUNITS
 70
     0
  9
$AUPREC
 70
     0
  9
$MENU
  1
.
  9
$ELEVATION
 40
0.0
  9
$PELEVATION
 40
0.0
  9
$THICKNESS
 40
0.0
  9
$LIMCHECK
 70
     0
  9
$BLIPMODE
 70
     0
  9
$CHAMFERA
 40
0.0
  9
$CHAMFERB
 40
0.0
  9
$SKPOLY
 70
     0
  9
$TDCREATE
 40
2458060.468368056230247
  9
$TDUPDATE
 40
2459578.4639814822003245
  9
$TDINDWG
 40
0.3260255787
  9
$TDUSRTIMER
 40
0.3260255787
  9
$USRTIMER
 70
     1
  9
$ANGBASE
 50
0.0
  9
$ANGDIR
 70
     0
  9
$PDMODE
 70
     0
  9
$PDSIZE
 40
0.3125
  9
$PLINEWID
 40
0.0
  9
$COORDS
 70
     1
  9
$SPLFRAME
 70
     0
  9
$SPLINETYPE
 70
     6
  9
$SPLINESEGS
 70
     8
  9
$ATTDIA
 70
     1
  9
$ATTREQ
 70
     1
  9
$HANDLING
 70
     1
  9
$HANDSEED
  5
A3D4
  9
$SURFTAB1
 70
     6
  9
$SURFTAB2
 70
     6
  9
$SURFTYPE
 70
     6
  9
$SURFU
 70
     6
  9
$SURFV
 70
     6
  9
$UCSNAME
  2

  9
$UCSORG
 10
0.0
 20
0.0
 30
0.0
  9
$UCSXDIR
 10
1.0
 20
0.0
 30
0.0
  9
$UCSYDIR
 10
0.0
 20
1.0
 30
0.0
  9
$PUCSNAME
  2

  9
$PUCSORG
 10
0.0
 20
0.0
 30
0.0
  9
$PUCSXDIR
 10
1.0
 20
0.0
 30
0.0
  9
$PUCSYDIR
 10
0.0
 20
1.0
 30
0.0
  9
$USERI1
 70
     0
  9
$USERI2
 70
     0
  9
$USERI3
 70
     0
  9
$USERI4
 70
     0
  9
$USERI5
 70
     0
  9
$USERR1
 40
0.0
  9
$USERR2
 40
0.0
  9
$USERR3
 40
0.0
  9
$USERR4
 40
0.0
  9
$USERR5
 40
0.0
  9
$WORLDVIEW
 70
     1
  9
$SHADEDGE
 70
     3
  9
$SHADEDIF
 70
    70
  9
$TILEMODE
 70
     1
  9
$MAXACTVP
 70
    64
  9
$PLIMCHECK
 70
     0
  9
$PEXTMIN
 10
1.0000000000000000E+20
 20
1.0000000000000000E+20
 30
1.0000000000000000E+20
  9
$PEXTMAX
 10
-1.0000000000000000E+20
 20
-1.0000000000000000E+20
 30
-1.0000000000000000E+20
  9
$PLIMMIN
 10
0.0
 20
0.0
  9
$PLIMMAX
 10
12.0
 20
9.0
  9
$UNITMODE
 70
     0
  9
$VISRETAIN
 70
     1
  9
$PLINEGEN
 70
     0
  9
$PSLTSCALE
 70
     1
  0
ENDSEC
  0
SECTION
  2
TABLES
  0
TABLE
  2
VPORT
 70
     1
  0
VPORT
  2
*ACTIVE
 70
     0
 10
0.0
 20
0.0
 11
1.0
 21
1.0
 12
98.8849666684727708
 22
3.584311608119747
 13
0.0
 23
0.0
 14
1.0
 24
1.0
 15
0.0
 25
0.0
 16
0.0
 26
0.0
 36
48.1717359839548322
 17
2341.974853515625
 27
136.3334975801919029
 37
0.0
 40
7.6709481824178756
 41
2.0410052910052912
 42
50.0
 43
0.0
 44
0.0
 50
0.0
 51
0.0
 71
     0
 72
   100
 73
     1
 74
     1
 75
     0
 76
     0
 77
     0
 78
     0
  0
ENDTAB
  0
TABLE
  2
LTYPE
 70
     2
  0
LTYPE
  2
CONTINUOUS
 70
     0
  3
Solid line
 72
    65
 73
     0
 40
0.0
  0
LTYPE
  2
PHANTOM2
 70
     0
  3
___ _ _ ___ _ _ ___ _ _ ___ _ _
 72
    65
 73
     6
 40
1.25
 49
0.625
 49
-0.125
 49
0.125
 49
-0.125
 49
0.125
 49
-0.125
  0
ENDTAB
  0
TABLE
  2
LAYER
 70
     2
  0
LAYER
  2
0
 70
     0
 62
   255
  6
CONTINUOUS
  0
LAYER
  2
DEFPOINTS
 70
     0
 62
     7
  6
CONTINUOUS
  0
ENDTAB
  0
TABLE
  2
STYLE
 70
     1
  0
STYLE
  2
STANDARD
 70
     0
 40
0.0
 41
0.8
 50
0.0
 71
     0
 42
0.2
  3
txt
  4

  0
ENDTAB
  0
TABLE
  2
VIEW
 70
     0
  0
ENDTAB
  0
TABLE
  2
UCS
 70
     0
  0
ENDTAB
  0
TABLE
  2
APPID
 70
     9
  0
APPID
  2
ACAD
 70
     0
  0
APPID
  2
ACAD_MLEADERVER
 70
     0
  0
APPID
  2
ACAD_EXEMPT_FROM_CAD_STANDARDS
 70
     0
  0
APPID
  2
ACAD_NAV_VCDISPLAY
 70
     0
  0
APPID
  2
ACAECLAYERSTANDARD
 70
     0
  0
APPID
  2
ACCMTRANSPARENCY
 70
     0
  0
APPID
  2
ACAD_DSTYLE_DIMJAG
 70
     0
  0
APPID
  2
ACAD_DSTYLE_DIMTALN
 70
     0
  0
APPID
  2
ACDBATTR
 70
     0
  0
ENDTAB
  0
TABLE
  2
DIMSTYLE
 70
     1
  0
DIMSTYLE
  2
STANDARD
 70
     0
  3

  4

  5

  6

  7

 40
1.0
 41
0.1875
 42
0.0625
 43
0.38
 44
0.125
 45
0.0
 46
0.0
 47
0.01
 48
0.01
140
0.15625
141
0.09
142
0.0
143
25.3999999999999986
144
1.0
145
0.0
146
1.0
147
0.09
 71
     1
 72
     0
 73
     1
 74
     1
 75
     0
 76
     0
 77
     0
 78
     4
170
     0
171
     2
172
     0
173
     0
174
     0
175
     0
176
     0
177
     0
178
     0
  0
ENDTAB
  0
ENDSEC
  0
SECTION
  2
BLOCKS
  0
BLOCK
  8
0
  2
$MODEL_SPACE
 70
     0
 10
0.0
 20
0.0
 30
0.0
  3
$MODEL_SPACE
  1

  0
ENDBLK
  5
21
  8
0
  0
BLOCK
 67
     1
  8
0
  2
$PAPER_SPACE
 70
     0
 10
0.0
 20
0.0
 30
0.0
  3
$PAPER_SPACE
  1

  0
ENDBLK
  5
1D
 67
     1
  8
0
  0
ENDSEC
  0
SECTION
  2
ENTITIES
  0
ATTDEF
  5
3930
  8
DEFPOINTS
 10
2440.8696054777101381
 20
136.1257662537861961
 30
0.0
 40
0.001
  1
K-27371-4N
  3

  2
MODELNUMBER
 70
     0
1001
ACDBATTR
1070
     0
1070
     1
  0
ATTDEF
  5
3931
  8
DEFPOINTS
 10
2440.8696054777101381
 20
136.1240995871195878
 30
0.0
 40
0.001
  1
MEDLEY
  3

  2
TRADENAME
 70
     0
1001
ACDBATTR
1070
     0
1070
     1
  0
ATTDEF
  5
3932
  8
DEFPOINTS
 10
2440.8696054777101381
 20
136.1224329204528942
 30
0.0
 40
0.001
  1
BATHROOM SINK FAUCET
  3

  2
PRODUCT
 70
     0
1001
ACDBATTR
1070
     0
1070
     1
  0
LINE
  5
9D59
  8
0
 10
2443.962250028192102
 20
136.1273788261023867
 30
0.0
 11
2437.7705775589561199
 21
136.1273788261023867
 31
0.0
  0
LINE
  5
9D5A
  8
0
 10
2443.9619009268080845
 20
136.1673788254956889
 30
0.0
 11
2437.7709266603401375
 21
136.1673788254956889
 31
0.0
  0
LINE
  5
9D5B
  8
0
 10
2441.9560924398911084
 20
136.6965804093138104
 30
0.0
 11
2439.7958495624570787
 21
136.6965804093138104
 31
0.0
  0
ARC
  5
9D5C
  8
0
 10
2437.9024590906278718
 20
136.2790025432398977
 30
0.0
 40
0.0800361238334465
 50
89.961961179223124
 51
161.2730665964573973
  0
LINE
  5
9D5D
  8
0
 10
2437.7846295184740484
 20
136.180586772013811
 30
0.0
 11
2437.8266601223740508
 21
136.3046987984137957
 31
0.0
  0
LINE
  5
9D5E
  8
0
 10
2437.7609281833738351
 20
136.1575533487138046
 30
0.0
 11
2437.7605790820048242
 21
136.1375533502148016
 31
0.0
  0
ARC
  5
9D5F
  8
0
 10
2437.7705775589561199
 20
136.137378826102406
 30
0.0
 40
0.01
 50
178.999999724493307
 51
270.0
  0
ARC
  5
9D60
  8
0
 10
2437.7709266603401375
 20
136.157378825495698
 30
0.0
 40
0.0100000000000008
 50
90.0
 51
179.0000048497884961
  0
ARC
  5
9D61
  8
0
 10
2439.7955659279650718
 20
136.6861485845440995
 30
0.0
 40
0.0104356799754948
 50
88.4425489438175561
 51
189.1114659452551905
  0
ARC
  5
9D62
  8
0
 10
2439.8213767870938682
 20
136.6364883564822037
 30
0.0
 40
0.0600751245044319
 50
126.9531426455895939
 51
176.7426271871622134
  0
ARC
  5
9D63
  8
0
 10
2439.5937038331931035
 20
136.6395133054446092
 30
0.0
 40
0.1676953389871929
 50
335.2725017078814744
 51
0.1327698852176265
  0
ARC
  5
9D64
  8
0
 10
2439.4519802624699878
 20
136.7477652411012912
 30
0.0
 40
0.3439292741510163
 50
277.3353769263970889
 51
328.7542679177163905
  0
ARC
  5
9D65
  8
0
 10
2438.7798854214438506
 20
141.8831429304034089
 30
0.0
 40
5.5230998694614284
 50
268.7595465454256782
 51
277.4487065169038829
  0
ARC
  5
9D66
  8
0
 10
2437.7617286345662251
 20
307.6798167604684977
 30
0.0
 40
171.3208359557876861
 50
270.0470830446492982
 51
270.3005221719972724
  0
LINE
  5
9D67
  8
0
 10
2439.7853547257741411
 20
136.7182740094137898
 30
0.0
 11
2440.1633715111738638
 21
141.1030860868137893
 31
0.0
  0
ARC
  5
9D68
  8
0
 10
2439.8052798142830397
 20
136.7165775841430957
 30
0.0
 40
0.0199971750702888
 50
175.1335640694397
 51
270.008894394863205
  0
ARC
  5
9D69
  8
0
 10
2440.8766901320977922
 20
142.3407792179476985
 30
0.0
 40
1.376335043610093
 50
90.0299368739849086
 51
104.230424618546806
  0
ARC
  5
9D6A
  8
0
 10
2440.7751981060268918
 20
142.8241491584722098
 30
0.0
 40
0.8830850536442902
 50
105.5570620330482967
 51
119.4279026094944953
  0
ARC
  5
9D6B
  8
0
 10
2440.4089146193418856
 20
143.4909743649104996
 30
0.0
 40
0.1226342446935847
 50
123.4521232006669038
 51
165.6155489940560983
  0
ARC
  5
9D6C
  8
0
 10
2453.3209223412800384
 20
140.8990400140255872
 30
0.0
 40
13.2920526715512395
 50
168.6214217324034905
 51
175.8397214229551082
  0
ARC
  5
9D6D
  8
0
 10
2467.3540176820852139
 20
139.3900039721341102
 30
0.0
 40
27.4019746611969097
 50
174.8213735701353926
 51
176.1781152551529033
  0
ARC
  5
9D6E
  8
0
 10
2440.0454408269310989
 20
141.2143147357971884
 30
0.0
 40
0.0325303917879396
 50
176.1781152551529033
 51
236.7910445643441903
  0
ARC
  5
9D6F
  8
0
 10
2440.7147108356689387
 20
142.1478508530553881
 30
0.0
 40
1.1811585978241399
 50
234.4293966567082919
 51
251.8903974323993964
  0
ARC
  5
9D70
  8
0
 10
2441.0104091292641897
 20
142.9853874865551973
 30
0.0
 40
2.069224001187687
 50
251.3168228272004967
 51
258.2845672662842844
  0
ARC
  5
9D71
  8
0
 10
2440.6429954858808742
 20
141.1652689735026058
 30
0.0
 40
0.2126449309401588
 50
255.6384400081458068
 51
269.7990492960452116
  0
ARC
  5
9D72
  8
0
 10
2440.3290585583140455
 20
136.6422535399719038
 30
0.0
 40
0.0547203663607191
 50
129.4688521886160117
 51
182.1136933414672967
  0
ARC
  5
9D73
  8
0
 10
2440.1349801980400116
 20
136.6350905632488946
 30
0.0
 40
0.1394901332587022
 50
342.3044353781854738
 51
2.1136933414673602
  0
ARC
  5
9D74
  8
0
 10
2440.0307009229818505
 20
136.6904921606601135
 30
0.0
 40
0.2565430980497125
 50
315.6613978399706184
 51
337.5903497500688104
  0
ARC
  5
9D75
  8
0
 10
2439.8815741150829126
 20
136.8945326855404971
 30
0.0
 40
0.5075220894860225
 50
279.3161761295153838
 51
310.9473122118665742
  0
ARC
  5
9D76
  8
0
 10
2439.3083271976329343
 20
140.3889565030717961
 30
0.0
 40
4.0486532427894852
 50
268.4890137873753133
 51
279.3161761295153838
  0
ARC
  5
9D77
  8
0
 10
2438.9924705501439348
 20
168.3323289432318859
 30
0.0
 40
31.9913012715860496
 50
268.8673246682434979
 51
270.3744951748367953
  0
ARC
  5
9D78
  8
0
 10
2438.9369000309397961
 20
167.6983923934016047
 30
0.0
 40
31.3564196171726692
 50
268.1095797884416925
 51
268.9459477175568054
  0
LINE
  5
9D79
  8
0
 10
2440.5355166371500673
 20
140.9713951608437981
 30
0.0
 11
2440.2783601357741645
 21
136.7199846065138047
 31
0.0
  0
ARC
  5
9D7A
  8
0
 10
2440.2997141262999321
 20
136.7174484036499109
 30
0.0
 40
0.0215040748776883
 50
173.2267380769075089
 51
256.0295727527706049
  0
ARC
  5
9D7B
  8
0
 10
2443.1687774972701845
 20
141.4503821138052899
 30
0.0
 40
0.0308226991505682
 50
10.7416273982552095
 51
71.1044911667009956
  0
ARC
  5
9D7C
  8
0
 10
2434.8000762820861382
 20
139.7254094409171898
 30
0.0
 40
8.575448217923034
 50
355.6054939006182849
 51
11.6435474834162207
  0
ARC
  5
9D7D
  8
0
 10
2440.6561772132349688
 20
139.2782197802794997
 30
0.0
 40
2.7022999036449651
 50
337.7680747544255837
 51
355.5452884018022246
  0
ARC
  5
9D7E
  8
0
 10
2442.5581867413388863
 20
138.5042854366361951
 30
0.0
 40
0.648870832343083
 50
303.5527530535845813
 51
337.4821636734590129
  0
ARC
  5
9D7F
  8
0
 10
2442.9010612157708238
 20
137.9907410978138103
 30
0.0
 40
0.0314441599196701
 50
201.9413964350607955
 51
300.0784879208168263
  0
ARC
  5
9D80
  8
0
 10
3440.385200285180872
 20
541.1861757498894576
 30
0.0
 40
1075.9223150998980145
 50
201.972500675591192
 51
202.0091663762781877
  0
ARC
  5
9D81
  8
0
 10
2442.649279776118874
 20
138.6340092953066119
 30
0.0
 40
0.0389205891015545
 50
177.4731922030100861
 51
205.2286246686039988
  0
LINE
  5
9D82
  8
0
 10
2442.6103970293738712
 20
139.3571404844138044
 30
0.0
 11
2442.6103970293738712
 21
138.6357251803738961
 31
0.0
  0
ARC
  5
9D83
  8
0
 10
2442.6404864226988138
 20
139.3570510299541922
 30
0.0
 40
0.0300895262971374
 50
89.3917629277775347
 51
179.8296626375866936
  0
ARC
  5
9D84
  8
0
 10
2442.6816232264359314
 20
139.7514970605029134
 30
0.0
 40
0.3666373641289191
 50
263.6080652163827267
 51
318.0107512737714046
  0
ARC
  5
9D85
  8
0
 10
2442.2920515607370362
 20
139.9658022357197922
 30
0.0
 40
0.8059584107701933
 50
325.2336768505330156
 51
5.7610418058365847
  0
ARC
  5
9D86
  8
0
 10
2435.9490017458679176
 20
139.5634624733226872
 30
0.0
 40
7.1612606577061424
 50
3.869258210866418
 51
15.7019083181296999
  0
ARC
  5
9D87
  8
0
 10
2442.8745402234690118
 20
141.506142484186114
 30
0.0
 40
0.0318518784346582
 50
90.7906030003093036
 51
188.3219069290423988
  0
ARC
  5
9D88
  8
0
 10
2442.8145629006780837
 20
140.404407743306308
 30
0.0
 40
1.135146026440488
 50
71.2864773776516358
 51
86.9934863295817991
  0
LINE
  5
9D89
  8
0
 10
2442.5059905421740041
 20
139.3612832601081095
 30
0.0
 11
2442.5059905421740041
 21
137.8429362619858978
 31
0.0
  0
ARC
  5
9D8A
  8
0
 10
2442.3792352501950518
 20
137.3206297924859882
 30
0.0
 40
0.4387772413062995
 50
110.6367270031531973
 51
166.7580955039240962
  0
ARC
  5
9D8B
  8
0
 10
2443.6661566642160324
 20
137.104465807258407
 30
0.0
 40
1.74303974343719
 50
169.5325002346083068
 51
184.0806218357315061
  0
ARC
  5
9D8C
  8
0
 10
2442.155990542174095
 20
138.606537953913886
 30
0.0
 40
0.8050621093998127
 50
55.6368258610957866
 51
62.4844715685117009
  0
ARC
  5
9D8D
  8
0
 10
2442.5209905421511394
 20
139.3072327068288132
 30
0.0
 40
0.0149999999770019
 50
62.4844685751384716
 51
180.0000000575475951
  0
ARC
  5
9D8E
  8
0
 10
2442.155990542174095
 20
138.606537953913886
 30
0.0
 40
0.8050621094001817
 50
297.5155284315122231
 51
303.8885402497934933
  0
ARC
  5
9D8F
  8
0
 10
2442.5993005487398477
 20
137.9465379533808971
 30
0.0
 40
0.009999996967791
 50
303.8885402497926975
 51
0.0327539055812101
  0
ARC
  5
9D90
  8
0
 10
2466.7849130231529671
 20
137.9603639866498952
 30
0.0
 40
24.1756164293645917
 50
179.9672460944171064
 51
180.0327539055811883
  0
ARC
  5
9D91
  8
0
 10
2442.6684746405098849
 20
137.9634023533087088
 30
0.0
 40
0.0601483510526189
 50
149.5058875207988933
 51
169.6735758307355866
  0
ARC
  5
9D92
  8
0
 10
2111.9792485363991545
 20
369.5201449925085058
 30
0.0
 40
403.6402845035055975
 50
324.9986718528459164
 51
325.0377892951188983
  0
ARC
  5
9D93
  8
0
 10
2442.5209905421511394
 20
137.905843200998703
 30
0.0
 40
0.0149999999770048
 50
179.999999942463802
 51
297.5155314248592049
  0
ARC
  5
9D94
  8
0
 10
2442.4542614370097908
 20
141.9272049761709127
 30
0.0
 40
2.5359470901170691
 50
259.6810224698041907
 51
270.502713896483499
  0
ARC
  5
9D95
  8
0
 10
2442.0570203787688115
 20
139.7454366638187082
 30
0.0
 40
0.3183101885623929
 50
194.2402433289236114
 51
259.6810224698041907
  0
ARC
  5
9D96
  8
0
 10
2445.7724871564651039
 20
140.6883715455562935
 30
0.0
 40
4.1515620153226971
 50
185.8391190959034986
 51
194.2402433289236114
  0
ARC
  5
9D97
  8
0
 10
2469.6724420385198755
 20
143.1325278042590128
 30
0.0
 40
28.1761690502200786
 50
184.1300636324430968
 51
185.8391190959034986
  0
ARC
  5
9D98
  8
0
 10
2443.8303684965208049
 20
136.2790025432398977
 30
0.0
 40
0.0800361238334465
 50
18.7269334035426098
 51
90.038038820776876
  0
LINE
  5
9D99
  8
0
 10
2443.9487582641049812
 20
136.1805867864258914
 30
0.0
 11
2443.9061674647741711
 21
136.3046987984137957
 31
0.0
  0
LINE
  5
9D9A
  8
0
 10
2443.9718994037739321
 20
136.1575533487138046
 30
0.0
 11
2443.972248505142943
 21
136.1375533502148016
 31
0.0
  0
ARC
  5
9D9B
  8
0
 10
2443.962250028192102
 20
136.137378826102406
 30
0.0
 40
0.01
 50
270.0
 51
1.000000275506632
  0
ARC
  5
9D9C
  8
0
 10
2443.9619009268080845
 20
136.157378825495698
 30
0.0
 40
0.0100000000000042
 50
0.9999951502244901
 51
89.9999999999739515
  0
ARC
  5
9D9D
  8
0
 10
2442.9460858371471659
 20
141.4616054218757881
 30
0.0
 40
5.1018346043168679
 50
262.2267781222005283
 51
271.4199192753160901
  0
ARC
  5
9D9E
  8
0
 10
2443.9710989525819969
 20
307.6798167604684977
 30
0.0
 40
171.3208359557876861
 50
269.6994778280027276
 51
269.9529169553508154
  0
ARC
  5
9D9F
  8
0
 10
2441.4037690288341764
 20
136.6422535399719038
 30
0.0
 40
0.0547203663607191
 50
357.8863066585327033
 51
50.531147811361798
  0
ARC
  5
9DA0
  8
0
 10
2441.5978473891082103
 20
136.6350905632488946
 30
0.0
 40
0.1394901332587022
 50
177.8863066585325896
 51
197.6955646218144125
  0
ARC
  5
9DA1
  8
0
 10
2441.7021266641659167
 20
136.6904921606601135
 30
0.0
 40
0.2565430980497125
 50
202.409650249929598
 51
224.33860216002941
  0
ARC
  5
9DA2
  8
0
 10
2441.8512534720662188
 20
136.8945326855404971
 30
0.0
 40
0.5075220894860225
 50
229.0526877881333974
 51
260.6838238704845025
  0
ARC
  5
9DA3
  8
0
 10
2442.4245003895161972
 20
140.3889565030717961
 30
0.0
 40
4.0486532427894852
 50
260.6838238704845025
 51
271.5109862126246867
  0
ARC
  5
9DA4
  8
0
 10
2442.7403570370038324
 20
168.3323289432318859
 30
0.0
 40
31.9913012715860496
 50
269.6255048251632047
 51
271.1326753317566158
  0
ARC
  5
9DA5
  8
0
 10
2442.7959275562079711
 20
167.6983923934016047
 30
0.0
 40
31.3564196171726692
 50
271.0540522824431946
 51
271.8904202115583075
  0
ARC
  5
9DA6
  8
0
 10
2454.0552071739721214
 20
137.7707689875043968
 30
0.0
 40
12.1533966404587002
 50
183.728588260309408
 51
184.9680445089198031
  0
ARC
  5
9DA7
  8
0
 10
2441.9275707611009238
 20
136.716553655948303
 30
0.0
 40
0.019973267997317
 50
269.9162002388897008
 51
4.9680445089198866
  0
ARC
  5
9DA8
  8
0
 10
2442.4759601664359252
 20
139.3613301488441891
 30
0.0
 40
0.0300304123434633
 50
359.9105397641276909
 51
88.947878427205211
  0
ARC
  5
9DA9
  8
0
 10
2440.8541057892189201
 20
142.3301083557248035
 30
0.0
 40
1.3871780524326149
 50
75.7965802489389233
 51
89.0968453956412105
  0
ARC
  5
9DAA
  8
0
 10
2440.9576294811208754
 20
142.8241491584722098
 30
0.0
 40
0.8830850536442902
 50
60.5720973905054478
 51
74.442937966951618
  0
ARC
  5
9DAB
  8
0
 10
2441.3239129678067911
 20
143.4909743649104996
 30
0.0
 40
0.1226342446935847
 50
14.3844510059439497
 51
56.5478767993331033
  0
ARC
  5
9DAC
  8
0
 10
2428.4119052458681836
 20
140.8990400140255872
 30
0.0
 40
13.2920526715512395
 50
4.1602785770448323
 51
11.3785782675965308
  0
ARC
  5
9DAD
  8
0
 10
2414.378809905063008
 20
139.3900039721341102
 30
0.0
 40
27.4019746611969097
 50
3.821884744847047
 51
5.1786264298645568
  0
ARC
  5
9DAE
  8
0
 10
2441.6873867602171231
 20
141.2143147357971884
 30
0.0
 40
0.0325303917879396
 50
303.208955435655696
 51
3.821884744847047
  0
ARC
  5
9DAF
  8
0
 10
2441.0181167514801928
 20
142.1478508530553881
 30
0.0
 40
1.1811585978241399
 50
288.1096025676005183
 51
305.5706033432917934
  0
ARC
  5
9DB0
  8
0
 10
2440.7224184578840323
 20
142.9853874865551973
 30
0.0
 40
2.069224001187687
 50
281.7154327337156019
 51
288.6831771727995033
  0
ARC
  5
9DB1
  8
0
 10
2441.0898321012678025
 20
141.1652689735026058
 30
0.0
 40
0.2126449309401588
 50
270.2009507039547884
 51
284.3615599918542785
  0
ARC
  5
9DB2
  8
0
 10
2442.7120065621879803
 20
136.6049376486614051
 30
0.0
 40
1.2272562512158121
 50
100.7994274614509038
 51
113.4006324246601025
  0
ARC
  5
9DB3
  8
0
 10
2442.476297913270173
 20
137.8397601711747882
 30
0.0
 40
0.0298620120574701
 50
281.1131246391636864
 51
6.1054643585455386
  0
ARC
  5
9DB4
  8
0
 10
2440.6331359827399865
 20
172.5682132349760138
 30
0.0
 40
31.2772933443107988
 50
270.2106444510912979
 51
270.4448454444481058
  0
ARC
  5
9DB5
  8
0
 10
2440.8435584095877857
 20
135.406863347407409
 30
0.0
 40
5.8850417592686828
 50
90.9291664237156851
 51
96.0228715116569873
  0
ARC
  5
9DB6
  8
0
 10
2440.508623251921108
 20
138.5813681173486884
 30
0.0
 40
2.692916746957625
 50
96.0228715116569873
 51
99.8972513896966632
  0
ARC
  5
9DB7
  8
0
 10
2440.0634163586701106
 20
141.1330113199402092
 30
0.0
 40
0.1027252074899132
 50
99.8972513896966632
 51
110.8235859391109983
  0
ARC
  5
9DB8
  8
0
 10
2440.0387716795239612
 20
141.197808531053397
 30
0.0
 40
0.0333996077575242
 50
110.8235859391109983
 51
132.4435322940240951
  0
ARC
  5
9DB9
  8
0
 10
2440.0232520458807812
 20
141.2147668971223879
 30
0.0
 40
0.0104116761063751
 50
132.3993770331987037
 51
170.512663858528299
  0
ARC
  5
9DBA
  8
0
 10
2441.0252887049691708
 20
214.0278499166957999
 30
0.0
 40
73.0762284487980907
 50
269.6996749830403814
 51
269.8829266319635849
  0
ARC
  5
9DBB
  8
0
 10
2440.8862321134160993
 20
165.4150212560479929
 30
0.0
 40
24.4632493885024687
 50
269.9759672792253014
 51
270.4786071976470794
  0
ARC
  5
9DBC
  8
0
 10
2437.7941573272892128
 20
136.1774669017968904
 30
0.0
 40
0.0100882334857237
 50
180.3862569953016077
 51
269.6801579970979788
  0
ARC
  5
9DBD
  8
0
 10
2443.9334767457621638
 20
136.1809094854930891
 30
0.0
 40
0.0152849251726175
 50
297.7202794328953246
 51
358.7902676525827133
  0
ARC
  5
9DBE
  8
0
 10
2440.7707220277998204
 20
146.9351430432911911
 30
0.0
 40
5.7212514762451319
 50
270.3326417485548063
 51
271.0540809432437186
  0
ARC
  5
9DBF
  8
0
 10
2440.8499034051201306
 20
139.4136018034920141
 30
0.0
 40
1.8009728645985661
 50
91.4625030716133125
 51
99.1506499092660505
  0
ARC
  5
9DC0
  8
0
 10
2440.6801143783141015
 20
140.4676626122870005
 30
0.0
 40
0.7333247473515564
 50
99.1506499092660505
 51
110.2369081629014005
  0
ARC
  5
9DC1
  8
0
 10
2440.4837847629069074
 20
141.000212024097209
 30
0.0
 40
0.1657384597217194
 50
110.2369081629014005
 51
131.271469179076604
  0
ARC
  5
9DC2
  8
0
 10
2440.4000587808691307
 20
141.0956110748097956
 30
0.0
 40
0.0388092710181343
 50
131.271469179076604
 51
151.6354831166167969
  0
ARC
  5
9DC3
  8
0
 10
2440.3955081356320989
 20
141.0980679586139956
 30
0.0
 40
0.0336377480217834
 50
151.6354831166154042
 51
192.396299637656
  0
ARC
  5
9DC4
  8
0
 10
2440.4319994948600652
 20
141.1243662189675945
 30
0.0
 40
0.0770211628745855
 50
205.7978071341977113
 51
244.7973849547271925
  0
ARC
  5
9DC5
  8
0
 10
2440.6983301311838659
 20
141.7455194181630986
 30
0.0
 40
0.7528219361817228
 50
246.5878761907117962
 51
265.4297771300335853
  0
ARC
  5
9DC6
  8
0
 10
2440.8905219999178371
 20
143.5191262648529005
 30
0.0
 40
2.5366014193671291
 50
264.2944892690655934
 51
269.6713258212898268
  0
LINE
  5
9DC7
  8
0
 10
2440.4455284123741876
 20
141.1247798393137884
 30
0.0
 11
2440.3744585033450676
 21
141.1247798393137884
 31
0.0
  0
LINE
  5
9DC8
  8
0
 10
2440.3733586844741694
 20
141.0960236221137905
 30
0.0
 11
2440.4455284123741876
 21
141.0960236221137905
 31
0.0
  0
LINE
  5
9DC9
  8
0
 10
2440.3733586844741694
 20
141.0960236221137905
 30
0.0
 11
2440.3733618652740915
 21
141.0990598666137998
 31
0.0
  0
LINE
  5
9DCA
  8
0
 10
2440.3733618652740915
 20
141.0990598666137998
 30
0.0
 11
2440.4112941199741726
 21
141.1200825994137915
 31
0.0
  0
LINE
  5
9DCB
  8
0
 10
2440.4112941199741726
 20
141.1200825994137915
 30
0.0
 11
2440.4112941199741726
 21
141.1247798393137884
 31
0.0
  0
LINE
  5
9DCC
  8
0
 10
2440.8039134823739005
 20
141.0009711949138023
 30
0.0
 11
2440.8039134823739005
 21
141.0651512231277991
 31
0.0
  0
ARC
  5
9DCD
  8
0
 10
2440.8433065966710274
 20
142.8963895189505138
 30
0.0
 40
1.8958276399895151
 50
263.9645530782029255
 51
268.8093740204968753
  0
ARC
  5
9DCE
  8
0
 10
2440.7697353284252131
 20
142.2005347549010139
 30
0.0
 40
1.1960944164256271
 50
255.7521426725525941
 51
263.9644911510961833
  0
ARC
  5
9DCF
  8
0
 10
2440.5629185196257822
 20
141.3860639574004949
 30
0.0
 40
0.3557755053075847
 50
245.75171199051249
 51
255.7521426725525941
  0
ARC
  5
9DD0
  8
0
 10
2440.455426906374214
 20
141.1551824346138062
 30
0.0
 40
0.1011679699425817
 50
215.7859185134742859
 51
247.556939233332912
  0
ARC
  5
9DD1
  8
0
 10
2440.8416342417049236
 20
142.4031590455093976
 30
0.0
 40
1.3900936345668511
 50
259.4220245862873071
 51
268.4450528618464773
  0
ARC
  5
9DD2
  8
0
 10
2440.67701490840318
 20
141.5216494888879026
 30
0.0
 40
0.4933447157988435
 50
246.6069378648884083
 51
259.4220245862873071
  0
ARC
  5
9DD3
  8
0
 10
2440.5180303487231868
 20
141.1541357597754995
 30
0.0
 40
0.0929169054472487
 50
218.7130578512509089
 51
246.6069378648884083
  0
ARC
  5
9DD4
  8
0
 10
2440.5365974273868233
 20
141.0445347560838059
 30
0.0
 40
0.1213789062318141
 50
106.4311909981663007
 51
138.6152445426390045
  0
ARC
  5
9DD5
  8
0
 10
2440.6904523208468163
 20
140.6425250034457974
 30
0.0
 40
0.5515307987106838
 50
100.2400082388078033
 51
109.9506938777876002
  0
ARC
  5
9DD6
  8
0
 10
2440.7874717315648923
 20
140.1719145835110112
 30
0.0
 40
1.031960141601973
 50
96.8926766150462555
 51
100.8958809241695036
  0
ARC
  5
9DD7
  8
0
 10
2440.8537296024242096
 20
139.6450019965184026
 30
0.0
 40
1.563018241932125
 50
91.8264363757500064
 51
96.9859417079149466
  0
ARC
  5
9DD8
  8
0
 10
2441.2714396748829131
 20
141.208914492963487
 30
0.0
 40
0.467529528640369
 50
179.3782306827228012
 51
180.206905267167997
  0
LINE
  5
9DD9
  8
0
 10
2440.7959131946740854
 20
141.2068931712138067
 30
0.0
 11
2440.7959131946740854
 21
141.1946083788137969
 31
0.0
  0
LINE
  5
9DDA
  8
0
 10
2440.6636262502738646
 20
141.1964164286137873
 30
0.0
 11
2440.6636262502738646
 21
141.1912689253138069
 31
0.0
  0
LINE
  5
9DDB
  8
0
 10
2440.6636262502738646
 20
141.1912689253138069
 30
0.0
 11
2440.6921076786738922
 21
141.1847167802137903
 31
0.0
  0
ARC
  5
9DDC
  8
0
 10
2440.848314332371956
 20
140.1520244102360095
 30
0.0
 40
1.043900000367612
 50
92.8773123367961944
 51
95.1486652182419874
  0
ARC
  5
9DDD
  8
0
 10
2440.8855930428881038
 20
139.7382937819365054
 30
0.0
 40
1.459306710774223
 50
95.1486652182419874
 51
97.6191213544131244
  0
ARC
  5
9DDE
  8
0
 10
2440.8046129656290759
 20
140.5597360775138895
 30
0.0
 40
0.6336170107615122
 50
97.0419326394552115
 51
102.882326591568102
  0
ARC
  5
9DDF
  8
0
 10
2441.3803317792740017
 20
135.8990839821954069
 30
0.0
 40
5.3296930435766532
 50
96.8287526830729206
 51
97.0419326394552115
  0
ARC
  5
9DE0
  8
0
 10
2440.7485740885258565
 20
140.8090278525550048
 30
0.0
 40
0.3781072672430611
 50
103.0264469209527931
 51
107.6900751614688971
  0
ARC
  5
9DE1
  8
0
 10
2440.6963612073159311
 20
140.9727303286937001
 30
0.0
 40
0.2062797791682305
 50
107.6900751614688971
 51
113.6752534801366039
  0
ARC
  5
9DE2
  8
0
 10
2440.6568640570299067
 20
141.0628130413344934
 30
0.0
 40
0.1079186079801186
 50
113.6752534801366039
 51
127.4033530028476946
  0
ARC
  5
9DE3
  8
0
 10
2440.6081608941999548
 20
141.1265064085623919
 30
0.0
 40
0.0277385412653727
 50
127.4033530028476946
 51
159.3735096386263024
  0
LINE
  5
9DE4
  8
0
 10
2440.7959131946740854
 20
141.0655744040043089
 30
0.0
 11
2440.7959131946740854
 21
141.039488309113807
 31
0.0
  0
LINE
  5
9DE5
  8
0
 10
2440.6636262502738646
 20
141.0520938951138135
 30
0.0
 11
2440.6921076786738922
 21
141.0586460403137892
 31
0.0
  0
LINE
  5
9DE6
  8
0
 10
2440.6921076786738922
 20
141.0586460403137892
 30
0.0
 11
2440.6921076786738922
 21
141.0768850443838005
 31
0.0
  0
LINE
  5
9DE7
  8
0
 10
2440.6636262502738646
 20
141.0520938951138135
 30
0.0
 11
2440.6636262502738646
 21
141.0822047034830007
 31
0.0
  0
LINE
  5
9DE8
  8
0
 10
2440.4455284123741876
 20
141.1247798393137884
 30
0.0
 11
2440.4455284123741876
 21
141.0960236221137905
 31
0.0
  0
LINE
  5
9DE9
  8
0
 10
2440.5091291476737752
 20
141.1633974722871017
 30
0.0
 11
2440.5091291476737752
 21
141.1054629037138
 31
0.0
  0
LINE
  5
9DEA
  8
0
 10
2440.5091291476737752
 20
141.1054629037138
 30
0.0
 11
2440.5494079699737995
 21
141.1054629037138
 31
0.0
  0
LINE
  5
9DEB
  8
0
 10
2440.5494079699737995
 20
141.1054629037138
 30
0.0
 11
2440.5494079699737995
 21
141.137899916713792
 31
0.0
  0
LINE
  5
9DEC
  8
0
 10
2440.5494079699737995
 20
141.137899916713792
 30
0.0
 11
2440.5091291476737752
 21
141.1378999167141899
 31
0.0
  0
LINE
  5
9DED
  8
0
 10
2440.592405622574006
 20
141.0815824721138085
 30
0.0
 11
2440.592405622574006
 21
141.1064988103138091
 31
0.0
  0
LINE
  5
9DEE
  8
0
 10
2440.592405622574006
 20
141.185270861913807
 30
0.0
 11
2440.592405622574006
 21
141.1617803484137994
 31
0.0
  0
LINE
  5
9DEF
  8
0
 10
2440.592405622574006
 20
141.1617803484137994
 30
0.0
 11
2440.5639241941748878
 21
141.1683324935137875
 31
0.0
  0
LINE
  5
9DF0
  8
0
 10
2440.5639241941748878
 20
141.1683324935137875
 30
0.0
 11
2440.5639241941748878
 21
141.1793460677558869
 31
0.0
  0
LINE
  5
9DF1
  8
0
 10
2440.5716631946738744
 20
141.1532511201764919
 30
0.0
 11
2440.5716631946738744
 21
141.1314131989138048
 31
0.0
  0
ARC
  5
9DF2
  8
0
 10
2440.5952718954290503
 20
141.1336508555683906
 30
0.0
 40
0.0237145073457589
 50
185.4143776314240029
 51
225.7335878374611866
  0
ARC
  5
9DF3
  8
0
 10
2440.6234151013882183
 20
141.1625241130275015
 30
0.0
 40
0.0640345400583399
 50
225.7335878374611866
 51
241.0358840104144917
  0
ARC
  5
9DF4
  8
0
 10
2440.7127915790051702
 20
141.3428801148369871
 30
0.0
 40
0.265271369796443
 50
243.0108413608058981
 51
259.3190589365628966
  0
ARC
  5
9DF5
  8
0
 10
2440.8388002326278183
 20
141.9411807924296909
 30
0.0
 40
0.8766560588257508
 50
258.4735287444007099
 51
267.1959043120746742
  0
ARC
  5
9DF6
  8
0
 10
2440.8675967328658771
 20
142.352054956179586
 30
0.0
 40
1.2884761312391819
 50
266.8107396076371174
 51
270.3723884338972994
  0
ARC
  5
9DF7
  8
0
 10
2440.7996222066449263
 20
141.7788448205008081
 30
0.0
 40
0.7393658145330998
 50
259.4008974810399764
 51
269.7125758058538736
  0
ARC
  5
9DF8
  8
0
 10
2440.5980023643191998
 20
141.2009360095416071
 30
0.0
 40
0.1304360478288891
 50
227.0504035629041937
 51
254.8549567759343972
  0
ARC
  5
9DF9
  8
0
 10
2440.6286059546509932
 20
141.1974122829082887
 30
0.0
 40
0.1213548891112483
 50
229.2609695524521101
 51
252.6443908126715883
  0
LINE
  5
9DFA
  8
0
 10
2440.5639241941748878
 20
141.075030327013792
 30
0.0
 11
2440.592405622574006
 21
141.0815824721138085
 31
0.0
  0
ARC
  5
9DFB
  8
0
 10
2440.6222285184180691
 20
141.1566505301792063
 30
0.0
 40
0.0449522725104001
 50
207.0218155259917978
 51
246.1385270593088137
  0
ARC
  5
9DFC
  8
0
 10
2440.8074965760138184
 20
141.6407604684964952
 30
0.0
 40
0.5632485381639817
 50
248.8253170716021998
 51
268.787906932970202
  0
ARC
  5
9DFD
  8
0
 10
2440.8675034671427966
 20
142.3164335997404919
 30
0.0
 40
1.240881677861686
 50
266.6772730147588959
 51
270.3909782348636099
  0
ARC
  5
9DFE
  8
0
 10
2440.8688150188509098
 20
139.8215067123680058
 30
0.0
 40
1.375489275927875
 50
89.7019173888683241
 51
91.2764091072667441
  0
ARC
  5
9DFF
  8
0
 10
2440.8654979989078129
 20
140.0017614066865974
 30
0.0
 40
1.1952056244803311
 50
91.3099226880185029
 51
93.3376444000539465
  0
ARC
  5
9E00
  8
0
 10
2440.6259241853899766
 20
141.0507791685967049
 30
0.0
 40
0.1159515242418171
 50
106.8025216962380028
 51
131.2921181423164114
  0
ARC
  5
9E01
  8
0
 10
2440.6033363025157996
 20
141.0328228466584903
 30
0.0
 40
0.1411246919386759
 50
106.2167320383167066
 51
131.877907782360495
  0
ARC
  5
9E02
  8
0
 10
2440.5262718469830361
 20
141.1605892794152908
 30
0.0
 40
0.0240109095076984
 50
179.1235379582784901
 51
224.4424097215085112
  0
LINE
  5
9E03
  8
0
 10
2440.8858135208738531
 20
141.1934668629137946
 30
0.0
 11
2440.8661284814738792
 21
141.1934668629137946
 31
0.0
  0
LINE
  5
9E04
  8
0
 10
2440.8661284814738792
 20
141.1934668629137946
 30
0.0
 11
2440.8573905920020479
 21
141.1969485434404135
 31
0.0
  0
LINE
  5
9E05
  8
0
 10
2440.8661284814738792
 20
141.1934668629137946
 30
0.0
 11
2440.8661284814738792
 21
141.1969933646876996
 31
0.0
  0
LINE
  5
9E06
  8
0
 10
2440.8858135208738531
 20
141.1934668629137946
 30
0.0
 11
2440.8858135208738531
 21
141.1969933646876996
 31
0.0
  0
LINE
  5
9E07
  8
0
 10
2440.8858135208738531
 20
141.1934668629137946
 30
0.0
 11
2440.8945514104639187
 21
141.1969485434393903
 31
0.0
  0
LINE
  5
9E08
  8
0
 10
2440.8661284814738792
 20
141.1885018809138046
 30
0.0
 11
2440.8562859617741196
 21
141.1845800519137981
 31
0.0
  0
LINE
  5
9E09
  8
0
 10
2440.8562859617741196
 20
141.1845800519137981
 30
0.0
 11
2440.8661284814738792
 21
141.1806582228138041
 31
0.0
  0
LINE
  5
9E0A
  8
0
 10
2440.8661284814738792
 20
141.1806582228138041
 30
0.0
 11
2440.8858135208738531
 21
141.1806582228138041
 31
0.0
  0
LINE
  5
9E0B
  8
0
 10
2440.8858135208738531
 20
141.1806582228138041
 30
0.0
 11
2440.8956560405740674
 21
141.1845800519137981
 31
0.0
  0
LINE
  5
9E0C
  8
0
 10
2440.8956560405740674
 20
141.1845800519137981
 30
0.0
 11
2440.8858135208738531
 21
141.1885018809138046
 31
0.0
  0
LINE
  5
9E0D
  8
0
 10
2440.8858135208738531
 20
141.1885018809138046
 30
0.0
 11
2440.8661284814738792
 21
141.1885018809138046
 31
0.0
  0
LINE
  5
9E0E
  8
0
 10
2440.8661284814738792
 20
141.1885018809138046
 30
0.0
 11
2440.8661284814738792
 21
141.1806582228138041
 31
0.0
  0
LINE
  5
9E0F
  8
0
 10
2440.8858135208738531
 20
141.1806582228138041
 30
0.0
 11
2440.8858135208738531
 21
141.1885018809138046
 31
0.0
  0
LINE
  5
9E10
  8
0
 10
2440.8382896317739323
 20
141.1949062010137936
 30
0.0
 11
2440.8284471120741728
 21
141.1909843720137872
 31
0.0
  0
LINE
  5
9E11
  8
0
 10
2440.8284471120741728
 20
141.1909843720137872
 30
0.0
 11
2440.8382896317739323
 21
141.1870625429137931
 31
0.0
  0
LINE
  5
9E12
  8
0
 10
2440.8382896317739323
 20
141.1870625429137931
 30
0.0
 11
2440.8579746711739062
 21
141.1870625429137931
 31
0.0
  0
LINE
  5
9E13
  8
0
 10
2440.8579746711739062
 20
141.1870625429137931
 30
0.0
 11
2440.8678171908741206
 21
141.1909843720137872
 31
0.0
  0
LINE
  5
9E14
  8
0
 10
2440.8678171908741206
 20
141.1909843720137872
 30
0.0
 11
2440.8579746711739062
 21
141.1949062010137936
 31
0.0
  0
LINE
  5
9E15
  8
0
 10
2440.8579746711739062
 20
141.1949062010137936
 30
0.0
 11
2440.8382896317739323
 21
141.1949062010137936
 31
0.0
  0
LINE
  5
9E16
  8
0
 10
2440.8382896317739323
 20
141.1949062010137936
 30
0.0
 11
2440.8382896317739323
 21
141.1870625429137931
 31
0.0
  0
LINE
  5
9E17
  8
0
 10
2440.8579746711739062
 20
141.1870625429137931
 30
0.0
 11
2440.8579746711739062
 21
141.1949062010137936
 31
0.0
  0
LINE
  5
9E18
  8
0
 10
2440.8382896317739323
 20
141.1820975609138031
 30
0.0
 11
2440.8284471120741728
 21
141.1781757319137967
 31
0.0
  0
LINE
  5
9E19
  8
0
 10
2440.8284471120741728
 20
141.1781757319137967
 30
0.0
 11
2440.8382896317739323
 21
141.1742539028138026
 31
0.0
  0
LINE
  5
9E1A
  8
0
 10
2440.8382896317739323
 20
141.1742539028138026
 30
0.0
 11
2440.8579746711739062
 21
141.1742539028138026
 31
0.0
  0
LINE
  5
9E1B
  8
0
 10
2440.8579746711739062
 20
141.1742539028138026
 30
0.0
 11
2440.8678171908741206
 21
141.1781757319137967
 31
0.0
  0
LINE
  5
9E1C
  8
0
 10
2440.8678171908741206
 20
141.1781757319137967
 30
0.0
 11
2440.8579746711739062
 21
141.1820975609138031
 31
0.0
  0
LINE
  5
9E1D
  8
0
 10
2440.8579746711739062
 20
141.1820975609138031
 30
0.0
 11
2440.8382896317739323
 21
141.1820975609138031
 31
0.0
  0
LINE
  5
9E1E
  8
0
 10
2440.8382896317739323
 20
141.1820975609138031
 30
0.0
 11
2440.8382896317739323
 21
141.1742539028138026
 31
0.0
  0
LINE
  5
9E1F
  8
0
 10
2440.8579746711739062
 20
141.1742539028138026
 30
0.0
 11
2440.8579746711739062
 21
141.1820975609138031
 31
0.0
  0
LINE
  5
9E20
  8
0
 10
2440.8382896317739323
 20
141.1692889208138126
 30
0.0
 11
2440.8284471120741728
 21
141.1653670918138062
 31
0.0
  0
LINE
  5
9E21
  8
0
 10
2440.8284471120741728
 20
141.1653670918138062
 30
0.0
 11
2440.8382896317739323
 21
141.1614452627138121
 31
0.0
  0
LINE
  5
9E22
  8
0
 10
2440.8382896317739323
 20
141.1614452627138121
 30
0.0
 11
2440.8579746711739062
 21
141.1614452627138121
 31
0.0
  0
LINE
  5
9E23
  8
0
 10
2440.8579746711739062
 20
141.1614452627138121
 30
0.0
 11
2440.8678171908741206
 21
141.1653670918138062
 31
0.0
  0
LINE
  5
9E24
  8
0
 10
2440.8678171908741206
 20
141.1653670918138062
 30
0.0
 11
2440.8579746711739062
 21
141.1692889208138126
 31
0.0
  0
LINE
  5
9E25
  8
0
 10
2440.8579746711739062
 20
141.1692889208138126
 30
0.0
 11
2440.8382896317739323
 21
141.1692889208138126
 31
0.0
  0
LINE
  5
9E26
  8
0
 10
2440.8382896317739323
 20
141.1692889208138126
 30
0.0
 11
2440.8382896317739323
 21
141.1614452627138121
 31
0.0
  0
LINE
  5
9E27
  8
0
 10
2440.8579746711739062
 20
141.1614452627138121
 30
0.0
 11
2440.8579746711739062
 21
141.1692889208138126
 31
0.0
  0
LINE
  5
9E28
  8
0
 10
2440.8382896317739323
 20
141.1564802807137937
 30
0.0
 11
2440.8284471120741728
 21
141.1525584517137872
 31
0.0
  0
LINE
  5
9E29
  8
0
 10
2440.8284471120741728
 20
141.1525584517137872
 30
0.0
 11
2440.8382896317739323
 21
141.1486366226137932
 31
0.0
  0
LINE
  5
9E2A
  8
0
 10
2440.8382896317739323
 20
141.1486366226137932
 30
0.0
 11
2440.8579746711739062
 21
141.1486366226137932
 31
0.0
  0
LINE
  5
9E2B
  8
0
 10
2440.8579746711739062
 20
141.1486366226137932
 30
0.0
 11
2440.8678171908741206
 21
141.1525584517137872
 31
0.0
  0
LINE
  5
9E2C
  8
0
 10
2440.8678171908741206
 20
141.1525584517137872
 30
0.0
 11
2440.8579746711739062
 21
141.1564802807137937
 31
0.0
  0
LINE
  5
9E2D
  8
0
 10
2440.8579746711739062
 20
141.1564802807137937
 30
0.0
 11
2440.8382896317739323
 21
141.1564802807137937
 31
0.0
  0
LINE
  5
9E2E
  8
0
 10
2440.8382896317739323
 20
141.1564802807137937
 30
0.0
 11
2440.8382896317739323
 21
141.1486366226137932
 31
0.0
  0
LINE
  5
9E2F
  8
0
 10
2440.8579746711739062
 20
141.1486366226137932
 30
0.0
 11
2440.8579746711739062
 21
141.1564802807137937
 31
0.0
  0
LINE
  5
9E30
  8
0
 10
2440.8382896317739323
 20
141.1436716406138032
 30
0.0
 11
2440.8284471120741728
 21
141.1397498116137967
 31
0.0
  0
LINE
  5
9E31
  8
0
 10
2440.8284471120741728
 20
141.1397498116137967
 30
0.0
 11
2440.8382896317739323
 21
141.1358279825138027
 31
0.0
  0
LINE
  5
9E32
  8
0
 10
2440.8382896317739323
 20
141.1358279825138027
 30
0.0
 11
2440.8579746711739062
 21
141.1358279825138027
 31
0.0
  0
LINE
  5
9E33
  8
0
 10
2440.8579746711739062
 20
141.1358279825138027
 30
0.0
 11
2440.8678171908741206
 21
141.1397498116137967
 31
0.0
  0
LINE
  5
9E34
  8
0
 10
2440.8678171908741206
 20
141.1397498116137967
 30
0.0
 11
2440.8579746711739062
 21
141.1436716406138032
 31
0.0
  0
LINE
  5
9E35
  8
0
 10
2440.8579746711739062
 20
141.1436716406138032
 30
0.0
 11
2440.8382896317739323
 21
141.1436716406138032
 31
0.0
  0
LINE
  5
9E36
  8
0
 10
2440.8382896317739323
 20
141.1436716406138032
 30
0.0
 11
2440.8382896317739323
 21
141.1358279825138027
 31
0.0
  0
LINE
  5
9E37
  8
0
 10
2440.8579746711739062
 20
141.1358279825138027
 30
0.0
 11
2440.8579746711739062
 21
141.1436716406138032
 31
0.0
  0
LINE
  5
9E38
  8
0
 10
2440.8382896317739323
 20
141.1308630005138127
 30
0.0
 11
2440.8284471120741728
 21
141.1269411715138062
 31
0.0
  0
LINE
  5
9E39
  8
0
 10
2440.8284471120741728
 20
141.1269411715138062
 30
0.0
 11
2440.8382896317739323
 21
141.1230193424138122
 31
0.0
  0
LINE
  5
9E3A
  8
0
 10
2440.8382896317739323
 20
141.1230193424138122
 30
0.0
 11
2440.8579746711739062
 21
141.1230193424138122
 31
0.0
  0
LINE
  5
9E3B
  8
0
 10
2440.8579746711739062
 20
141.1230193424138122
 30
0.0
 11
2440.8678171908741206
 21
141.1269411715138062
 31
0.0
  0
LINE
  5
9E3C
  8
0
 10
2440.8678171908741206
 20
141.1269411715138062
 30
0.0
 11
2440.8579746711739062
 21
141.1308630005138127
 31
0.0
  0
LINE
  5
9E3D
  8
0
 10
2440.8579746711739062
 20
141.1308630005138127
 30
0.0
 11
2440.8382896317739323
 21
141.1308630005138127
 31
0.0
  0
LINE
  5
9E3E
  8
0
 10
2440.8382896317739323
 20
141.1308630005138127
 30
0.0
 11
2440.8382896317739323
 21
141.1230193424138122
 31
0.0
  0
LINE
  5
9E3F
  8
0
 10
2440.8579746711739062
 20
141.1230193424138122
 30
0.0
 11
2440.8579746711739062
 21
141.1308630005138127
 31
0.0
  0
LINE
  5
9E40
  8
0
 10
2440.8382896317739323
 20
141.1180543604137938
 30
0.0
 11
2440.8284471120741728
 21
141.1141325314137873
 31
0.0
  0
LINE
  5
9E41
  8
0
 10
2440.8284471120741728
 20
141.1141325314137873
 30
0.0
 11
2440.8382896317739323
 21
141.1102107023137933
 31
0.0
  0
LINE
  5
9E42
  8
0
 10
2440.8382896317739323
 20
141.1102107023137933
 30
0.0
 11
2440.8579746711739062
 21
141.1102107023137933
 31
0.0
  0
LINE
  5
9E43
  8
0
 10
2440.8579746711739062
 20
141.1102107023137933
 30
0.0
 11
2440.8678171908741206
 21
141.1141325314137873
 31
0.0
  0
LINE
  5
9E44
  8
0
 10
2440.8678171908741206
 20
141.1141325314137873
 30
0.0
 11
2440.8579746711739062
 21
141.1180543604137938
 31
0.0
  0
LINE
  5
9E45
  8
0
 10
2440.8579746711739062
 20
141.1180543604137938
 30
0.0
 11
2440.8382896317739323
 21
141.1180543604137938
 31
0.0
  0
LINE
  5
9E46
  8
0
 10
2440.8382896317739323
 20
141.1180543604137938
 30
0.0
 11
2440.8382896317739323
 21
141.1102107023137933
 31
0.0
  0
LINE
  5
9E47
  8
0
 10
2440.8579746711739062
 20
141.1102107023137933
 30
0.0
 11
2440.8579746711739062
 21
141.1180543604137938
 31
0.0
  0
LINE
  5
9E48
  8
0
 10
2440.8382896317739323
 20
141.1052457203138033
 30
0.0
 11
2440.8284471120741728
 21
141.1013238913137968
 31
0.0
  0
LINE
  5
9E49
  8
0
 10
2440.8284471120741728
 20
141.1013238913137968
 30
0.0
 11
2440.8382896317739323
 21
141.0974020622138028
 31
0.0
  0
LINE
  5
9E4A
  8
0
 10
2440.8382896317739323
 20
141.0974020622138028
 30
0.0
 11
2440.8579746711739062
 21
141.0974020622138028
 31
0.0
  0
LINE
  5
9E4B
  8
0
 10
2440.8579746711739062
 20
141.0974020622138028
 30
0.0
 11
2440.8678171908741206
 21
141.1013238913137968
 31
0.0
  0
LINE
  5
9E4C
  8
0
 10
2440.8678171908741206
 20
141.1013238913137968
 30
0.0
 11
2440.8579746711739062
 21
141.1052457203138033
 31
0.0
  0
LINE
  5
9E4D
  8
0
 10
2440.8579746711739062
 20
141.1052457203138033
 30
0.0
 11
2440.8382896317739323
 21
141.1052457203138033
 31
0.0
  0
LINE
  5
9E4E
  8
0
 10
2440.8382896317739323
 20
141.1052457203138033
 30
0.0
 11
2440.8382896317739323
 21
141.0974020622138028
 31
0.0
  0
LINE
  5
9E4F
  8
0
 10
2440.8579746711739062
 20
141.0974020622138028
 30
0.0
 11
2440.8579746711739062
 21
141.1052457203138033
 31
0.0
  0
LINE
  5
9E50
  8
0
 10
2440.8382896317739323
 20
141.0924370802138128
 30
0.0
 11
2440.8284471120741728
 21
141.0885152512138063
 31
0.0
  0
LINE
  5
9E51
  8
0
 10
2440.8284471120741728
 20
141.0885152512138063
 30
0.0
 11
2440.8382896317739323
 21
141.0845934221138123
 31
0.0
  0
LINE
  5
9E52
  8
0
 10
2440.8382896317739323
 20
141.0845934221138123
 30
0.0
 11
2440.8579746711739062
 21
141.0845934221138123
 31
0.0
  0
LINE
  5
9E53
  8
0
 10
2440.8579746711739062
 20
141.0845934221138123
 30
0.0
 11
2440.8678171908741206
 21
141.0885152512138063
 31
0.0
  0
LINE
  5
9E54
  8
0
 10
2440.8678171908741206
 20
141.0885152512138063
 30
0.0
 11
2440.8579746711739062
 21
141.0924370802138128
 31
0.0
  0
LINE
  5
9E55
  8
0
 10
2440.8579746711739062
 20
141.0924370802138128
 30
0.0
 11
2440.8382896317739323
 21
141.0924370802138128
 31
0.0
  0
LINE
  5
9E56
  8
0
 10
2440.8382896317739323
 20
141.0924370802138128
 30
0.0
 11
2440.8382896317739323
 21
141.0845934221138123
 31
0.0
  0
LINE
  5
9E57
  8
0
 10
2440.8579746711739062
 20
141.0845934221138123
 30
0.0
 11
2440.8579746711739062
 21
141.0924370802138128
 31
0.0
  0
LINE
  5
9E58
  8
0
 10
2440.8661284814738792
 20
141.0988414003138018
 30
0.0
 11
2440.8562859617741196
 21
141.0949195713137954
 31
0.0
  0
LINE
  5
9E59
  8
0
 10
2440.8562859617741196
 20
141.0949195713137954
 30
0.0
 11
2440.8661284814738792
 21
141.0909977422138013
 31
0.0
  0
LINE
  5
9E5A
  8
0
 10
2440.8661284814738792
 20
141.0909977422138013
 30
0.0
 11
2440.8858135208738531
 21
141.0909977422138013
 31
0.0
  0
LINE
  5
9E5B
  8
0
 10
2440.8858135208738531
 20
141.0909977422138013
 30
0.0
 11
2440.8956560405740674
 21
141.0949195713137954
 31
0.0
  0
LINE
  5
9E5C
  8
0
 10
2440.8956560405740674
 20
141.0949195713137954
 30
0.0
 11
2440.8858135208738531
 21
141.0988414003138018
 31
0.0
  0
LINE
  5
9E5D
  8
0
 10
2440.8858135208738531
 20
141.0988414003138018
 30
0.0
 11
2440.8661284814738792
 21
141.0988414003138018
 31
0.0
  0
LINE
  5
9E5E
  8
0
 10
2440.8661284814738792
 20
141.0988414003138018
 30
0.0
 11
2440.8661284814738792
 21
141.0909977422138013
 31
0.0
  0
LINE
  5
9E5F
  8
0
 10
2440.8858135208738531
 20
141.0909977422138013
 30
0.0
 11
2440.8858135208738531
 21
141.0988414003138018
 31
0.0
  0
LINE
  5
9E60
  8
0
 10
2440.8661284814738792
 20
141.0860327602138113
 30
0.0
 11
2440.8562859617741196
 21
141.0821109312138049
 31
0.0
  0
LINE
  5
9E61
  8
0
 10
2440.8562859617741196
 20
141.0821109312138049
 30
0.0
 11
2440.8661284814738792
 21
141.0781891021138108
 31
0.0
  0
LINE
  5
9E62
  8
0
 10
2440.8661284814738792
 20
141.0781891021138108
 30
0.0
 11
2440.8858135208738531
 21
141.0781891021138108
 31
0.0
  0
LINE
  5
9E63
  8
0
 10
2440.8858135208738531
 20
141.0781891021138108
 30
0.0
 11
2440.8956560405740674
 21
141.0821109312138049
 31
0.0
  0
LINE
  5
9E64
  8
0
 10
2440.8956560405740674
 20
141.0821109312138049
 30
0.0
 11
2440.8858135208738531
 21
141.0860327602138113
 31
0.0
  0
LINE
  5
9E65
  8
0
 10
2440.8858135208738531
 20
141.0860327602138113
 30
0.0
 11
2440.8661284814738792
 21
141.0860327602138113
 31
0.0
  0
LINE
  5
9E66
  8
0
 10
2440.8661284814738792
 20
141.0860327602138113
 30
0.0
 11
2440.8661284814738792
 21
141.0781891021138108
 31
0.0
  0
LINE
  5
9E67
  8
0
 10
2440.8858135208738531
 20
141.0781891021138108
 30
0.0
 11
2440.8858135208738531
 21
141.0860327602138113
 31
0.0
  0
LINE
  5
9E68
  8
0
 10
2440.8661284814738792
 20
141.1116500404137923
 30
0.0
 11
2440.8562859617741196
 21
141.1077282114137859
 31
0.0
  0
LINE
  5
9E69
  8
0
 10
2440.8562859617741196
 20
141.1077282114137859
 30
0.0
 11
2440.8661284814738792
 21
141.1038063823137918
 31
0.0
  0
LINE
  5
9E6A
  8
0
 10
2440.8661284814738792
 20
141.1038063823137918
 30
0.0
 11
2440.8858135208738531
 21
141.1038063823137918
 31
0.0
  0
LINE
  5
9E6B
  8
0
 10
2440.8858135208738531
 20
141.1038063823137918
 30
0.0
 11
2440.8956560405740674
 21
141.1077282114137859
 31
0.0
  0
LINE
  5
9E6C
  8
0
 10
2440.8956560405740674
 20
141.1077282114137859
 30
0.0
 11
2440.8858135208738531
 21
141.1116500404137923
 31
0.0
  0
LINE
  5
9E6D
  8
0
 10
2440.8858135208738531
 20
141.1116500404137923
 30
0.0
 11
2440.8661284814738792
 21
141.1116500404137923
 31
0.0
  0
LINE
  5
9E6E
  8
0
 10
2440.8661284814738792
 20
141.1116500404137923
 30
0.0
 11
2440.8661284814738792
 21
141.1038063823137918
 31
0.0
  0
LINE
  5
9E6F
  8
0
 10
2440.8858135208738531
 20
141.1038063823137918
 30
0.0
 11
2440.8858135208738531
 21
141.1116500404137923
 31
0.0
  0
LINE
  5
9E70
  8
0
 10
2440.8661284814738792
 20
141.1244586805138113
 30
0.0
 11
2440.8562859617741196
 21
141.1205368515138048
 31
0.0
  0
LINE
  5
9E71
  8
0
 10
2440.8562859617741196
 20
141.1205368515138048
 30
0.0
 11
2440.8661284814738792
 21
141.1166150224138107
 31
0.0
  0
LINE
  5
9E72
  8
0
 10
2440.8661284814738792
 20
141.1166150224138107
 30
0.0
 11
2440.8858135208738531
 21
141.1166150224138107
 31
0.0
  0
LINE
  5
9E73
  8
0
 10
2440.8858135208738531
 20
141.1166150224138107
 30
0.0
 11
2440.8956560405740674
 21
141.1205368515138048
 31
0.0
  0
LINE
  5
9E74
  8
0
 10
2440.8956560405740674
 20
141.1205368515138048
 30
0.0
 11
2440.8858135208738531
 21
141.1244586805138113
 31
0.0
  0
LINE
  5
9E75
  8
0
 10
2440.8858135208738531
 20
141.1244586805138113
 30
0.0
 11
2440.8661284814738792
 21
141.1244586805138113
 31
0.0
  0
LINE
  5
9E76
  8
0
 10
2440.8661284814738792
 20
141.1244586805138113
 30
0.0
 11
2440.8661284814738792
 21
141.1166150224138107
 31
0.0
  0
LINE
  5
9E77
  8
0
 10
2440.8858135208738531
 20
141.1166150224138107
 30
0.0
 11
2440.8858135208738531
 21
141.1244586805138113
 31
0.0
  0
LINE
  5
9E78
  8
0
 10
2440.8661284814738792
 20
141.1372673206138018
 30
0.0
 11
2440.8562859617741196
 21
141.1333454916137953
 31
0.0
  0
LINE
  5
9E79
  8
0
 10
2440.8562859617741196
 20
141.1333454916137953
 30
0.0
 11
2440.8661284814738792
 21
141.1294236625138012
 31
0.0
  0
LINE
  5
9E7A
  8
0
 10
2440.8661284814738792
 20
141.1294236625138012
 30
0.0
 11
2440.8858135208738531
 21
141.1294236625138012
 31
0.0
  0
LINE
  5
9E7B
  8
0
 10
2440.8858135208738531
 20
141.1294236625138012
 30
0.0
 11
2440.8956560405740674
 21
141.1333454916137953
 31
0.0
  0
LINE
  5
9E7C
  8
0
 10
2440.8956560405740674
 20
141.1333454916137953
 30
0.0
 11
2440.8858135208738531
 21
141.1372673206138018
 31
0.0
  0
LINE
  5
9E7D
  8
0
 10
2440.8858135208738531
 20
141.1372673206138018
 30
0.0
 11
2440.8661284814738792
 21
141.1372673206138018
 31
0.0
  0
LINE
  5
9E7E
  8
0
 10
2440.8661284814738792
 20
141.1372673206138018
 30
0.0
 11
2440.8661284814738792
 21
141.1294236625138012
 31
0.0
  0
LINE
  5
9E7F
  8
0
 10
2440.8858135208738531
 20
141.1294236625138012
 30
0.0
 11
2440.8858135208738531
 21
141.1372673206138018
 31
0.0
  0
LINE
  5
9E80
  8
0
 10
2440.8661284814738792
 20
141.1500759606138047
 30
0.0
 11
2440.8562859617741196
 21
141.1461541316137982
 31
0.0
  0
LINE
  5
9E81
  8
0
 10
2440.8562859617741196
 20
141.1461541316137982
 30
0.0
 11
2440.8661284814738792
 21
141.1422323025138041
 31
0.0
  0
LINE
  5
9E82
  8
0
 10
2440.8661284814738792
 20
141.1422323025138041
 30
0.0
 11
2440.8858135208738531
 21
141.1422323025138041
 31
0.0
  0
LINE
  5
9E83
  8
0
 10
2440.8858135208738531
 20
141.1422323025138041
 30
0.0
 11
2440.8956560405740674
 21
141.1461541316137982
 31
0.0
  0
LINE
  5
9E84
  8
0
 10
2440.8956560405740674
 20
141.1461541316137982
 30
0.0
 11
2440.8858135208738531
 21
141.1500759606138047
 31
0.0
  0
LINE
  5
9E85
  8
0
 10
2440.8858135208738531
 20
141.1500759606138047
 30
0.0
 11
2440.8661284814738792
 21
141.1500759606138047
 31
0.0
  0
LINE
  5
9E86
  8
0
 10
2440.8661284814738792
 20
141.1500759606138047
 30
0.0
 11
2440.8661284814738792
 21
141.1422323025138041
 31
0.0
  0
LINE
  5
9E87
  8
0
 10
2440.8858135208738531
 20
141.1422323025138041
 30
0.0
 11
2440.8858135208738531
 21
141.1500759606138047
 31
0.0
  0
LINE
  5
9E88
  8
0
 10
2440.8661284814738792
 20
141.1628846007137952
 30
0.0
 11
2440.8562859617741196
 21
141.1589627717137887
 31
0.0
  0
LINE
  5
9E89
  8
0
 10
2440.8562859617741196
 20
141.1589627717137887
 30
0.0
 11
2440.8661284814738792
 21
141.1550409426137946
 31
0.0
  0
LINE
  5
9E8A
  8
0
 10
2440.8661284814738792
 20
141.1550409426137946
 30
0.0
 11
2440.8858135208738531
 21
141.1550409426137946
 31
0.0
  0
LINE
  5
9E8B
  8
0
 10
2440.8858135208738531
 20
141.1550409426137946
 30
0.0
 11
2440.8956560405740674
 21
141.1589627717137887
 31
0.0
  0
LINE
  5
9E8C
  8
0
 10
2440.8956560405740674
 20
141.1589627717137887
 30
0.0
 11
2440.8858135208738531
 21
141.1628846007137952
 31
0.0
  0
LINE
  5
9E8D
  8
0
 10
2440.8858135208738531
 20
141.1628846007137952
 30
0.0
 11
2440.8661284814738792
 21
141.1628846007137952
 31
0.0
  0
LINE
  5
9E8E
  8
0
 10
2440.8661284814738792
 20
141.1628846007137952
 30
0.0
 11
2440.8661284814738792
 21
141.1550409426137946
 31
0.0
  0
LINE
  5
9E8F
  8
0
 10
2440.8858135208738531
 20
141.1550409426137946
 30
0.0
 11
2440.8858135208738531
 21
141.1628846007137952
 31
0.0
  0
LINE
  5
9E90
  8
0
 10
2440.8661284814738792
 20
141.1756932408138141
 30
0.0
 11
2440.8562859617741196
 21
141.1717714118138076
 31
0.0
  0
LINE
  5
9E91
  8
0
 10
2440.8562859617741196
 20
141.1717714118138076
 30
0.0
 11
2440.8661284814738792
 21
141.1678495827138136
 31
0.0
  0
LINE
  5
9E92
  8
0
 10
2440.8661284814738792
 20
141.1678495827138136
 30
0.0
 11
2440.8858135208738531
 21
141.1678495827138136
 31
0.0
  0
LINE
  5
9E93
  8
0
 10
2440.8858135208738531
 20
141.1678495827138136
 30
0.0
 11
2440.8956560405740674
 21
141.1717714118138076
 31
0.0
  0
LINE
  5
9E94
  8
0
 10
2440.8956560405740674
 20
141.1717714118138076
 30
0.0
 11
2440.8858135208738531
 21
141.1756932408138141
 31
0.0
  0
LINE
  5
9E95
  8
0
 10
2440.8858135208738531
 20
141.1756932408138141
 30
0.0
 11
2440.8661284814738792
 21
141.1756932408138141
 31
0.0
  0
LINE
  5
9E96
  8
0
 10
2440.8661284814738792
 20
141.1756932408138141
 30
0.0
 11
2440.8661284814738792
 21
141.1678495827138136
 31
0.0
  0
LINE
  5
9E97
  8
0
 10
2440.8858135208738531
 20
141.1678495827138136
 30
0.0
 11
2440.8858135208738531
 21
141.1756932408138141
 31
0.0
  0
LINE
  5
9E98
  8
0
 10
2440.8104507821740299
 20
141.1885018809138046
 30
0.0
 11
2440.8006082624738156
 21
141.1845800519137981
 31
0.0
  0
LINE
  5
9E99
  8
0
 10
2440.8006082624738156
 20
141.1845800519137981
 30
0.0
 11
2440.8104507821740299
 21
141.1806582228138041
 31
0.0
  0
LINE
  5
9E9A
  8
0
 10
2440.8104507821740299
 20
141.1806582228138041
 30
0.0
 11
2440.8301358215740038
 21
141.1806582228138041
 31
0.0
  0
LINE
  5
9E9B
  8
0
 10
2440.8301358215740038
 20
141.1806582228138041
 30
0.0
 11
2440.8399783412742181
 21
141.1845800519137981
 31
0.0
  0
LINE
  5
9E9C
  8
0
 10
2440.8399783412742181
 20
141.1845800519137981
 30
0.0
 11
2440.8301358215740038
 21
141.1885018809138046
 31
0.0
  0
LINE
  5
9E9D
  8
0
 10
2440.8301358215740038
 20
141.1885018809138046
 30
0.0
 11
2440.8104507821740299
 21
141.1885018809138046
 31
0.0
  0
LINE
  5
9E9E
  8
0
 10
2440.8104507821740299
 20
141.1885018809138046
 30
0.0
 11
2440.8104507821740299
 21
141.1806582228138041
 31
0.0
  0
LINE
  5
9E9F
  8
0
 10
2440.8301358215740038
 20
141.1806582228138041
 30
0.0
 11
2440.8301358215740038
 21
141.1885018809138046
 31
0.0
  0
LINE
  5
9EA0
  8
0
 10
2440.8104507821740299
 20
141.1756932408138141
 30
0.0
 11
2440.8006082624738156
 21
141.1717714118138076
 31
0.0
  0
LINE
  5
9EA1
  8
0
 10
2440.8006082624738156
 20
141.1717714118138076
 30
0.0
 11
2440.8104507821740299
 21
141.1678495827138136
 31
0.0
  0
LINE
  5
9EA2
  8
0
 10
2440.8104507821740299
 20
141.1678495827138136
 30
0.0
 11
2440.8301358215740038
 21
141.1678495827138136
 31
0.0
  0
LINE
  5
9EA3
  8
0
 10
2440.8301358215740038
 20
141.1678495827138136
 30
0.0
 11
2440.8399783412742181
 21
141.1717714118138076
 31
0.0
  0
LINE
  5
9EA4
  8
0
 10
2440.8399783412742181
 20
141.1717714118138076
 30
0.0
 11
2440.8301358215740038
 21
141.1756932408138141
 31
0.0
  0
LINE
  5
9EA5
  8
0
 10
2440.8301358215740038
 20
141.1756932408138141
 30
0.0
 11
2440.8104507821740299
 21
141.1756932408138141
 31
0.0
  0
LINE
  5
9EA6
  8
0
 10
2440.8104507821740299
 20
141.1756932408138141
 30
0.0
 11
2440.8104507821740299
 21
141.1678495827138136
 31
0.0
  0
LINE
  5
9EA7
  8
0
 10
2440.8301358215740038
 20
141.1678495827138136
 30
0.0
 11
2440.8301358215740038
 21
141.1756932408138141
 31
0.0
  0
LINE
  5
9EA8
  8
0
 10
2440.8104507821740299
 20
141.1628846007137952
 30
0.0
 11
2440.8006082624738156
 21
141.1589627717137887
 31
0.0
  0
LINE
  5
9EA9
  8
0
 10
2440.8006082624738156
 20
141.1589627717137887
 30
0.0
 11
2440.8104507821740299
 21
141.1550409426137946
 31
0.0
  0
LINE
  5
9EAA
  8
0
 10
2440.8104507821740299
 20
141.1550409426137946
 30
0.0
 11
2440.8301358215740038
 21
141.1550409426137946
 31
0.0
  0
LINE
  5
9EAB
  8
0
 10
2440.8301358215740038
 20
141.1550409426137946
 30
0.0
 11
2440.8399783412742181
 21
141.1589627717137887
 31
0.0
  0
LINE
  5
9EAC
  8
0
 10
2440.8399783412742181
 20
141.1589627717137887
 30
0.0
 11
2440.8301358215740038
 21
141.1628846007137952
 31
0.0
  0
LINE
  5
9EAD
  8
0
 10
2440.8301358215740038
 20
141.1628846007137952
 30
0.0
 11
2440.8104507821740299
 21
141.1628846007137952
 31
0.0
  0
LINE
  5
9EAE
  8
0
 10
2440.8104507821740299
 20
141.1628846007137952
 30
0.0
 11
2440.8104507821740299
 21
141.1550409426137946
 31
0.0
  0
LINE
  5
9EAF
  8
0
 10
2440.8301358215740038
 20
141.1550409426137946
 30
0.0
 11
2440.8301358215740038
 21
141.1628846007137952
 31
0.0
  0
LINE
  5
9EB0
  8
0
 10
2440.8104507821740299
 20
141.1500759606138047
 30
0.0
 11
2440.8006082624738156
 21
141.1461541316137982
 31
0.0
  0
LINE
  5
9EB1
  8
0
 10
2440.8006082624738156
 20
141.1461541316137982
 30
0.0
 11
2440.8104507821740299
 21
141.1422323025138041
 31
0.0
  0
LINE
  5
9EB2
  8
0
 10
2440.8104507821740299
 20
141.1422323025138041
 30
0.0
 11
2440.8301358215740038
 21
141.1422323025138041
 31
0.0
  0
LINE
  5
9EB3
  8
0
 10
2440.8301358215740038
 20
141.1422323025138041
 30
0.0
 11
2440.8399783412742181
 21
141.1461541316137982
 31
0.0
  0
LINE
  5
9EB4
  8
0
 10
2440.8399783412742181
 20
141.1461541316137982
 30
0.0
 11
2440.8301358215740038
 21
141.1500759606138047
 31
0.0
  0
LINE
  5
9EB5
  8
0
 10
2440.8301358215740038
 20
141.1500759606138047
 30
0.0
 11
2440.8104507821740299
 21
141.1500759606138047
 31
0.0
  0
LINE
  5
9EB6
  8
0
 10
2440.8104507821740299
 20
141.1500759606138047
 30
0.0
 11
2440.8104507821740299
 21
141.1422323025138041
 31
0.0
  0
LINE
  5
9EB7
  8
0
 10
2440.8301358215740038
 20
141.1422323025138041
 30
0.0
 11
2440.8301358215740038
 21
141.1500759606138047
 31
0.0
  0
LINE
  5
9EB8
  8
0
 10
2440.8104507821740299
 20
141.1372673206138018
 30
0.0
 11
2440.8006082624738156
 21
141.1333454916137953
 31
0.0
  0
LINE
  5
9EB9
  8
0
 10
2440.8006082624738156
 20
141.1333454916137953
 30
0.0
 11
2440.8104507821740299
 21
141.1294236625138012
 31
0.0
  0
LINE
  5
9EBA
  8
0
 10
2440.8104507821740299
 20
141.1294236625138012
 30
0.0
 11
2440.8301358215740038
 21
141.1294236625138012
 31
0.0
  0
LINE
  5
9EBB
  8
0
 10
2440.8301358215740038
 20
141.1294236625138012
 30
0.0
 11
2440.8399783412742181
 21
141.1333454916137953
 31
0.0
  0
LINE
  5
9EBC
  8
0
 10
2440.8399783412742181
 20
141.1333454916137953
 30
0.0
 11
2440.8301358215740038
 21
141.1372673206138018
 31
0.0
  0
LINE
  5
9EBD
  8
0
 10
2440.8301358215740038
 20
141.1372673206138018
 30
0.0
 11
2440.8104507821740299
 21
141.1372673206138018
 31
0.0
  0
LINE
  5
9EBE
  8
0
 10
2440.8104507821740299
 20
141.1372673206138018
 30
0.0
 11
2440.8104507821740299
 21
141.1294236625138012
 31
0.0
  0
LINE
  5
9EBF
  8
0
 10
2440.8301358215740038
 20
141.1294236625138012
 30
0.0
 11
2440.8301358215740038
 21
141.1372673206138018
 31
0.0
  0
LINE
  5
9EC0
  8
0
 10
2440.8104507821740299
 20
141.1244586805138113
 30
0.0
 11
2440.8006082624738156
 21
141.1205368515138048
 31
0.0
  0
LINE
  5
9EC1
  8
0
 10
2440.8006082624738156
 20
141.1205368515138048
 30
0.0
 11
2440.8104507821740299
 21
141.1166150224138107
 31
0.0
  0
LINE
  5
9EC2
  8
0
 10
2440.8104507821740299
 20
141.1166150224138107
 30
0.0
 11
2440.8301358215740038
 21
141.1166150224138107
 31
0.0
  0
LINE
  5
9EC3
  8
0
 10
2440.8301358215740038
 20
141.1166150224138107
 30
0.0
 11
2440.8399783412742181
 21
141.1205368515138048
 31
0.0
  0
LINE
  5
9EC4
  8
0
 10
2440.8399783412742181
 20
141.1205368515138048
 30
0.0
 11
2440.8301358215740038
 21
141.1244586805138113
 31
0.0
  0
LINE
  5
9EC5
  8
0
 10
2440.8301358215740038
 20
141.1244586805138113
 30
0.0
 11
2440.8104507821740299
 21
141.1244586805138113
 31
0.0
  0
LINE
  5
9EC6
  8
0
 10
2440.8104507821740299
 20
141.1244586805138113
 30
0.0
 11
2440.8104507821740299
 21
141.1166150224138107
 31
0.0
  0
LINE
  5
9EC7
  8
0
 10
2440.8301358215740038
 20
141.1166150224138107
 30
0.0
 11
2440.8301358215740038
 21
141.1244586805138113
 31
0.0
  0
LINE
  5
9EC8
  8
0
 10
2440.8104507821740299
 20
141.1116500404137923
 30
0.0
 11
2440.8006082624738156
 21
141.1077282114137859
 31
0.0
  0
LINE
  5
9EC9
  8
0
 10
2440.8006082624738156
 20
141.1077282114137859
 30
0.0
 11
2440.8104507821740299
 21
141.1038063823137918
 31
0.0
  0
LINE
  5
9ECA
  8
0
 10
2440.8104507821740299
 20
141.1038063823137918
 30
0.0
 11
2440.8301358215740038
 21
141.1038063823137918
 31
0.0
  0
LINE
  5
9ECB
  8
0
 10
2440.8301358215740038
 20
141.1038063823137918
 30
0.0
 11
2440.8399783412742181
 21
141.1077282114137859
 31
0.0
  0
LINE
  5
9ECC
  8
0
 10
2440.8399783412742181
 20
141.1077282114137859
 30
0.0
 11
2440.8301358215740038
 21
141.1116500404137923
 31
0.0
  0
LINE
  5
9ECD
  8
0
 10
2440.8301358215740038
 20
141.1116500404137923
 30
0.0
 11
2440.8104507821740299
 21
141.1116500404137923
 31
0.0
  0
LINE
  5
9ECE
  8
0
 10
2440.8104507821740299
 20
141.1116500404137923
 30
0.0
 11
2440.8104507821740299
 21
141.1038063823137918
 31
0.0
  0
LINE
  5
9ECF
  8
0
 10
2440.8301358215740038
 20
141.1038063823137918
 30
0.0
 11
2440.8301358215740038
 21
141.1116500404137923
 31
0.0
  0
LINE
  5
9ED0
  8
0
 10
2440.8104507821740299
 20
141.0988414003138018
 30
0.0
 11
2440.8006082624738156
 21
141.0949195713137954
 31
0.0
  0
LINE
  5
9ED1
  8
0
 10
2440.8006082624738156
 20
141.0949195713137954
 30
0.0
 11
2440.8104507821740299
 21
141.0909977422138013
 31
0.0
  0
LINE
  5
9ED2
  8
0
 10
2440.8104507821740299
 20
141.0909977422138013
 30
0.0
 11
2440.8301358215740038
 21
141.0909977422138013
 31
0.0
  0
LINE
  5
9ED3
  8
0
 10
2440.8301358215740038
 20
141.0909977422138013
 30
0.0
 11
2440.8399783412742181
 21
141.0949195713137954
 31
0.0
  0
LINE
  5
9ED4
  8
0
 10
2440.8399783412742181
 20
141.0949195713137954
 30
0.0
 11
2440.8301358215740038
 21
141.0988414003138018
 31
0.0
  0
LINE
  5
9ED5
  8
0
 10
2440.8301358215740038
 20
141.0988414003138018
 30
0.0
 11
2440.8104507821740299
 21
141.0988414003138018
 31
0.0
  0
LINE
  5
9ED6
  8
0
 10
2440.8104507821740299
 20
141.0988414003138018
 30
0.0
 11
2440.8104507821740299
 21
141.0909977422138013
 31
0.0
  0
LINE
  5
9ED7
  8
0
 10
2440.8301358215740038
 20
141.0909977422138013
 30
0.0
 11
2440.8301358215740038
 21
141.0988414003138018
 31
0.0
  0
LINE
  5
9ED8
  8
0
 10
2440.782611932474083
 20
141.0924370802138128
 30
0.0
 11
2440.7727694127738687
 21
141.0885152512138063
 31
0.0
  0
LINE
  5
9ED9
  8
0
 10
2440.7727694127738687
 20
141.0885152512138063
 30
0.0
 11
2440.782611932474083
 21
141.0845934221138123
 31
0.0
  0
LINE
  5
9EDA
  8
0
 10
2440.782611932474083
 20
141.0845934221138123
 30
0.0
 11
2440.8022969718740569
 21
141.0845934221138123
 31
0.0
  0
LINE
  5
9EDB
  8
0
 10
2440.8022969718740569
 20
141.0845934221138123
 30
0.0
 11
2440.8121394915738165
 21
141.0885152512138063
 31
0.0
  0
LINE
  5
9EDC
  8
0
 10
2440.8121394915738165
 20
141.0885152512138063
 30
0.0
 11
2440.8022969718740569
 21
141.0924370802138128
 31
0.0
  0
LINE
  5
9EDD
  8
0
 10
2440.8022969718740569
 20
141.0924370802138128
 30
0.0
 11
2440.782611932474083
 21
141.0924370802138128
 31
0.0
  0
LINE
  5
9EDE
  8
0
 10
2440.782611932474083
 20
141.0924370802138128
 30
0.0
 11
2440.782611932474083
 21
141.0845934221138123
 31
0.0
  0
LINE
  5
9EDF
  8
0
 10
2440.8022969718740569
 20
141.0845934221138123
 30
0.0
 11
2440.8022969718740569
 21
141.0924370802138128
 31
0.0
  0
LINE
  5
9EE0
  8
0
 10
2440.782611932474083
 20
141.1052457203138033
 30
0.0
 11
2440.7727694127738687
 21
141.1013238913137968
 31
0.0
  0
LINE
  5
9EE1
  8
0
 10
2440.7727694127738687
 20
141.1013238913137968
 30
0.0
 11
2440.782611932474083
 21
141.0974020622138028
 31
0.0
  0
LINE
  5
9EE2
  8
0
 10
2440.782611932474083
 20
141.0974020622138028
 30
0.0
 11
2440.8022969718740569
 21
141.0974020622138028
 31
0.0
  0
LINE
  5
9EE3
  8
0
 10
2440.8022969718740569
 20
141.0974020622138028
 30
0.0
 11
2440.8121394915738165
 21
141.1013238913137968
 31
0.0
  0
LINE
  5
9EE4
  8
0
 10
2440.8121394915738165
 20
141.1013238913137968
 30
0.0
 11
2440.8022969718740569
 21
141.1052457203138033
 31
0.0
  0
LINE
  5
9EE5
  8
0
 10
2440.8022969718740569
 20
141.1052457203138033
 30
0.0
 11
2440.782611932474083
 21
141.1052457203138033
 31
0.0
  0
LINE
  5
9EE6
  8
0
 10
2440.782611932474083
 20
141.1052457203138033
 30
0.0
 11
2440.782611932474083
 21
141.0974020622138028
 31
0.0
  0
LINE
  5
9EE7
  8
0
 10
2440.8022969718740569
 20
141.0974020622138028
 30
0.0
 11
2440.8022969718740569
 21
141.1052457203138033
 31
0.0
  0
LINE
  5
9EE8
  8
0
 10
2440.782611932474083
 20
141.1180543604137938
 30
0.0
 11
2440.7727694127738687
 21
141.1141325314137873
 31
0.0
  0
LINE
  5
9EE9
  8
0
 10
2440.7727694127738687
 20
141.1141325314137873
 30
0.0
 11
2440.782611932474083
 21
141.1102107023137933
 31
0.0
  0
LINE
  5
9EEA
  8
0
 10
2440.782611932474083
 20
141.1102107023137933
 30
0.0
 11
2440.8022969718740569
 21
141.1102107023137933
 31
0.0
  0
LINE
  5
9EEB
  8
0
 10
2440.8022969718740569
 20
141.1102107023137933
 30
0.0
 11
2440.8121394915738165
 21
141.1141325314137873
 31
0.0
  0
LINE
  5
9EEC
  8
0
 10
2440.8121394915738165
 20
141.1141325314137873
 30
0.0
 11
2440.8022969718740569
 21
141.1180543604137938
 31
0.0
  0
LINE
  5
9EED
  8
0
 10
2440.8022969718740569
 20
141.1180543604137938
 30
0.0
 11
2440.782611932474083
 21
141.1180543604137938
 31
0.0
  0
LINE
  5
9EEE
  8
0
 10
2440.782611932474083
 20
141.1180543604137938
 30
0.0
 11
2440.782611932474083
 21
141.1102107023137933
 31
0.0
  0
LINE
  5
9EEF
  8
0
 10
2440.8022969718740569
 20
141.1102107023137933
 30
0.0
 11
2440.8022969718740569
 21
141.1180543604137938
 31
0.0
  0
LINE
  5
9EF0
  8
0
 10
2440.782611932474083
 20
141.1308630005138127
 30
0.0
 11
2440.7727694127738687
 21
141.1269411715138062
 31
0.0
  0
LINE
  5
9EF1
  8
0
 10
2440.7727694127738687
 20
141.1269411715138062
 30
0.0
 11
2440.782611932474083
 21
141.1230193424138122
 31
0.0
  0
LINE
  5
9EF2
  8
0
 10
2440.782611932474083
 20
141.1230193424138122
 30
0.0
 11
2440.8022969718740569
 21
141.1230193424138122
 31
0.0
  0
LINE
  5
9EF3
  8
0
 10
2440.8022969718740569
 20
141.1230193424138122
 30
0.0
 11
2440.8121394915738165
 21
141.1269411715138062
 31
0.0
  0
LINE
  5
9EF4
  8
0
 10
2440.8121394915738165
 20
141.1269411715138062
 30
0.0
 11
2440.8022969718740569
 21
141.1308630005138127
 31
0.0
  0
LINE
  5
9EF5
  8
0
 10
2440.8022969718740569
 20
141.1308630005138127
 30
0.0
 11
2440.782611932474083
 21
141.1308630005138127
 31
0.0
  0
LINE
  5
9EF6
  8
0
 10
2440.782611932474083
 20
141.1308630005138127
 30
0.0
 11
2440.782611932474083
 21
141.1230193424138122
 31
0.0
  0
LINE
  5
9EF7
  8
0
 10
2440.8022969718740569
 20
141.1230193424138122
 30
0.0
 11
2440.8022969718740569
 21
141.1308630005138127
 31
0.0
  0
LINE
  5
9EF8
  8
0
 10
2440.782611932474083
 20
141.1436716406138032
 30
0.0
 11
2440.7727694127738687
 21
141.1397498116137967
 31
0.0
  0
LINE
  5
9EF9
  8
0
 10
2440.7727694127738687
 20
141.1397498116137967
 30
0.0
 11
2440.782611932474083
 21
141.1358279825138027
 31
0.0
  0
LINE
  5
9EFA
  8
0
 10
2440.782611932474083
 20
141.1358279825138027
 30
0.0
 11
2440.8022969718740569
 21
141.1358279825138027
 31
0.0
  0
LINE
  5
9EFB
  8
0
 10
2440.8022969718740569
 20
141.1358279825138027
 30
0.0
 11
2440.8121394915738165
 21
141.1397498116137967
 31
0.0
  0
LINE
  5
9EFC
  8
0
 10
2440.8121394915738165
 20
141.1397498116137967
 30
0.0
 11
2440.8022969718740569
 21
141.1436716406138032
 31
0.0
  0
LINE
  5
9EFD
  8
0
 10
2440.8022969718740569
 20
141.1436716406138032
 30
0.0
 11
2440.782611932474083
 21
141.1436716406138032
 31
0.0
  0
LINE
  5
9EFE
  8
0
 10
2440.782611932474083
 20
141.1436716406138032
 30
0.0
 11
2440.782611932474083
 21
141.1358279825138027
 31
0.0
  0
LINE
  5
9EFF
  8
0
 10
2440.8022969718740569
 20
141.1358279825138027
 30
0.0
 11
2440.8022969718740569
 21
141.1436716406138032
 31
0.0
  0
LINE
  5
9F00
  8
0
 10
2440.782611932474083
 20
141.1564802807137937
 30
0.0
 11
2440.7727694127738687
 21
141.1525584517137872
 31
0.0
  0
LINE
  5
9F01
  8
0
 10
2440.7727694127738687
 20
141.1525584517137872
 30
0.0
 11
2440.782611932474083
 21
141.1486366226137932
 31
0.0
  0
LINE
  5
9F02
  8
0
 10
2440.782611932474083
 20
141.1486366226137932
 30
0.0
 11
2440.8022969718740569
 21
141.1486366226137932
 31
0.0
  0
LINE
  5
9F03
  8
0
 10
2440.8022969718740569
 20
141.1486366226137932
 30
0.0
 11
2440.8121394915738165
 21
141.1525584517137872
 31
0.0
  0
LINE
  5
9F04
  8
0
 10
2440.8121394915738165
 20
141.1525584517137872
 30
0.0
 11
2440.8022969718740569
 21
141.1564802807137937
 31
0.0
  0
LINE
  5
9F05
  8
0
 10
2440.8022969718740569
 20
141.1564802807137937
 30
0.0
 11
2440.782611932474083
 21
141.1564802807137937
 31
0.0
  0
LINE
  5
9F06
  8
0
 10
2440.782611932474083
 20
141.1564802807137937
 30
0.0
 11
2440.782611932474083
 21
141.1486366226137932
 31
0.0
  0
LINE
  5
9F07
  8
0
 10
2440.8022969718740569
 20
141.1486366226137932
 30
0.0
 11
2440.8022969718740569
 21
141.1564802807137937
 31
0.0
  0
LINE
  5
9F08
  8
0
 10
2440.7547730828741805
 20
141.1628846007137952
 30
0.0
 11
2440.7449305631739662
 21
141.1589627717137887
 31
0.0
  0
LINE
  5
9F09
  8
0
 10
2440.7449305631739662
 20
141.1589627717137887
 30
0.0
 11
2440.7547730828741805
 21
141.1550409426137946
 31
0.0
  0
LINE
  5
9F0A
  8
0
 10
2440.7547730828741805
 20
141.1550409426137946
 30
0.0
 11
2440.7744581222741544
 21
141.1550409426137946
 31
0.0
  0
LINE
  5
9F0B
  8
0
 10
2440.7744581222741544
 20
141.1550409426137946
 30
0.0
 11
2440.784300641973914
 21
141.1589627717137887
 31
0.0
  0
LINE
  5
9F0C
  8
0
 10
2440.784300641973914
 20
141.1589627717137887
 30
0.0
 11
2440.7744581222741544
 21
141.1628846007137952
 31
0.0
  0
LINE
  5
9F0D
  8
0
 10
2440.7744581222741544
 20
141.1628846007137952
 30
0.0
 11
2440.7547730828741805
 21
141.1628846007137952
 31
0.0
  0
LINE
  5
9F0E
  8
0
 10
2440.7547730828741805
 20
141.1628846007137952
 30
0.0
 11
2440.7547730828741805
 21
141.1550409426137946
 31
0.0
  0
LINE
  5
9F0F
  8
0
 10
2440.7744581222741544
 20
141.1550409426137946
 30
0.0
 11
2440.7744581222741544
 21
141.1628846007137952
 31
0.0
  0
LINE
  5
9F10
  8
0
 10
2440.7547730828741805
 20
141.1756932408138141
 30
0.0
 11
2440.7449305631739662
 21
141.1717714118138076
 31
0.0
  0
LINE
  5
9F11
  8
0
 10
2440.7449305631739662
 20
141.1717714118138076
 30
0.0
 11
2440.7547730828741805
 21
141.1678495827138136
 31
0.0
  0
LINE
  5
9F12
  8
0
 10
2440.7547730828741805
 20
141.1678495827138136
 30
0.0
 11
2440.7744581222741544
 21
141.1678495827138136
 31
0.0
  0
LINE
  5
9F13
  8
0
 10
2440.7744581222741544
 20
141.1678495827138136
 30
0.0
 11
2440.784300641973914
 21
141.1717714118138076
 31
0.0
  0
LINE
  5
9F14
  8
0
 10
2440.784300641973914
 20
141.1717714118138076
 30
0.0
 11
2440.7744581222741544
 21
141.1756932408138141
 31
0.0
  0
LINE
  5
9F15
  8
0
 10
2440.7744581222741544
 20
141.1756932408138141
 30
0.0
 11
2440.7547730828741805
 21
141.1756932408138141
 31
0.0
  0
LINE
  5
9F16
  8
0
 10
2440.7547730828741805
 20
141.1756932408138141
 30
0.0
 11
2440.7547730828741805
 21
141.1678495827138136
 31
0.0
  0
LINE
  5
9F17
  8
0
 10
2440.7744581222741544
 20
141.1678495827138136
 30
0.0
 11
2440.7744581222741544
 21
141.1756932408138141
 31
0.0
  0
LINE
  5
9F18
  8
0
 10
2440.782611932474083
 20
141.1692889208138126
 30
0.0
 11
2440.7727694127738687
 21
141.1653670918138062
 31
0.0
  0
LINE
  5
9F19
  8
0
 10
2440.7727694127738687
 20
141.1653670918138062
 30
0.0
 11
2440.782611932474083
 21
141.1614452627138121
 31
0.0
  0
LINE
  5
9F1A
  8
0
 10
2440.782611932474083
 20
141.1614452627138121
 30
0.0
 11
2440.8022969718740569
 21
141.1614452627138121
 31
0.0
  0
LINE
  5
9F1B
  8
0
 10
2440.8022969718740569
 20
141.1614452627138121
 30
0.0
 11
2440.8121394915738165
 21
141.1653670918138062
 31
0.0
  0
LINE
  5
9F1C
  8
0
 10
2440.8121394915738165
 20
141.1653670918138062
 30
0.0
 11
2440.8022969718740569
 21
141.1692889208138126
 31
0.0
  0
LINE
  5
9F1D
  8
0
 10
2440.8022969718740569
 20
141.1692889208138126
 30
0.0
 11
2440.782611932474083
 21
141.1692889208138126
 31
0.0
  0
LINE
  5
9F1E
  8
0
 10
2440.782611932474083
 20
141.1692889208138126
 30
0.0
 11
2440.782611932474083
 21
141.1614452627138121
 31
0.0
  0
LINE
  5
9F1F
  8
0
 10
2440.8022969718740569
 20
141.1614452627138121
 30
0.0
 11
2440.8022969718740569
 21
141.1692889208138126
 31
0.0
  0
LINE
  5
9F20
  8
0
 10
2440.782611932474083
 20
141.1820975609138031
 30
0.0
 11
2440.7727694127738687
 21
141.1781757319137967
 31
0.0
  0
LINE
  5
9F21
  8
0
 10
2440.7727694127738687
 20
141.1781757319137967
 30
0.0
 11
2440.782611932474083
 21
141.1742539028138026
 31
0.0
  0
LINE
  5
9F22
  8
0
 10
2440.782611932474083
 20
141.1742539028138026
 30
0.0
 11
2440.8022969718740569
 21
141.1742539028138026
 31
0.0
  0
LINE
  5
9F23
  8
0
 10
2440.8022969718740569
 20
141.1742539028138026
 30
0.0
 11
2440.8121394915738165
 21
141.1781757319137967
 31
0.0
  0
LINE
  5
9F24
  8
0
 10
2440.8121394915738165
 20
141.1781757319137967
 30
0.0
 11
2440.8022969718740569
 21
141.1820975609138031
 31
0.0
  0
LINE
  5
9F25
  8
0
 10
2440.8022969718740569
 20
141.1820975609138031
 30
0.0
 11
2440.782611932474083
 21
141.1820975609138031
 31
0.0
  0
LINE
  5
9F26
  8
0
 10
2440.782611932474083
 20
141.1820975609138031
 30
0.0
 11
2440.782611932474083
 21
141.1742539028138026
 31
0.0
  0
LINE
  5
9F27
  8
0
 10
2440.8022969718740569
 20
141.1742539028138026
 30
0.0
 11
2440.8022969718740569
 21
141.1820975609138031
 31
0.0
  0
LINE
  5
9F28
  8
0
 10
2440.7547730828741805
 20
141.1500759606138047
 30
0.0
 11
2440.7449305631739662
 21
141.1461541316137982
 31
0.0
  0
LINE
  5
9F29
  8
0
 10
2440.7449305631739662
 20
141.1461541316137982
 30
0.0
 11
2440.7547730828741805
 21
141.1422323025138041
 31
0.0
  0
LINE
  5
9F2A
  8
0
 10
2440.7547730828741805
 20
141.1422323025138041
 30
0.0
 11
2440.7744581222741544
 21
141.1422323025138041
 31
0.0
  0
LINE
  5
9F2B
  8
0
 10
2440.7744581222741544
 20
141.1422323025138041
 30
0.0
 11
2440.784300641973914
 21
141.1461541316137982
 31
0.0
  0
LINE
  5
9F2C
  8
0
 10
2440.784300641973914
 20
141.1461541316137982
 30
0.0
 11
2440.7744581222741544
 21
141.1500759606138047
 31
0.0
  0
LINE
  5
9F2D
  8
0
 10
2440.7744581222741544
 20
141.1500759606138047
 30
0.0
 11
2440.7547730828741805
 21
141.1500759606138047
 31
0.0
  0
LINE
  5
9F2E
  8
0
 10
2440.7547730828741805
 20
141.1500759606138047
 30
0.0
 11
2440.7547730828741805
 21
141.1422323025138041
 31
0.0
  0
LINE
  5
9F2F
  8
0
 10
2440.7744581222741544
 20
141.1422323025138041
 30
0.0
 11
2440.7744581222741544
 21
141.1500759606138047
 31
0.0
  0
LINE
  5
9F30
  8
0
 10
2440.7547730828741805
 20
141.1885018809138046
 30
0.0
 11
2440.7449305631739662
 21
141.1845800519137981
 31
0.0
  0
LINE
  5
9F31
  8
0
 10
2440.7449305631739662
 20
141.1845800519137981
 30
0.0
 11
2440.7547730828741805
 21
141.1806582228138041
 31
0.0
  0
LINE
  5
9F32
  8
0
 10
2440.7547730828741805
 20
141.1806582228138041
 30
0.0
 11
2440.7744581222741544
 21
141.1806582228138041
 31
0.0
  0
LINE
  5
9F33
  8
0
 10
2440.7744581222741544
 20
141.1806582228138041
 30
0.0
 11
2440.784300641973914
 21
141.1845800519137981
 31
0.0
  0
LINE
  5
9F34
  8
0
 10
2440.784300641973914
 20
141.1845800519137981
 30
0.0
 11
2440.7744581222741544
 21
141.1885018809138046
 31
0.0
  0
LINE
  5
9F35
  8
0
 10
2440.7744581222741544
 20
141.1885018809138046
 30
0.0
 11
2440.7547730828741805
 21
141.1885018809138046
 31
0.0
  0
LINE
  5
9F36
  8
0
 10
2440.7547730828741805
 20
141.1885018809138046
 30
0.0
 11
2440.7547730828741805
 21
141.1806582228138041
 31
0.0
  0
LINE
  5
9F37
  8
0
 10
2440.7744581222741544
 20
141.1806582228138041
 30
0.0
 11
2440.7744581222741544
 21
141.1885018809138046
 31
0.0
  0
LINE
  5
9F38
  8
0
 10
2440.7269342331737789
 20
141.1820975609138031
 30
0.0
 11
2440.7170917134740193
 21
141.1781757319137967
 31
0.0
  0
LINE
  5
9F39
  8
0
 10
2440.7170917134740193
 20
141.1781757319137967
 30
0.0
 11
2440.7269342331737789
 21
141.1742539028138026
 31
0.0
  0
LINE
  5
9F3A
  8
0
 10
2440.7269342331737789
 20
141.1742539028138026
 30
0.0
 11
2440.7466192725742076
 21
141.1742539028138026
 31
0.0
  0
LINE
  5
9F3B
  8
0
 10
2440.7466192725742076
 20
141.1742539028138026
 30
0.0
 11
2440.7564617922739671
 21
141.1781757319137967
 31
0.0
  0
LINE
  5
9F3C
  8
0
 10
2440.7564617922739671
 20
141.1781757319137967
 30
0.0
 11
2440.7466192725742076
 21
141.1820975609138031
 31
0.0
  0
LINE
  5
9F3D
  8
0
 10
2440.7466192725742076
 20
141.1820975609138031
 30
0.0
 11
2440.7269342331737789
 21
141.1820975609138031
 31
0.0
  0
LINE
  5
9F3E
  8
0
 10
2440.7269342331737789
 20
141.1820975609138031
 30
0.0
 11
2440.7269342331737789
 21
141.1742539028138026
 31
0.0
  0
LINE
  5
9F3F
  8
0
 10
2440.7466192725742076
 20
141.1742539028138026
 30
0.0
 11
2440.7466192725742076
 21
141.1820975609138031
 31
0.0
  0
LINE
  5
9F40
  8
0
 10
2440.7269342331737789
 20
141.1692889208138126
 30
0.0
 11
2440.7170917134740193
 21
141.1653670918138062
 31
0.0
  0
LINE
  5
9F41
  8
0
 10
2440.7170917134740193
 20
141.1653670918138062
 30
0.0
 11
2440.7269342331737789
 21
141.1614452627138121
 31
0.0
  0
LINE
  5
9F42
  8
0
 10
2440.7269342331737789
 20
141.1614452627138121
 30
0.0
 11
2440.7466192725742076
 21
141.1614452627138121
 31
0.0
  0
LINE
  5
9F43
  8
0
 10
2440.7466192725742076
 20
141.1614452627138121
 30
0.0
 11
2440.7564617922739671
 21
141.1653670918138062
 31
0.0
  0
LINE
  5
9F44
  8
0
 10
2440.7564617922739671
 20
141.1653670918138062
 30
0.0
 11
2440.7466192725742076
 21
141.1692889208138126
 31
0.0
  0
LINE
  5
9F45
  8
0
 10
2440.7466192725742076
 20
141.1692889208138126
 30
0.0
 11
2440.7269342331737789
 21
141.1692889208138126
 31
0.0
  0
LINE
  5
9F46
  8
0
 10
2440.7269342331737789
 20
141.1692889208138126
 30
0.0
 11
2440.7269342331737789
 21
141.1614452627138121
 31
0.0
  0
LINE
  5
9F47
  8
0
 10
2440.7466192725742076
 20
141.1614452627138121
 30
0.0
 11
2440.7466192725742076
 21
141.1692889208138126
 31
0.0
  0
LINE
  5
9F48
  8
0
 10
2440.6990953835738765
 20
141.1756932408138141
 30
0.0
 11
2440.6892528638750264
 21
141.1717714118138076
 31
0.0
  0
LINE
  5
9F49
  8
0
 10
2440.6892528638750264
 20
141.1717714118138076
 30
0.0
 11
2440.6990953835738765
 21
141.1678495827138136
 31
0.0
  0
LINE
  5
9F4A
  8
0
 10
2440.6990953835738765
 20
141.1678495827138136
 30
0.0
 11
2440.7187804229738504
 21
141.1678495827138136
 31
0.0
  0
LINE
  5
9F4B
  8
0
 10
2440.7187804229738504
 20
141.1678495827138136
 30
0.0
 11
2440.7286229426740647
 21
141.1717714118138076
 31
0.0
  0
LINE
  5
9F4C
  8
0
 10
2440.7286229426740647
 20
141.1717714118138076
 30
0.0
 11
2440.7187804229738504
 21
141.1756932408138141
 31
0.0
  0
LINE
  5
9F4D
  8
0
 10
2440.7187804229738504
 20
141.1756932408138141
 30
0.0
 11
2440.6990953835738765
 21
141.1756932408138141
 31
0.0
  0
LINE
  5
9F4E
  8
0
 10
2440.6990953835738765
 20
141.1756932408138141
 30
0.0
 11
2440.6990953835738765
 21
141.1678495827138136
 31
0.0
  0
LINE
  5
9F4F
  8
0
 10
2440.7187804229738504
 20
141.1678495827138136
 30
0.0
 11
2440.7187804229738504
 21
141.1756932408138141
 31
0.0
  0
LINE
  5
9F50
  8
0
 10
2440.6990953835738765
 20
141.1372673206138018
 30
0.0
 11
2440.6892528638750264
 21
141.1333454916137953
 31
0.0
  0
LINE
  5
9F51
  8
0
 10
2440.6892528638750264
 20
141.1333454916137953
 30
0.0
 11
2440.6990953835738765
 21
141.1294236625138012
 31
0.0
  0
LINE
  5
9F52
  8
0
 10
2440.6990953835738765
 20
141.1294236625138012
 30
0.0
 11
2440.7187804229738504
 21
141.1294236625138012
 31
0.0
  0
LINE
  5
9F53
  8
0
 10
2440.7187804229738504
 20
141.1294236625138012
 30
0.0
 11
2440.7286229426740647
 21
141.1333454916137953
 31
0.0
  0
LINE
  5
9F54
  8
0
 10
2440.7286229426740647
 20
141.1333454916137953
 30
0.0
 11
2440.7187804229738504
 21
141.1372673206138018
 31
0.0
  0
LINE
  5
9F55
  8
0
 10
2440.7187804229738504
 20
141.1372673206138018
 30
0.0
 11
2440.6990953835738765
 21
141.1372673206138018
 31
0.0
  0
LINE
  5
9F56
  8
0
 10
2440.6990953835738765
 20
141.1372673206138018
 30
0.0
 11
2440.6990953835738765
 21
141.1294236625138012
 31
0.0
  0
LINE
  5
9F57
  8
0
 10
2440.7187804229738504
 20
141.1294236625138012
 30
0.0
 11
2440.7187804229738504
 21
141.1372673206138018
 31
0.0
  0
LINE
  5
9F58
  8
0
 10
2440.6990953835738765
 20
141.1500759606138047
 30
0.0
 11
2440.6892528638750264
 21
141.1461541316137982
 31
0.0
  0
LINE
  5
9F59
  8
0
 10
2440.6892528638750264
 20
141.1461541316137982
 30
0.0
 11
2440.6990953835738765
 21
141.1422323025138041
 31
0.0
  0
LINE
  5
9F5A
  8
0
 10
2440.6990953835738765
 20
141.1422323025138041
 30
0.0
 11
2440.7187804229738504
 21
141.1422323025138041
 31
0.0
  0
LINE
  5
9F5B
  8
0
 10
2440.7187804229738504
 20
141.1422323025138041
 30
0.0
 11
2440.7286229426740647
 21
141.1461541316137982
 31
0.0
  0
LINE
  5
9F5C
  8
0
 10
2440.7286229426740647
 20
141.1461541316137982
 30
0.0
 11
2440.7187804229738504
 21
141.1500759606138047
 31
0.0
  0
LINE
  5
9F5D
  8
0
 10
2440.7187804229738504
 20
141.1500759606138047
 30
0.0
 11
2440.6990953835738765
 21
141.1500759606138047
 31
0.0
  0
LINE
  5
9F5E
  8
0
 10
2440.6990953835738765
 20
141.1500759606138047
 30
0.0
 11
2440.6990953835738765
 21
141.1422323025138041
 31
0.0
  0
LINE
  5
9F5F
  8
0
 10
2440.7187804229738504
 20
141.1422323025138041
 30
0.0
 11
2440.7187804229738504
 21
141.1500759606138047
 31
0.0
  0
LINE
  5
9F60
  8
0
 10
2440.6990953835738765
 20
141.1628846007137952
 30
0.0
 11
2440.6892528638750264
 21
141.1589627717137887
 31
0.0
  0
LINE
  5
9F61
  8
0
 10
2440.6892528638750264
 20
141.1589627717137887
 30
0.0
 11
2440.6990953835738765
 21
141.1550409426137946
 31
0.0
  0
LINE
  5
9F62
  8
0
 10
2440.6990953835738765
 20
141.1550409426137946
 30
0.0
 11
2440.7187804229738504
 21
141.1550409426137946
 31
0.0
  0
LINE
  5
9F63
  8
0
 10
2440.7187804229738504
 20
141.1550409426137946
 30
0.0
 11
2440.7286229426740647
 21
141.1589627717137887
 31
0.0
  0
LINE
  5
9F64
  8
0
 10
2440.7286229426740647
 20
141.1589627717137887
 30
0.0
 11
2440.7187804229738504
 21
141.1628846007137952
 31
0.0
  0
LINE
  5
9F65
  8
0
 10
2440.7187804229738504
 20
141.1628846007137952
 30
0.0
 11
2440.6990953835738765
 21
141.1628846007137952
 31
0.0
  0
LINE
  5
9F66
  8
0
 10
2440.6990953835738765
 20
141.1628846007137952
 30
0.0
 11
2440.6990953835738765
 21
141.1550409426137946
 31
0.0
  0
LINE
  5
9F67
  8
0
 10
2440.7187804229738504
 20
141.1550409426137946
 30
0.0
 11
2440.7187804229738504
 21
141.1628846007137952
 31
0.0
  0
LINE
  5
9F68
  8
0
 10
2440.7269342331737789
 20
141.1436716406138032
 30
0.0
 11
2440.7170917134740193
 21
141.1397498116137967
 31
0.0
  0
LINE
  5
9F69
  8
0
 10
2440.7170917134740193
 20
141.1397498116137967
 30
0.0
 11
2440.7269342331737789
 21
141.1358279825138027
 31
0.0
  0
LINE
  5
9F6A
  8
0
 10
2440.7269342331737789
 20
141.1358279825138027
 30
0.0
 11
2440.7466192725742076
 21
141.1358279825138027
 31
0.0
  0
LINE
  5
9F6B
  8
0
 10
2440.7466192725742076
 20
141.1358279825138027
 30
0.0
 11
2440.7564617922739671
 21
141.1397498116137967
 31
0.0
  0
LINE
  5
9F6C
  8
0
 10
2440.7564617922739671
 20
141.1397498116137967
 30
0.0
 11
2440.7466192725742076
 21
141.1436716406138032
 31
0.0
  0
LINE
  5
9F6D
  8
0
 10
2440.7466192725742076
 20
141.1436716406138032
 30
0.0
 11
2440.7269342331737789
 21
141.1436716406138032
 31
0.0
  0
LINE
  5
9F6E
  8
0
 10
2440.7269342331737789
 20
141.1436716406138032
 30
0.0
 11
2440.7269342331737789
 21
141.1358279825138027
 31
0.0
  0
LINE
  5
9F6F
  8
0
 10
2440.7466192725742076
 20
141.1358279825138027
 30
0.0
 11
2440.7466192725742076
 21
141.1436716406138032
 31
0.0
  0
LINE
  5
9F70
  8
0
 10
2440.7269342331737789
 20
141.1564802807137937
 30
0.0
 11
2440.7170917134740193
 21
141.1525584517137872
 31
0.0
  0
LINE
  5
9F71
  8
0
 10
2440.7170917134740193
 20
141.1525584517137872
 30
0.0
 11
2440.7269342331737789
 21
141.1486366226137932
 31
0.0
  0
LINE
  5
9F72
  8
0
 10
2440.7269342331737789
 20
141.1486366226137932
 30
0.0
 11
2440.7466192725742076
 21
141.1486366226137932
 31
0.0
  0
LINE
  5
9F73
  8
0
 10
2440.7466192725742076
 20
141.1486366226137932
 30
0.0
 11
2440.7564617922739671
 21
141.1525584517137872
 31
0.0
  0
LINE
  5
9F74
  8
0
 10
2440.7564617922739671
 20
141.1525584517137872
 30
0.0
 11
2440.7466192725742076
 21
141.1564802807137937
 31
0.0
  0
LINE
  5
9F75
  8
0
 10
2440.7466192725742076
 20
141.1564802807137937
 30
0.0
 11
2440.7269342331737789
 21
141.1564802807137937
 31
0.0
  0
LINE
  5
9F76
  8
0
 10
2440.7269342331737789
 20
141.1564802807137937
 30
0.0
 11
2440.7269342331737789
 21
141.1486366226137932
 31
0.0
  0
LINE
  5
9F77
  8
0
 10
2440.7466192725742076
 20
141.1486366226137932
 30
0.0
 11
2440.7466192725742076
 21
141.1564802807137937
 31
0.0
  0
LINE
  5
9F78
  8
0
 10
2440.7269342331737789
 20
141.1180543604137938
 30
0.0
 11
2440.7170917134740193
 21
141.1141325314137873
 31
0.0
  0
LINE
  5
9F79
  8
0
 10
2440.7170917134740193
 20
141.1141325314137873
 30
0.0
 11
2440.7269342331737789
 21
141.1102107023137933
 31
0.0
  0
LINE
  5
9F7A
  8
0
 10
2440.7269342331737789
 20
141.1102107023137933
 30
0.0
 11
2440.7466192725742076
 21
141.1102107023137933
 31
0.0
  0
LINE
  5
9F7B
  8
0
 10
2440.7466192725742076
 20
141.1102107023137933
 30
0.0
 11
2440.7564617922739671
 21
141.1141325314137873
 31
0.0
  0
LINE
  5
9F7C
  8
0
 10
2440.7564617922739671
 20
141.1141325314137873
 30
0.0
 11
2440.7466192725742076
 21
141.1180543604137938
 31
0.0
  0
LINE
  5
9F7D
  8
0
 10
2440.7466192725742076
 20
141.1180543604137938
 30
0.0
 11
2440.7269342331737789
 21
141.1180543604137938
 31
0.0
  0
LINE
  5
9F7E
  8
0
 10
2440.7269342331737789
 20
141.1180543604137938
 30
0.0
 11
2440.7269342331737789
 21
141.1102107023137933
 31
0.0
  0
LINE
  5
9F7F
  8
0
 10
2440.7466192725742076
 20
141.1102107023137933
 30
0.0
 11
2440.7466192725742076
 21
141.1180543604137938
 31
0.0
  0
LINE
  5
9F80
  8
0
 10
2440.7269342331737789
 20
141.1308630005138127
 30
0.0
 11
2440.7170917134740193
 21
141.1269411715138062
 31
0.0
  0
LINE
  5
9F81
  8
0
 10
2440.7170917134740193
 20
141.1269411715138062
 30
0.0
 11
2440.7269342331737789
 21
141.1230193424138122
 31
0.0
  0
LINE
  5
9F82
  8
0
 10
2440.7269342331737789
 20
141.1230193424138122
 30
0.0
 11
2440.7466192725742076
 21
141.1230193424138122
 31
0.0
  0
LINE
  5
9F83
  8
0
 10
2440.7466192725742076
 20
141.1230193424138122
 30
0.0
 11
2440.7564617922739671
 21
141.1269411715138062
 31
0.0
  0
LINE
  5
9F84
  8
0
 10
2440.7564617922739671
 20
141.1269411715138062
 30
0.0
 11
2440.7466192725742076
 21
141.1308630005138127
 31
0.0
  0
LINE
  5
9F85
  8
0
 10
2440.7466192725742076
 20
141.1308630005138127
 30
0.0
 11
2440.7269342331737789
 21
141.1308630005138127
 31
0.0
  0
LINE
  5
9F86
  8
0
 10
2440.7269342331737789
 20
141.1308630005138127
 30
0.0
 11
2440.7269342331737789
 21
141.1230193424138122
 31
0.0
  0
LINE
  5
9F87
  8
0
 10
2440.7466192725742076
 20
141.1230193424138122
 30
0.0
 11
2440.7466192725742076
 21
141.1308630005138127
 31
0.0
  0
LINE
  5
9F88
  8
0
 10
2440.7547730828741805
 20
141.1244586805138113
 30
0.0
 11
2440.7449305631739662
 21
141.1205368515138048
 31
0.0
  0
LINE
  5
9F89
  8
0
 10
2440.7449305631739662
 20
141.1205368515138048
 30
0.0
 11
2440.7547730828741805
 21
141.1166150224138107
 31
0.0
  0
LINE
  5
9F8A
  8
0
 10
2440.7547730828741805
 20
141.1166150224138107
 30
0.0
 11
2440.7744581222741544
 21
141.1166150224138107
 31
0.0
  0
LINE
  5
9F8B
  8
0
 10
2440.7744581222741544
 20
141.1166150224138107
 30
0.0
 11
2440.784300641973914
 21
141.1205368515138048
 31
0.0
  0
LINE
  5
9F8C
  8
0
 10
2440.784300641973914
 20
141.1205368515138048
 30
0.0
 11
2440.7744581222741544
 21
141.1244586805138113
 31
0.0
  0
LINE
  5
9F8D
  8
0
 10
2440.7744581222741544
 20
141.1244586805138113
 30
0.0
 11
2440.7547730828741805
 21
141.1244586805138113
 31
0.0
  0
LINE
  5
9F8E
  8
0
 10
2440.7547730828741805
 20
141.1244586805138113
 30
0.0
 11
2440.7547730828741805
 21
141.1166150224138107
 31
0.0
  0
LINE
  5
9F8F
  8
0
 10
2440.7744581222741544
 20
141.1166150224138107
 30
0.0
 11
2440.7744581222741544
 21
141.1244586805138113
 31
0.0
  0
LINE
  5
9F90
  8
0
 10
2440.7547730828741805
 20
141.1372673206138018
 30
0.0
 11
2440.7449305631739662
 21
141.1333454916137953
 31
0.0
  0
LINE
  5
9F91
  8
0
 10
2440.7449305631739662
 20
141.1333454916137953
 30
0.0
 11
2440.7547730828741805
 21
141.1294236625138012
 31
0.0
  0
LINE
  5
9F92
  8
0
 10
2440.7547730828741805
 20
141.1294236625138012
 30
0.0
 11
2440.7744581222741544
 21
141.1294236625138012
 31
0.0
  0
LINE
  5
9F93
  8
0
 10
2440.7744581222741544
 20
141.1294236625138012
 30
0.0
 11
2440.784300641973914
 21
141.1333454916137953
 31
0.0
  0
LINE
  5
9F94
  8
0
 10
2440.784300641973914
 20
141.1333454916137953
 30
0.0
 11
2440.7744581222741544
 21
141.1372673206138018
 31
0.0
  0
LINE
  5
9F95
  8
0
 10
2440.7744581222741544
 20
141.1372673206138018
 30
0.0
 11
2440.7547730828741805
 21
141.1372673206138018
 31
0.0
  0
LINE
  5
9F96
  8
0
 10
2440.7547730828741805
 20
141.1372673206138018
 30
0.0
 11
2440.7547730828741805
 21
141.1294236625138012
 31
0.0
  0
LINE
  5
9F97
  8
0
 10
2440.7744581222741544
 20
141.1294236625138012
 30
0.0
 11
2440.7744581222741544
 21
141.1372673206138018
 31
0.0
  0
LINE
  5
9F98
  8
0
 10
2440.7547730828741805
 20
141.1116500404137923
 30
0.0
 11
2440.7449305631739662
 21
141.1077282114137859
 31
0.0
  0
LINE
  5
9F99
  8
0
 10
2440.7449305631739662
 20
141.1077282114137859
 30
0.0
 11
2440.7547730828741805
 21
141.1038063823137918
 31
0.0
  0
LINE
  5
9F9A
  8
0
 10
2440.7547730828741805
 20
141.1038063823137918
 30
0.0
 11
2440.7744581222741544
 21
141.1038063823137918
 31
0.0
  0
LINE
  5
9F9B
  8
0
 10
2440.7744581222741544
 20
141.1038063823137918
 30
0.0
 11
2440.784300641973914
 21
141.1077282114137859
 31
0.0
  0
LINE
  5
9F9C
  8
0
 10
2440.784300641973914
 20
141.1077282114137859
 30
0.0
 11
2440.7744581222741544
 21
141.1116500404137923
 31
0.0
  0
LINE
  5
9F9D
  8
0
 10
2440.7744581222741544
 20
141.1116500404137923
 30
0.0
 11
2440.7547730828741805
 21
141.1116500404137923
 31
0.0
  0
LINE
  5
9F9E
  8
0
 10
2440.7547730828741805
 20
141.1116500404137923
 30
0.0
 11
2440.7547730828741805
 21
141.1038063823137918
 31
0.0
  0
LINE
  5
9F9F
  8
0
 10
2440.7744581222741544
 20
141.1038063823137918
 30
0.0
 11
2440.7744581222741544
 21
141.1116500404137923
 31
0.0
  0
LINE
  5
9FA0
  8
0
 10
2440.7547730828741805
 20
141.0988414003138018
 30
0.0
 11
2440.7449305631739662
 21
141.0949195713137954
 31
0.0
  0
LINE
  5
9FA1
  8
0
 10
2440.7449305631739662
 20
141.0949195713137954
 30
0.0
 11
2440.7547730828741805
 21
141.0909977422138013
 31
0.0
  0
LINE
  5
9FA2
  8
0
 10
2440.7547730828741805
 20
141.0909977422138013
 30
0.0
 11
2440.7744581222741544
 21
141.0909977422138013
 31
0.0
  0
LINE
  5
9FA3
  8
0
 10
2440.7744581222741544
 20
141.0909977422138013
 30
0.0
 11
2440.784300641973914
 21
141.0949195713137954
 31
0.0
  0
LINE
  5
9FA4
  8
0
 10
2440.784300641973914
 20
141.0949195713137954
 30
0.0
 11
2440.7744581222741544
 21
141.0988414003138018
 31
0.0
  0
LINE
  5
9FA5
  8
0
 10
2440.7744581222741544
 20
141.0988414003138018
 30
0.0
 11
2440.7547730828741805
 21
141.0988414003138018
 31
0.0
  0
LINE
  5
9FA6
  8
0
 10
2440.7547730828741805
 20
141.0988414003138018
 30
0.0
 11
2440.7547730828741805
 21
141.0909977422138013
 31
0.0
  0
LINE
  5
9FA7
  8
0
 10
2440.7744581222741544
 20
141.0909977422138013
 30
0.0
 11
2440.7744581222741544
 21
141.0988414003138018
 31
0.0
  0
LINE
  5
9FA8
  8
0
 10
2440.7269342331737789
 20
141.1052457203138033
 30
0.0
 11
2440.7170917134740193
 21
141.1013238913137968
 31
0.0
  0
LINE
  5
9FA9
  8
0
 10
2440.7170917134740193
 20
141.1013238913137968
 30
0.0
 11
2440.7269342331737789
 21
141.0974020622138028
 31
0.0
  0
LINE
  5
9FAA
  8
0
 10
2440.7269342331737789
 20
141.0974020622138028
 30
0.0
 11
2440.7466192725742076
 21
141.0974020622138028
 31
0.0
  0
LINE
  5
9FAB
  8
0
 10
2440.7466192725742076
 20
141.0974020622138028
 30
0.0
 11
2440.7564617922739671
 21
141.1013238913137968
 31
0.0
  0
LINE
  5
9FAC
  8
0
 10
2440.7564617922739671
 20
141.1013238913137968
 30
0.0
 11
2440.7466192725742076
 21
141.1052457203138033
 31
0.0
  0
LINE
  5
9FAD
  8
0
 10
2440.7466192725742076
 20
141.1052457203138033
 30
0.0
 11
2440.7269342331737789
 21
141.1052457203138033
 31
0.0
  0
LINE
  5
9FAE
  8
0
 10
2440.7269342331737789
 20
141.1052457203138033
 30
0.0
 11
2440.7269342331737789
 21
141.0974020622138028
 31
0.0
  0
LINE
  5
9FAF
  8
0
 10
2440.7466192725742076
 20
141.0974020622138028
 30
0.0
 11
2440.7466192725742076
 21
141.1052457203138033
 31
0.0
  0
LINE
  5
9FB0
  8
0
 10
2440.6990953835738765
 20
141.1244586805138113
 30
0.0
 11
2440.6892528638750264
 21
141.1205368515138048
 31
0.0
  0
LINE
  5
9FB1
  8
0
 10
2440.6892528638750264
 20
141.1205368515138048
 30
0.0
 11
2440.6990953835738765
 21
141.1166150224138107
 31
0.0
  0
LINE
  5
9FB2
  8
0
 10
2440.6990953835738765
 20
141.1166150224138107
 30
0.0
 11
2440.7187804229738504
 21
141.1166150224138107
 31
0.0
  0
LINE
  5
9FB3
  8
0
 10
2440.7187804229738504
 20
141.1166150224138107
 30
0.0
 11
2440.7286229426740647
 21
141.1205368515138048
 31
0.0
  0
LINE
  5
9FB4
  8
0
 10
2440.7286229426740647
 20
141.1205368515138048
 30
0.0
 11
2440.7187804229738504
 21
141.1244586805138113
 31
0.0
  0
LINE
  5
9FB5
  8
0
 10
2440.7187804229738504
 20
141.1244586805138113
 30
0.0
 11
2440.6990953835738765
 21
141.1244586805138113
 31
0.0
  0
LINE
  5
9FB6
  8
0
 10
2440.6990953835738765
 20
141.1244586805138113
 30
0.0
 11
2440.6990953835738765
 21
141.1166150224138107
 31
0.0
  0
LINE
  5
9FB7
  8
0
 10
2440.7187804229738504
 20
141.1166150224138107
 30
0.0
 11
2440.7187804229738504
 21
141.1244586805138113
 31
0.0
  0
LINE
  5
9FB8
  8
0
 10
2440.6990953835738765
 20
141.1116500404137923
 30
0.0
 11
2440.6892528638750264
 21
141.1077282114137859
 31
0.0
  0
LINE
  5
9FB9
  8
0
 10
2440.6892528638750264
 20
141.1077282114137859
 30
0.0
 11
2440.6990953835738765
 21
141.1038063823137918
 31
0.0
  0
LINE
  5
9FBA
  8
0
 10
2440.6990953835738765
 20
141.1038063823137918
 30
0.0
 11
2440.7187804229738504
 21
141.1038063823137918
 31
0.0
  0
LINE
  5
9FBB
  8
0
 10
2440.7187804229738504
 20
141.1038063823137918
 30
0.0
 11
2440.7286229426740647
 21
141.1077282114137859
 31
0.0
  0
LINE
  5
9FBC
  8
0
 10
2440.7286229426740647
 20
141.1077282114137859
 30
0.0
 11
2440.7187804229738504
 21
141.1116500404137923
 31
0.0
  0
LINE
  5
9FBD
  8
0
 10
2440.7187804229738504
 20
141.1116500404137923
 30
0.0
 11
2440.6990953835738765
 21
141.1116500404137923
 31
0.0
  0
LINE
  5
9FBE
  8
0
 10
2440.6990953835738765
 20
141.1116500404137923
 30
0.0
 11
2440.6990953835738765
 21
141.1038063823137918
 31
0.0
  0
LINE
  5
9FBF
  8
0
 10
2440.7187804229738504
 20
141.1038063823137918
 30
0.0
 11
2440.7187804229738504
 21
141.1116500404137923
 31
0.0
  0
LINE
  5
9FC0
  8
0
 10
2440.6990953835738765
 20
141.0988414003138018
 30
0.0
 11
2440.6892528638750264
 21
141.0949195713137954
 31
0.0
  0
LINE
  5
9FC1
  8
0
 10
2440.6892528638750264
 20
141.0949195713137954
 30
0.0
 11
2440.6990953835738765
 21
141.0909977422138013
 31
0.0
  0
LINE
  5
9FC2
  8
0
 10
2440.6990953835738765
 20
141.0909977422138013
 30
0.0
 11
2440.7187804229738504
 21
141.0909977422138013
 31
0.0
  0
LINE
  5
9FC3
  8
0
 10
2440.7187804229738504
 20
141.0909977422138013
 30
0.0
 11
2440.7286229426740647
 21
141.0949195713137954
 31
0.0
  0
LINE
  5
9FC4
  8
0
 10
2440.7286229426740647
 20
141.0949195713137954
 30
0.0
 11
2440.7187804229738504
 21
141.0988414003138018
 31
0.0
  0
LINE
  5
9FC5
  8
0
 10
2440.7187804229738504
 20
141.0988414003138018
 30
0.0
 11
2440.6990953835738765
 21
141.0988414003138018
 31
0.0
  0
LINE
  5
9FC6
  8
0
 10
2440.6990953835738765
 20
141.0988414003138018
 30
0.0
 11
2440.6990953835738765
 21
141.0909977422138013
 31
0.0
  0
LINE
  5
9FC7
  8
0
 10
2440.7187804229738504
 20
141.0909977422138013
 30
0.0
 11
2440.7187804229738504
 21
141.0988414003138018
 31
0.0
  0
LINE
  5
9FC8
  8
0
 10
2440.6712565338739296
 20
141.1052457203138033
 30
0.0
 11
2440.66141401417417
 21
141.1013238913137968
 31
0.0
  0
LINE
  5
9FC9
  8
0
 10
2440.66141401417417
 20
141.1013238913137968
 30
0.0
 11
2440.6712565338739296
 21
141.0974020622138028
 31
0.0
  0
LINE
  5
9FCA
  8
0
 10
2440.6712565338739296
 20
141.0974020622138028
 30
0.0
 11
2440.6909415732739035
 21
141.0974020622138028
 31
0.0
  0
LINE
  5
9FCB
  8
0
 10
2440.6909415732739035
 20
141.0974020622138028
 30
0.0
 11
2440.7007840929741178
 21
141.1013238913137968
 31
0.0
  0
LINE
  5
9FCC
  8
0
 10
2440.7007840929741178
 20
141.1013238913137968
 30
0.0
 11
2440.6909415732739035
 21
141.1052457203138033
 31
0.0
  0
LINE
  5
9FCD
  8
0
 10
2440.6909415732739035
 20
141.1052457203138033
 30
0.0
 11
2440.6712565338739296
 21
141.1052457203138033
 31
0.0
  0
LINE
  5
9FCE
  8
0
 10
2440.6712565338739296
 20
141.1052457203138033
 30
0.0
 11
2440.6712565338739296
 21
141.0974020622138028
 31
0.0
  0
LINE
  5
9FCF
  8
0
 10
2440.6909415732739035
 20
141.0974020622138028
 30
0.0
 11
2440.6909415732739035
 21
141.1052457203138033
 31
0.0
  0
LINE
  5
9FD0
  8
0
 10
2440.6712565338739296
 20
141.1180543604137938
 30
0.0
 11
2440.66141401417417
 21
141.1141325314137873
 31
0.0
  0
LINE
  5
9FD1
  8
0
 10
2440.66141401417417
 20
141.1141325314137873
 30
0.0
 11
2440.6712565338739296
 21
141.1102107023137933
 31
0.0
  0
LINE
  5
9FD2
  8
0
 10
2440.6712565338739296
 20
141.1102107023137933
 30
0.0
 11
2440.6909415732739035
 21
141.1102107023137933
 31
0.0
  0
LINE
  5
9FD3
  8
0
 10
2440.6909415732739035
 20
141.1102107023137933
 30
0.0
 11
2440.7007840929741178
 21
141.1141325314137873
 31
0.0
  0
LINE
  5
9FD4
  8
0
 10
2440.7007840929741178
 20
141.1141325314137873
 30
0.0
 11
2440.6909415732739035
 21
141.1180543604137938
 31
0.0
  0
LINE
  5
9FD5
  8
0
 10
2440.6909415732739035
 20
141.1180543604137938
 30
0.0
 11
2440.6712565338739296
 21
141.1180543604137938
 31
0.0
  0
LINE
  5
9FD6
  8
0
 10
2440.6712565338739296
 20
141.1180543604137938
 30
0.0
 11
2440.6712565338739296
 21
141.1102107023137933
 31
0.0
  0
LINE
  5
9FD7
  8
0
 10
2440.6909415732739035
 20
141.1102107023137933
 30
0.0
 11
2440.6909415732739035
 21
141.1180543604137938
 31
0.0
  0
LINE
  5
9FD8
  8
0
 10
2440.6712565338739296
 20
141.1308630005138127
 30
0.0
 11
2440.66141401417417
 21
141.1269411715138062
 31
0.0
  0
LINE
  5
9FD9
  8
0
 10
2440.66141401417417
 20
141.1269411715138062
 30
0.0
 11
2440.6712565338739296
 21
141.1230193424138122
 31
0.0
  0
LINE
  5
9FDA
  8
0
 10
2440.6712565338739296
 20
141.1230193424138122
 30
0.0
 11
2440.6909415732739035
 21
141.1230193424138122
 31
0.0
  0
LINE
  5
9FDB
  8
0
 10
2440.6909415732739035
 20
141.1230193424138122
 30
0.0
 11
2440.7007840929741178
 21
141.1269411715138062
 31
0.0
  0
LINE
  5
9FDC
  8
0
 10
2440.7007840929741178
 20
141.1269411715138062
 30
0.0
 11
2440.6909415732739035
 21
141.1308630005138127
 31
0.0
  0
LINE
  5
9FDD
  8
0
 10
2440.6909415732739035
 20
141.1308630005138127
 30
0.0
 11
2440.6712565338739296
 21
141.1308630005138127
 31
0.0
  0
LINE
  5
9FDE
  8
0
 10
2440.6712565338739296
 20
141.1308630005138127
 30
0.0
 11
2440.6712565338739296
 21
141.1230193424138122
 31
0.0
  0
LINE
  5
9FDF
  8
0
 10
2440.6909415732739035
 20
141.1230193424138122
 30
0.0
 11
2440.6909415732739035
 21
141.1308630005138127
 31
0.0
  0
LINE
  5
9FE0
  8
0
 10
2440.6434176842740271
 20
141.1500759606138047
 30
0.0
 11
2440.6335751645738128
 21
141.1461541316137982
 31
0.0
  0
LINE
  5
9FE1
  8
0
 10
2440.6335751645738128
 20
141.1461541316137982
 30
0.0
 11
2440.6434176842740271
 21
141.1422323025138041
 31
0.0
  0
LINE
  5
9FE2
  8
0
 10
2440.6434176842740271
 20
141.1422323025138041
 30
0.0
 11
2440.663102723674001
 21
141.1422323025138041
 31
0.0
  0
LINE
  5
9FE3
  8
0
 10
2440.663102723674001
 20
141.1422323025138041
 30
0.0
 11
2440.6729452433742154
 21
141.1461541316137982
 31
0.0
  0
LINE
  5
9FE4
  8
0
 10
2440.6729452433742154
 20
141.1461541316137982
 30
0.0
 11
2440.663102723674001
 21
141.1500759606138047
 31
0.0
  0
LINE
  5
9FE5
  8
0
 10
2440.663102723674001
 20
141.1500759606138047
 30
0.0
 11
2440.6434176842740271
 21
141.1500759606138047
 31
0.0
  0
LINE
  5
9FE6
  8
0
 10
2440.6434176842740271
 20
141.1500759606138047
 30
0.0
 11
2440.6434176842740271
 21
141.1422323025138041
 31
0.0
  0
LINE
  5
9FE7
  8
0
 10
2440.663102723674001
 20
141.1422323025138041
 30
0.0
 11
2440.663102723674001
 21
141.1500759606138047
 31
0.0
  0
LINE
  5
9FE8
  8
0
 10
2440.6434176842740271
 20
141.1372673206138018
 30
0.0
 11
2440.6335751645738128
 21
141.1333454916137953
 31
0.0
  0
LINE
  5
9FE9
  8
0
 10
2440.6335751645738128
 20
141.1333454916137953
 30
0.0
 11
2440.6434176842740271
 21
141.1294236625138012
 31
0.0
  0
LINE
  5
9FEA
  8
0
 10
2440.6434176842740271
 20
141.1294236625138012
 30
0.0
 11
2440.663102723674001
 21
141.1294236625138012
 31
0.0
  0
LINE
  5
9FEB
  8
0
 10
2440.663102723674001
 20
141.1294236625138012
 30
0.0
 11
2440.6729452433742154
 21
141.1333454916137953
 31
0.0
  0
LINE
  5
9FEC
  8
0
 10
2440.6729452433742154
 20
141.1333454916137953
 30
0.0
 11
2440.663102723674001
 21
141.1372673206138018
 31
0.0
  0
LINE
  5
9FED
  8
0
 10
2440.663102723674001
 20
141.1372673206138018
 30
0.0
 11
2440.6434176842740271
 21
141.1372673206138018
 31
0.0
  0
LINE
  5
9FEE
  8
0
 10
2440.6434176842740271
 20
141.1372673206138018
 30
0.0
 11
2440.6434176842740271
 21
141.1294236625138012
 31
0.0
  0
LINE
  5
9FEF
  8
0
 10
2440.663102723674001
 20
141.1294236625138012
 30
0.0
 11
2440.663102723674001
 21
141.1372673206138018
 31
0.0
  0
LINE
  5
9FF0
  8
0
 10
2440.6434176842740271
 20
141.1244586805138113
 30
0.0
 11
2440.6335751645738128
 21
141.1205368515138048
 31
0.0
  0
LINE
  5
9FF1
  8
0
 10
2440.6335751645738128
 20
141.1205368515138048
 30
0.0
 11
2440.6434176842740271
 21
141.1166150224138107
 31
0.0
  0
LINE
  5
9FF2
  8
0
 10
2440.6434176842740271
 20
141.1166150224138107
 30
0.0
 11
2440.663102723674001
 21
141.1166150224138107
 31
0.0
  0
LINE
  5
9FF3
  8
0
 10
2440.663102723674001
 20
141.1166150224138107
 30
0.0
 11
2440.6729452433742154
 21
141.1205368515138048
 31
0.0
  0
LINE
  5
9FF4
  8
0
 10
2440.6729452433742154
 20
141.1205368515138048
 30
0.0
 11
2440.663102723674001
 21
141.1244586805138113
 31
0.0
  0
LINE
  5
9FF5
  8
0
 10
2440.663102723674001
 20
141.1244586805138113
 30
0.0
 11
2440.6434176842740271
 21
141.1244586805138113
 31
0.0
  0
LINE
  5
9FF6
  8
0
 10
2440.6434176842740271
 20
141.1244586805138113
 30
0.0
 11
2440.6434176842740271
 21
141.1166150224138107
 31
0.0
  0
LINE
  5
9FF7
  8
0
 10
2440.663102723674001
 20
141.1166150224138107
 30
0.0
 11
2440.663102723674001
 21
141.1244586805138113
 31
0.0
  0
LINE
  5
9FF8
  8
0
 10
2440.6434176842740271
 20
141.1116500404137923
 30
0.0
 11
2440.6335751645738128
 21
141.1077282114137859
 31
0.0
  0
LINE
  5
9FF9
  8
0
 10
2440.6335751645738128
 20
141.1077282114137859
 30
0.0
 11
2440.6434176842740271
 21
141.1038063823137918
 31
0.0
  0
LINE
  5
9FFA
  8
0
 10
2440.6434176842740271
 20
141.1038063823137918
 30
0.0
 11
2440.663102723674001
 21
141.1038063823137918
 31
0.0
  0
LINE
  5
9FFB
  8
0
 10
2440.663102723674001
 20
141.1038063823137918
 30
0.0
 11
2440.6729452433742154
 21
141.1077282114137859
 31
0.0
  0
LINE
  5
9FFC
  8
0
 10
2440.6729452433742154
 20
141.1077282114137859
 30
0.0
 11
2440.663102723674001
 21
141.1116500404137923
 31
0.0
  0
LINE
  5
9FFD
  8
0
 10
2440.663102723674001
 20
141.1116500404137923
 30
0.0
 11
2440.6434176842740271
 21
141.1116500404137923
 31
0.0
  0
LINE
  5
9FFE
  8
0
 10
2440.6434176842740271
 20
141.1116500404137923
 30
0.0
 11
2440.6434176842740271
 21
141.1038063823137918
 31
0.0
  0
LINE
  5
9FFF
  8
0
 10
2440.663102723674001
 20
141.1038063823137918
 30
0.0
 11
2440.663102723674001
 21
141.1116500404137923
 31
0.0
  0
LINE
  5
A000
  8
0
 10
2440.6712565338739296
 20
141.1436716406138032
 30
0.0
 11
2440.66141401417417
 21
141.1397498116137967
 31
0.0
  0
LINE
  5
A001
  8
0
 10
2440.66141401417417
 20
141.1397498116137967
 30
0.0
 11
2440.6712565338739296
 21
141.1358279825138027
 31
0.0
  0
LINE
  5
A002
  8
0
 10
2440.6712565338739296
 20
141.1358279825138027
 30
0.0
 11
2440.6909415732739035
 21
141.1358279825138027
 31
0.0
  0
LINE
  5
A003
  8
0
 10
2440.6909415732739035
 20
141.1358279825138027
 30
0.0
 11
2440.7007840929741178
 21
141.1397498116137967
 31
0.0
  0
LINE
  5
A004
  8
0
 10
2440.7007840929741178
 20
141.1397498116137967
 30
0.0
 11
2440.6909415732739035
 21
141.1436716406138032
 31
0.0
  0
LINE
  5
A005
  8
0
 10
2440.6909415732739035
 20
141.1436716406138032
 30
0.0
 11
2440.6712565338739296
 21
141.1436716406138032
 31
0.0
  0
LINE
  5
A006
  8
0
 10
2440.6712565338739296
 20
141.1436716406138032
 30
0.0
 11
2440.6712565338739296
 21
141.1358279825138027
 31
0.0
  0
LINE
  5
A007
  8
0
 10
2440.6909415732739035
 20
141.1358279825138027
 30
0.0
 11
2440.6909415732739035
 21
141.1436716406138032
 31
0.0
  0
LINE
  5
A008
  8
0
 10
2440.6712565338739296
 20
141.1564802807137937
 30
0.0
 11
2440.66141401417417
 21
141.1525584517137872
 31
0.0
  0
LINE
  5
A009
  8
0
 10
2440.66141401417417
 20
141.1525584517137872
 30
0.0
 11
2440.6712565338739296
 21
141.1486366226137932
 31
0.0
  0
LINE
  5
A00A
  8
0
 10
2440.6712565338739296
 20
141.1486366226137932
 30
0.0
 11
2440.6909415732739035
 21
141.1486366226137932
 31
0.0
  0
LINE
  5
A00B
  8
0
 10
2440.6909415732739035
 20
141.1486366226137932
 30
0.0
 11
2440.7007840929741178
 21
141.1525584517137872
 31
0.0
  0
LINE
  5
A00C
  8
0
 10
2440.7007840929741178
 20
141.1525584517137872
 30
0.0
 11
2440.6909415732739035
 21
141.1564802807137937
 31
0.0
  0
LINE
  5
A00D
  8
0
 10
2440.6909415732739035
 20
141.1564802807137937
 30
0.0
 11
2440.6712565338739296
 21
141.1564802807137937
 31
0.0
  0
LINE
  5
A00E
  8
0
 10
2440.6712565338739296
 20
141.1564802807137937
 30
0.0
 11
2440.6712565338739296
 21
141.1486366226137932
 31
0.0
  0
LINE
  5
A00F
  8
0
 10
2440.6909415732739035
 20
141.1486366226137932
 30
0.0
 11
2440.6909415732739035
 21
141.1564802807137937
 31
0.0
  0
LINE
  5
A010
  8
0
 10
2440.6712565338739296
 20
141.1692889208138126
 30
0.0
 11
2440.66141401417417
 21
141.1653670918138062
 31
0.0
  0
LINE
  5
A011
  8
0
 10
2440.66141401417417
 20
141.1653670918138062
 30
0.0
 11
2440.6712565338739296
 21
141.1614452627138121
 31
0.0
  0
LINE
  5
A012
  8
0
 10
2440.6712565338739296
 20
141.1614452627138121
 30
0.0
 11
2440.6909415732739035
 21
141.1614452627138121
 31
0.0
  0
LINE
  5
A013
  8
0
 10
2440.6909415732739035
 20
141.1614452627138121
 30
0.0
 11
2440.7007840929741178
 21
141.1653670918138062
 31
0.0
  0
LINE
  5
A014
  8
0
 10
2440.7007840929741178
 20
141.1653670918138062
 30
0.0
 11
2440.6909415732739035
 21
141.1692889208138126
 31
0.0
  0
LINE
  5
A015
  8
0
 10
2440.6909415732739035
 20
141.1692889208138126
 30
0.0
 11
2440.6712565338739296
 21
141.1692889208138126
 31
0.0
  0
LINE
  5
A016
  8
0
 10
2440.6712565338739296
 20
141.1692889208138126
 30
0.0
 11
2440.6712565338739296
 21
141.1614452627138121
 31
0.0
  0
LINE
  5
A017
  8
0
 10
2440.6909415732739035
 20
141.1614452627138121
 30
0.0
 11
2440.6909415732739035
 21
141.1692889208138126
 31
0.0
  0
LINE
  5
A018
  8
0
 10
2440.6434176842740271
 20
141.1628846007137952
 30
0.0
 11
2440.6335751645738128
 21
141.1589627717137887
 31
0.0
  0
LINE
  5
A019
  8
0
 10
2440.6335751645738128
 20
141.1589627717137887
 30
0.0
 11
2440.6434176842740271
 21
141.1550409426137946
 31
0.0
  0
LINE
  5
A01A
  8
0
 10
2440.6434176842740271
 20
141.1550409426137946
 30
0.0
 11
2440.663102723674001
 21
141.1550409426137946
 31
0.0
  0
LINE
  5
A01B
  8
0
 10
2440.663102723674001
 20
141.1550409426137946
 30
0.0
 11
2440.6729452433742154
 21
141.1589627717137887
 31
0.0
  0
LINE
  5
A01C
  8
0
 10
2440.6729452433742154
 20
141.1589627717137887
 30
0.0
 11
2440.663102723674001
 21
141.1628846007137952
 31
0.0
  0
LINE
  5
A01D
  8
0
 10
2440.663102723674001
 20
141.1628846007137952
 30
0.0
 11
2440.6434176842740271
 21
141.1628846007137952
 31
0.0
  0
LINE
  5
A01E
  8
0
 10
2440.6434176842740271
 20
141.1628846007137952
 30
0.0
 11
2440.6434176842740271
 21
141.1550409426137946
 31
0.0
  0
LINE
  5
A01F
  8
0
 10
2440.663102723674001
 20
141.1550409426137946
 30
0.0
 11
2440.663102723674001
 21
141.1628846007137952
 31
0.0
  0
LINE
  5
A020
  8
0
 10
2440.6155788345740802
 20
141.1564802807137937
 30
0.0
 11
2440.6057363148738659
 21
141.1525584517137872
 31
0.0
  0
LINE
  5
A021
  8
0
 10
2440.6057363148738659
 20
141.1525584517137872
 30
0.0
 11
2440.6155788345740802
 21
141.1486366226137932
 31
0.0
  0
LINE
  5
A022
  8
0
 10
2440.6155788345740802
 20
141.1486366226137932
 30
0.0
 11
2440.6352638739740541
 21
141.1486366226137932
 31
0.0
  0
LINE
  5
A023
  8
0
 10
2440.6352638739740541
 20
141.1486366226137932
 30
0.0
 11
2440.6451063936738137
 21
141.1525584517137872
 31
0.0
  0
LINE
  5
A024
  8
0
 10
2440.6451063936738137
 20
141.1525584517137872
 30
0.0
 11
2440.6352638739740541
 21
141.1564802807137937
 31
0.0
  0
LINE
  5
A025
  8
0
 10
2440.6352638739740541
 20
141.1564802807137937
 30
0.0
 11
2440.6155788345740802
 21
141.1564802807137937
 31
0.0
  0
LINE
  5
A026
  8
0
 10
2440.6155788345740802
 20
141.1564802807137937
 30
0.0
 11
2440.6155788345740802
 21
141.1486366226137932
 31
0.0
  0
LINE
  5
A027
  8
0
 10
2440.6352638739740541
 20
141.1486366226137932
 30
0.0
 11
2440.6352638739740541
 21
141.1564802807137937
 31
0.0
  0
LINE
  5
A028
  8
0
 10
2440.6155788345740802
 20
141.1436716406138032
 30
0.0
 11
2440.6057363148738659
 21
141.1397498116137967
 31
0.0
  0
LINE
  5
A029
  8
0
 10
2440.6057363148738659
 20
141.1397498116137967
 30
0.0
 11
2440.6155788345740802
 21
141.1358279825138027
 31
0.0
  0
LINE
  5
A02A
  8
0
 10
2440.6155788345740802
 20
141.1358279825138027
 30
0.0
 11
2440.6352638739740541
 21
141.1358279825138027
 31
0.0
  0
LINE
  5
A02B
  8
0
 10
2440.6352638739740541
 20
141.1358279825138027
 30
0.0
 11
2440.6451063936738137
 21
141.1397498116137967
 31
0.0
  0
LINE
  5
A02C
  8
0
 10
2440.6451063936738137
 20
141.1397498116137967
 30
0.0
 11
2440.6352638739740541
 21
141.1436716406138032
 31
0.0
  0
LINE
  5
A02D
  8
0
 10
2440.6352638739740541
 20
141.1436716406138032
 30
0.0
 11
2440.6155788345740802
 21
141.1436716406138032
 31
0.0
  0
LINE
  5
A02E
  8
0
 10
2440.6155788345740802
 20
141.1436716406138032
 30
0.0
 11
2440.6155788345740802
 21
141.1358279825138027
 31
0.0
  0
LINE
  5
A02F
  8
0
 10
2440.6352638739740541
 20
141.1358279825138027
 30
0.0
 11
2440.6352638739740541
 21
141.1436716406138032
 31
0.0
  0
LINE
  5
A030
  8
0
 10
2440.6155788345740802
 20
141.1308630005138127
 30
0.0
 11
2440.6057363148738659
 21
141.1269411715138062
 31
0.0
  0
LINE
  5
A031
  8
0
 10
2440.6057363148738659
 20
141.1269411715138062
 30
0.0
 11
2440.6155788345740802
 21
141.1230193424138122
 31
0.0
  0
LINE
  5
A032
  8
0
 10
2440.6155788345740802
 20
141.1230193424138122
 30
0.0
 11
2440.6352638739740541
 21
141.1230193424138122
 31
0.0
  0
LINE
  5
A033
  8
0
 10
2440.6352638739740541
 20
141.1230193424138122
 30
0.0
 11
2440.6451063936738137
 21
141.1269411715138062
 31
0.0
  0
LINE
  5
A034
  8
0
 10
2440.6451063936738137
 20
141.1269411715138062
 30
0.0
 11
2440.6352638739740541
 21
141.1308630005138127
 31
0.0
  0
LINE
  5
A035
  8
0
 10
2440.6352638739740541
 20
141.1308630005138127
 30
0.0
 11
2440.6155788345740802
 21
141.1308630005138127
 31
0.0
  0
LINE
  5
A036
  8
0
 10
2440.6155788345740802
 20
141.1308630005138127
 30
0.0
 11
2440.6155788345740802
 21
141.1230193424138122
 31
0.0
  0
LINE
  5
A037
  8
0
 10
2440.6352638739740541
 20
141.1230193424138122
 30
0.0
 11
2440.6352638739740541
 21
141.1308630005138127
 31
0.0
  0
LINE
  5
A038
  8
0
 10
2440.692380160823177
 20
141.183333955839089
 30
0.0
 11
2440.6990953833228559
 21
141.1806582228138041
 31
0.0
  0
LINE
  5
A039
  8
0
 10
2440.6990953833228559
 20
141.1806582228138041
 30
0.0
 11
2440.7187804227228298
 21
141.1806582228138041
 31
0.0
  0
LINE
  5
A03A
  8
0
 10
2440.7187804227228298
 20
141.1806582228138041
 30
0.0
 11
2440.7286229424230442
 21
141.1845800519137981
 31
0.0
  0
LINE
  5
A03B
  8
0
 10
2440.7286229424230442
 20
141.1845800519137981
 30
0.0
 11
2440.720634229271127
 21
141.1877632171870971
 31
0.0
  0
LINE
  5
A03C
  8
0
 10
2440.6990953833228559
 20
141.1845052798203994
 30
0.0
 11
2440.6990953833228559
 21
141.1806582228138041
 31
0.0
  0
LINE
  5
A03D
  8
0
 10
2440.7187804227228298
 20
141.1806582228138041
 30
0.0
 11
2440.7187804227228298
 21
141.1875125432281095
 31
0.0
  0
LINE
  5
A03E
  8
0
 10
2440.724052407875206
 20
141.1882108286858966
 30
0.0
 11
2440.7269342331737789
 21
141.1870625428138055
 31
0.0
  0
LINE
  5
A03F
  8
0
 10
2440.7269342331737789
 20
141.1870625428138055
 30
0.0
 11
2440.7466192725742076
 21
141.1870625428138055
 31
0.0
  0
LINE
  5
A040
  8
0
 10
2440.7466192725742076
 20
141.1870625428138055
 30
0.0
 11
2440.7564617922739671
 21
141.1909843719137996
 31
0.0
  0
LINE
  5
A041
  8
0
 10
2440.7564617922739671
 20
141.1909843719137996
 30
0.0
 11
2440.7546344641191354
 21
141.1917124851177903
 31
0.0
  0
LINE
  5
A042
  8
0
 10
2440.7269342331737789
 20
141.1885735214137867
 30
0.0
 11
2440.7269342331737789
 21
141.1870625428138055
 31
0.0
  0
LINE
  5
A043
  8
0
 10
2440.7466192725742076
 20
141.1870625428138055
 30
0.0
 11
2440.7466192725742076
 21
141.1909679943032074
 31
0.0
  0
LINE
  5
A044
  8
0
 10
2440.7794626295822127
 20
141.1936513366306087
 30
0.0
 11
2440.7727694125228481
 21
141.1909843719137996
 31
0.0
  0
LINE
  5
A045
  8
0
 10
2440.7727694125228481
 20
141.1909843719137996
 30
0.0
 11
2440.7826119322230625
 21
141.1870625428138055
 31
0.0
  0
LINE
  5
A046
  8
0
 10
2440.7826119322230625
 20
141.1870625428138055
 30
0.0
 11
2440.8022969716230364
 21
141.1870625428138055
 31
0.0
  0
LINE
  5
A047
  8
0
 10
2440.8022969716230364
 20
141.1870625428138055
 30
0.0
 11
2440.8121394913227959
 21
141.1909843719137996
 31
0.0
  0
LINE
  5
A048
  8
0
 10
2440.8121394913227959
 20
141.1909843719137996
 30
0.0
 11
2440.8022969716230364
 21
141.1949062009138061
 31
0.0
  0
LINE
  5
A049
  8
0
 10
2440.8022969716230364
 20
141.1949062009138061
 30
0.0
 11
2440.7959131946740854
 21
141.1949062009138061
 31
0.0
  0
LINE
  5
A04A
  8
0
 10
2440.7826119322230625
 20
141.1938547252979959
 30
0.0
 11
2440.7826119322230625
 21
141.1870625428138055
 31
0.0
  0
LINE
  5
A04B
  8
0
 10
2440.8022969716230364
 20
141.1870625428138055
 30
0.0
 11
2440.8022969716230364
 21
141.1949062009138061
 31
0.0
  0
LINE
  5
A04C
  8
0
 10
2440.8054540402531529
 20
141.1954578537863085
 30
0.0
 11
2440.8104507819230093
 21
141.1934668629137946
 31
0.0
  0
LINE
  5
A04D
  8
0
 10
2440.8104507819230093
 20
141.1934668629137946
 30
0.0
 11
2440.8301358213229832
 21
141.1934668629137946
 31
0.0
  0
LINE
  5
A04E
  8
0
 10
2440.8301358213229832
 20
141.1934668629137946
 30
0.0
 11
2440.8381338496260469
 21
141.1966537399632955
 31
0.0
  0
LINE
  5
A04F
  8
0
 10
2440.8104507819230093
 20
141.1956987118628888
 30
0.0
 11
2440.8104507819230093
 21
141.1934668629137946
 31
0.0
  0
LINE
  5
A050
  8
0
 10
2440.8301358213229832
 20
141.1934668629137946
 30
0.0
 11
2440.8301358213229832
 21
141.1964437917521877
 31
0.0
  0
LINE
  5
A051
  8
0
 10
2440.6633484133440106
 20
141.1774049553067982
 30
0.0
 11
2440.6712565338739296
 21
141.1742539027137866
 31
0.0
  0
LINE
  5
A052
  8
0
 10
2440.6712565338739296
 20
141.1742539027137866
 30
0.0
 11
2440.6909415732739035
 21
141.1742539027137866
 31
0.0
  0
LINE
  5
A053
  8
0
 10
2440.6909415732739035
 20
141.1742539027137866
 30
0.0
 11
2440.7007840929741178
 21
141.1781757318138091
 31
0.0
  0
LINE
  5
A054
  8
0
 10
2440.7007840929741178
 20
141.1781757318138091
 30
0.0
 11
2440.6909415732739035
 21
141.1820975608137871
 31
0.0
  0
LINE
  5
A055
  8
0
 10
2440.6909415732739035
 20
141.1820975608137871
 30
0.0
 11
2440.6857151084950601
 21
141.1820975608137871
 31
0.0
  0
LINE
  5
A056
  8
0
 10
2440.6712565338739296
 20
141.1791604703464031
 30
0.0
 11
2440.6712565338739296
 21
141.1742539027137866
 31
0.0
  0
LINE
  5
A057
  8
0
 10
2440.6909415732739035
 20
141.1742539027137866
 30
0.0
 11
2440.6909415732739035
 21
141.1820975608137871
 31
0.0
  0
LINE
  5
A058
  8
0
 10
2440.6371534093977971
 20
141.1703456320850876
 30
0.0
 11
2440.6434176841739827
 21
141.1678495827138136
 31
0.0
  0
LINE
  5
A059
  8
0
 10
2440.6434176841739827
 20
141.1678495827138136
 30
0.0
 11
2440.6631027235739566
 21
141.1678495827138136
 31
0.0
  0
LINE
  5
A05A
  8
0
 10
2440.6631027235739566
 20
141.1678495827138136
 30
0.0
 11
2440.6729452432741709
 21
141.1717714118138076
 31
0.0
  0
LINE
  5
A05B
  8
0
 10
2440.6729452432741709
 20
141.1717714118138076
 30
0.0
 11
2440.6631027235739566
 21
141.1756932408138141
 31
0.0
  0
LINE
  5
A05C
  8
0
 10
2440.6631027235739566
 20
141.1756932408138141
 30
0.0
 11
2440.6562615834409371
 21
141.1756932408138141
 31
0.0
  0
LINE
  5
A05D
  8
0
 10
2440.6434176841739827
 20
141.1722182105847878
 30
0.0
 11
2440.6434176841739827
 21
141.1678495827138136
 31
0.0
  0
LINE
  5
A05E
  8
0
 10
2440.6631027235739566
 20
141.1678495827138136
 30
0.0
 11
2440.6631027235739566
 21
141.1756932408138141
 31
0.0
  0
LINE
  5
A05F
  8
0
 10
2440.6142638183509916
 20
141.1619692412322138
 30
0.0
 11
2440.6155788345740802
 21
141.1614452627138121
 31
0.0
  0
LINE
  5
A060
  8
0
 10
2440.6155788345740802
 20
141.1614452627138121
 30
0.0
 11
2440.6352638739740541
 21
141.1614452627138121
 31
0.0
  0
LINE
  5
A061
  8
0
 10
2440.6352638739740541
 20
141.1614452627138121
 30
0.0
 11
2440.6451063936738137
 21
141.1653670918138062
 31
0.0
  0
LINE
  5
A062
  8
0
 10
2440.6451063936738137
 20
141.1653670918138062
 30
0.0
 11
2440.6352638739740541
 21
141.1692889208138126
 31
0.0
  0
LINE
  5
A063
  8
0
 10
2440.6352638739740541
 20
141.1692889208138126
 30
0.0
 11
2440.6337826766562102
 21
141.1692889208138126
 31
0.0
  0
LINE
  5
A064
  8
0
 10
2440.6155788345740802
 20
141.162534321137997
 30
0.0
 11
2440.6155788345740802
 21
141.1614452627138121
 31
0.0
  0
LINE
  5
A065
  8
0
 10
2440.6352638739740541
 20
141.1614452627138121
 30
0.0
 11
2440.6352638739740541
 21
141.1692889208138126
 31
0.0
  0
LINE
  5
A066
  8
0
 10
2440.5858483705142135
 20
141.1429860310780953
 30
0.0
 11
2440.5877399848741334
 21
141.1422323025138041
 31
0.0
  0
LINE
  5
A067
  8
0
 10
2440.5877399848741334
 20
141.1422323025138041
 30
0.0
 11
2440.6074250242741073
 21
141.1422323025138041
 31
0.0
  0
LINE
  5
A068
  8
0
 10
2440.6074250242741073
 20
141.1422323025138041
 30
0.0
 11
2440.6172675439738669
 21
141.1461541316137982
 31
0.0
  0
LINE
  5
A069
  8
0
 10
2440.6172675439738669
 20
141.1461541316137982
 30
0.0
 11
2440.6074250242741073
 21
141.1500759606138047
 31
0.0
  0
LINE
  5
A06A
  8
0
 10
2440.6074250242741073
 20
141.1500759606138047
 30
0.0
 11
2440.5933691055201962
 21
141.1500759606138047
 31
0.0
  0
LINE
  5
A06B
  8
0
 10
2440.5877399848741334
 20
141.1452790784258866
 30
0.0
 11
2440.5877399848741334
 21
141.1422323025138041
 31
0.0
  0
LINE
  5
A06C
  8
0
 10
2440.6074250242741073
 20
141.1422323025138041
 30
0.0
 11
2440.6074250242741073
 21
141.1500759606138047
 31
0.0
  0
LINE
  5
A06D
  8
0
 10
2440.5877399848741334
 20
141.1372673205138142
 30
0.0
 11
2440.5826936562061746
 21
141.1352565713646925
 31
0.0
  0
LINE
  5
A06E
  8
0
 10
2440.5859188500080563
 20
141.1301493078715055
 30
0.0
 11
2440.5877399848741334
 21
141.1294236624138136
 31
0.0
  0
LINE
  5
A06F
  8
0
 10
2440.5877399848741334
 20
141.1294236624138136
 30
0.0
 11
2440.6074250242741073
 21
141.1294236624138136
 31
0.0
  0
LINE
  5
A070
  8
0
 10
2440.6074250242741073
 20
141.1294236624138136
 30
0.0
 11
2440.6172675439738669
 21
141.1333454915138077
 31
0.0
  0
LINE
  5
A071
  8
0
 10
2440.6172675439738669
 20
141.1333454915138077
 30
0.0
 11
2440.6074250242741073
 21
141.1372673205138142
 31
0.0
  0
LINE
  5
A072
  8
0
 10
2440.6074250242741073
 20
141.1372673205138142
 30
0.0
 11
2440.5877399848741334
 21
141.1372673205138142
 31
0.0
  0
LINE
  5
A073
  8
0
 10
2440.5877399848741334
 20
141.1372673205138142
 30
0.0
 11
2440.5877399848741334
 21
141.1294236624138136
 31
0.0
  0
LINE
  5
A074
  8
0
 10
2440.6074250242741073
 20
141.1294236624138136
 30
0.0
 11
2440.6074250242741073
 21
141.1372673205138142
 31
0.0
  0
LINE
  5
A075
  8
0
 10
2440.6259580910741533
 20
141.1102107023137933
 30
0.0
 11
2440.6352638739740541
 21
141.1102107023137933
 31
0.0
  0
LINE
  5
A076
  8
0
 10
2440.6352638739740541
 20
141.1102107023137933
 30
0.0
 11
2440.6451063936738137
 21
141.1141325314137873
 31
0.0
  0
LINE
  5
A077
  8
0
 10
2440.6451063936738137
 20
141.1141325314137873
 30
0.0
 11
2440.6352638739740541
 21
141.1180543604137938
 31
0.0
  0
LINE
  5
A078
  8
0
 10
2440.6352638739740541
 20
141.1180543604137938
 30
0.0
 11
2440.6155788345740802
 21
141.1180543604137938
 31
0.0
  0
LINE
  5
A079
  8
0
 10
2440.6352638739740541
 20
141.1102107023137933
 30
0.0
 11
2440.6352638739740541
 21
141.1180543604137938
 31
0.0
  0
LINE
  5
A07A
  8
0
 10
2440.7269342331737789
 20
141.0924370802138128
 30
0.0
 11
2440.7170917134740193
 21
141.0885152512138063
 31
0.0
  0
LINE
  5
A07B
  8
0
 10
2440.7170917134740193
 20
141.0885152512138063
 30
0.0
 11
2440.7196023846381649
 21
141.0875148546147955
 31
0.0
  0
LINE
  5
A07C
  8
0
 10
2440.7420299245750357
 20
141.0845934221138123
 30
0.0
 11
2440.7466192725742076
 21
141.0845934221138123
 31
0.0
  0
LINE
  5
A07D
  8
0
 10
2440.7466192725742076
 20
141.0845934221138123
 30
0.0
 11
2440.7564617922739671
 21
141.0885152512138063
 31
0.0
  0
LINE
  5
A07E
  8
0
 10
2440.7564617922739671
 20
141.0885152512138063
 30
0.0
 11
2440.7466192725742076
 21
141.0924370802138128
 31
0.0
  0
LINE
  5
A07F
  8
0
 10
2440.7466192725742076
 20
141.0924370802138128
 30
0.0
 11
2440.7269342331737789
 21
141.0924370802138128
 31
0.0
  0
LINE
  5
A080
  8
0
 10
2440.7269342331737789
 20
141.0924370802138128
 30
0.0
 11
2440.7269342331737789
 21
141.0865598010954898
 31
0.0
  0
LINE
  5
A081
  8
0
 10
2440.7466192725742076
 20
141.0845934221138123
 30
0.0
 11
2440.7466192725742076
 21
141.0924370802138128
 31
0.0
  0
LINE
  5
A082
  8
0
 10
2440.8107516838290394
 20
141.0861526567607029
 30
0.0
 11
2440.8009091641288251
 21
141.0822308277606965
 31
0.0
  0
LINE
  5
A083
  8
0
 10
2440.8009091641288251
 20
141.0822308277606965
 30
0.0
 11
2440.8078805492418724
 21
141.0792132315467882
 31
0.0
  0
LINE
  5
A084
  8
0
 10
2440.8078805492418724
 20
141.0792132315467882
 30
0.0
 11
2440.8304367232290133
 21
141.0783089986607024
 31
0.0
  0
LINE
  5
A085
  8
0
 10
2440.8304367232290133
 20
141.0783089986607024
 30
0.0
 11
2440.8402792429287729
 21
141.0822308277606965
 31
0.0
  0
LINE
  5
A086
  8
0
 10
2440.8402792429287729
 20
141.0822308277606965
 30
0.0
 11
2440.8304367232290133
 21
141.0861526567607029
 31
0.0
  0
LINE
  5
A087
  8
0
 10
2440.8304367232290133
 20
141.0861526567607029
 30
0.0
 11
2440.8107516838290394
 21
141.0861526567607029
 31
0.0
  0
LINE
  5
A088
  8
0
 10
2440.8304367232290133
 20
141.0783089986607024
 30
0.0
 11
2440.8304367232290133
 21
141.0861526567607029
 31
0.0
  0
LINE
  5
A089
  8
0
 10
2440.6259580910741533
 20
141.1102107023137933
 30
0.0
 11
2440.6122088688739495
 21
141.1167115712138127
 31
0.0
  0
LINE
  5
A08A
  8
0
 10
2440.6122088688739495
 20
141.1167115712138127
 30
0.0
 11
2440.6155788345740802
 21
141.1180543604137938
 31
0.0
  0
LINE
  5
A08B
  8
0
 10
2440.7196023846381649
 20
141.0875148546147955
 30
0.0
 11
2440.7420299245750357
 21
141.0845934220672859
 31
0.0
  0
LINE
  5
A08C
  8
0
 10
2440.8078805492418724
 20
141.0792132315467882
 30
0.0
 11
2440.8078805492418724
 21
141.0850086307619904
 31
0.0
  0
ARC
  5
A08D
  8
0
 10
2440.7909877659349149
 20
115.2602435816902045
 30
0.0
 40
26.0317577198347188
 50
89.5315581482561953
 51
89.8129519562101279
  0
ARC
  5
A08E
  8
0
 10
2440.9083835927599466
 20
135.406863347407409
 30
0.0
 40
5.8850417592686828
 50
83.9771284883429985
 51
89.0708335762843291
  0
ARC
  5
A08F
  8
0
 10
2444.9173159333668082
 20
162.4178344393633893
 30
0.0
 40
21.4284943358285602
 50
260.8936298117616843
 51
261.3298544276876783
  0
ARC
  5
A090
  8
0
 10
2440.9197998970221306
 20
142.2658846801249126
 30
0.0
 40
1.0519384030832011
 50
267.6120865299224079
 51
270.4963356883926053
  0
ARC
  5
A091
  8
0
 10
2440.882922984272227
 20
139.4136018034728863
 30
0.0
 40
1.8009728645985661
 50
80.8493500907339637
 51
88.5374969283867159
  0
ARC
  5
A092
  8
0
 10
2441.0527120110778014
 20
140.4676626122679011
 30
0.0
 40
0.7333247473515564
 50
69.7630918370985995
 51
80.8493500907339637
  0
ARC
  5
A093
  8
0
 10
2441.249041626485905
 20
141.0002120240781096
 30
0.0
 40
0.1657384597217194
 50
48.7285308209233605
 51
69.7630918370985995
  0
ARC
  5
A094
  8
0
 10
2441.332767608523227
 20
141.0956110747906962
 30
0.0
 40
0.0388092710181343
 50
28.3645168833831285
 51
48.7285308209233605
  0
ARC
  5
A095
  8
0
 10
2441.3373182537598041
 20
141.0980679585948963
 30
0.0
 40
0.0336377480217834
 50
347.603700362344
 51
28.3645168833845709
  0
ARC
  5
A096
  8
0
 10
2441.3008268945309283
 20
141.1243662189484951
 30
0.0
 40
0.0770211628745855
 50
295.2026150452728075
 51
334.2021928658023171
  0
ARC
  5
A097
  8
0
 10
2441.034496258208037
 20
141.745519418143914
 30
0.0
 40
0.7528219361817228
 50
274.5702228699664147
 51
293.4121238092882891
  0
ARC
  5
A098
  8
0
 10
2440.848507350005093
 20
143.3741096826665
 30
0.0
 40
2.3917007878746199
 50
270.6579359310399013
 51
275.9030208283398906
  0
LINE
  5
A099
  8
0
 10
2440.9289129070180024
 20
141.0009711948947029
 30
0.0
 11
2440.9289129070180024
 21
141.0643498399136035
 31
0.0
  0
ARC
  5
A09A
  8
0
 10
2440.7986449824861666
 20
143.3377067036207961
 30
0.0
 40
2.3403637687128218
 50
273.1908123911056236
 51
277.1089490210247845
  0
ARC
  5
A09B
  8
0
 10
2441.0086636964269928
 20
141.7359670667759133
 30
0.0
 40
0.7250175906996491
 50
276.3045424675415234
 51
291.0123961227262726
  0
ARC
  5
A09C
  8
0
 10
2440.8911921476878888
 20
142.4031590454902982
 30
0.0
 40
1.3900936345668511
 50
271.5549471381535227
 51
280.5779754137125792
  0
ARC
  5
A09D
  8
0
 10
2441.0558114809891777
 20
141.5216494888688032
 30
0.0
 40
0.4933447157988435
 50
280.5779754137125792
 51
293.3930621351116201
  0
ARC
  5
A09E
  8
0
 10
2441.2147960406691709
 20
141.1541357597564001
 30
0.0
 40
0.0929169054472487
 50
293.3930621351116201
 51
321.2869421487490058
  0
ARC
  5
A09F
  8
0
 10
2441.1962289620050797
 20
141.0445347560645928
 30
0.0
 40
0.1213789062318141
 50
41.3847554573609813
 51
73.5688090018336851
  0
ARC
  5
A0A0
  8
0
 10
2441.0423740685441771
 20
140.642525003426698
 30
0.0
 40
0.5515307987106838
 50
70.0493061222124282
 51
79.7599917611922251
  0
ARC
  5
A0A1
  8
0
 10
2440.9453546578270107
 20
140.1719145834919118
 30
0.0
 40
1.031960141601973
 50
79.1041190758304396
 51
83.1073233849537445
  0
ARC
  5
A0A2
  8
0
 10
2440.8790967869681481
 20
139.6450019964993032
 30
0.0
 40
1.563018241932125
 50
83.0140582920850534
 51
88.1735636242499936
  0
ARC
  5
A0A3
  8
0
 10
2440.4613867145089898
 20
141.2089144929443023
 30
0.0
 40
0.467529528640369
 50
359.793094732832003
 51
0.6217693172772161
  0
LINE
  5
A0A4
  8
0
 10
2440.9369131947178175
 20
141.2068931711947073
 30
0.0
 11
2440.9369131947178175
 21
141.1959009904543905
 31
0.0
  0
LINE
  5
A0A5
  8
0
 10
2441.0692001391171289
 20
141.1964164285946879
 30
0.0
 11
2441.0692001391180384
 21
141.1912689252947075
 31
0.0
  0
LINE
  5
A0A6
  8
0
 10
2441.0692001391180384
 20
141.1912689252947075
 30
0.0
 11
2441.0452025629201671
 21
141.185748289212313
 31
0.0
  0
ARC
  5
A0A7
  8
0
 10
2440.5580101850159735
 20
135.8383464846830009
 30
0.0
 40
5.371360134933064
 50
85.3088179027969602
 51
85.7504788443825987
  0
ARC
  5
A0A8
  8
0
 10
2440.9473290367191112
 20
140.5597360775138895
 30
0.0
 40
0.6336170107615122
 50
77.117673408431898
 51
82.9580673605448027
  0
ARC
  5
A0A9
  8
0
 10
2440.9004850810688367
 20
140.2134971704886937
 30
0.0
 40
0.9829953153429579
 50
82.7224015668617767
 51
84.3473508449143026
  0
ARC
  5
A0AA
  8
0
 10
2441.0033679138218758
 20
140.8090278525550048
 30
0.0
 40
0.3781072672430611
 50
72.309924838531046
 51
76.97355307904715
  0
ARC
  5
A0AB
  8
0
 10
2441.0555807950318012
 20
140.9727303286937001
 30
0.0
 40
0.2062797791682305
 50
66.324746519863325
 51
72.309924838531046
  0
ARC
  5
A0AC
  8
0
 10
2441.0950779453178257
 20
141.0628130413344934
 30
0.0
 40
0.1079186079801186
 50
52.2395159121472332
 51
66.324746519863325
  0
LINE
  5
A0AD
  8
0
 10
2440.9369131946727975
 20
141.0646516184434063
 30
0.0
 11
2440.9369131946727975
 21
141.0394883090943949
 31
0.0
  0
LINE
  5
A0AE
  8
0
 10
2441.0692001391180384
 20
141.0520938950947141
 30
0.0
 11
2441.0407187107189202
 21
141.0586460402946898
 31
0.0
  0
LINE
  5
A0AF
  8
0
 10
2441.0407187107189202
 20
141.0586460402946898
 30
0.0
 11
2441.0407187107189202
 21
141.0769943239079964
 31
0.0
  0
LINE
  5
A0B0
  8
0
 10
2441.0692001391180384
 20
141.0520938950947141
 30
0.0
 11
2441.0692001391180384
 21
141.0825369005252981
 31
0.0
  0
LINE
  5
A0B1
  8
0
 10
2441.2872979770181701
 20
141.1247798392946891
 30
0.0
 11
2441.2872979770181701
 21
141.0960236220946911
 31
0.0
  0
LINE
  5
A0B2
  8
0
 10
2441.2236972417181278
 20
141.1633974722680023
 30
0.0
 11
2441.2236972417181278
 21
141.1054629036947006
 31
0.0
  0
LINE
  5
A0B3
  8
0
 10
2441.2236972417181278
 20
141.1054629036947006
 30
0.0
 11
2441.1834184194181034
 21
141.1054629036947006
 31
0.0
  0
LINE
  5
A0B4
  8
0
 10
2441.1834184194181034
 20
141.1054629036947006
 30
0.0
 11
2441.1834184194181034
 21
141.1378999166946926
 31
0.0
  0
LINE
  5
A0B5
  8
0
 10
2441.1834184194181034
 20
141.1378999166946926
 30
0.0
 11
2441.2236972417181278
 21
141.1378999166950052
 31
0.0
  0
LINE
  5
A0B6
  8
0
 10
2441.1404207668178969
 20
141.0815824720947091
 30
0.0
 11
2441.1404207668178969
 21
141.1064988102947098
 31
0.0
  0
LINE
  5
A0B7
  8
0
 10
2441.1404207668178969
 20
141.1852708618947077
 30
0.0
 11
2441.1404207668178969
 21
141.1617803483947
 31
0.0
  0
LINE
  5
A0B8
  8
0
 10
2441.1404207668178969
 20
141.1617803483947
 30
0.0
 11
2441.1689021952179246
 21
141.1683324934946882
 31
0.0
  0
LINE
  5
A0B9
  8
0
 10
2441.1689021952179246
 20
141.1683324934946882
 30
0.0
 11
2441.1689021952179246
 21
141.1793460677367023
 31
0.0
  0
LINE
  5
A0BA
  8
0
 10
2441.1611631947180285
 20
141.1532511201573925
 30
0.0
 11
2441.1611631947180285
 21
141.1314131988947054
 31
0.0
  0
ARC
  5
A0BB
  8
0
 10
2441.1375544939628526
 20
141.1336508555492912
 30
0.0
 40
0.0237145073457589
 50
314.2664121625388134
 51
354.5856223685760256
  0
ARC
  5
A0BC
  8
0
 10
2441.1094112880041394
 20
141.1625241130084021
 30
0.0
 40
0.0640345400583399
 50
298.9641159895854798
 51
314.2664121625388134
  0
ARC
  5
A0BD
  8
0
 10
2441.0393871165829296
 20
141.2941266267270919
 30
0.0
 40
0.2130683500324903
 50
282.9678212401972814
 51
298.3062482384315217
  0
ARC
  5
A0BE
  8
0
 10
2440.8669666326090919
 20
142.0457970491368087
 30
0.0
 40
0.9842603847854796
 50
275.1915897119632177
 51
282.9297170974560913
  0
ARC
  5
A0BF
  8
0
 10
2440.8843452694818552
 20
142.352054956179586
 30
0.0
 40
1.2884761312391819
 50
269.6276115661027006
 51
273.1892603923628826
  0
ARC
  5
A0C0
  8
0
 10
2440.9332041827460671
 20
141.7788448204817087
 30
0.0
 40
0.7393658145330998
 50
270.2874241941461264
 51
280.59910251895991
  0
ARC
  5
A0C1
  8
0
 10
2441.1348240250731578
 20
141.2009360095225077
 30
0.0
 40
0.1304360478288891
 50
285.1450432240657165
 51
312.9495964370958063
  0
ARC
  5
A0C2
  8
0
 10
2441.1042204347409097
 20
141.1974122828891893
 30
0.0
 40
0.1213548891112483
 50
287.355609187328298
 51
310.7390304475479184
  0
LINE
  5
A0C3
  8
0
 10
2441.1689021952179246
 20
141.0750303269946926
 30
0.0
 11
2441.1404207668178969
 21
141.0815824720947091
 31
0.0
  0
ARC
  5
A0C4
  8
0
 10
2441.1297134839301179
 20
141.1566505301792063
 30
0.0
 40
0.0449522725104001
 50
293.8614729406912147
 51
309.4300476713265766
  0
ARC
  5
A0C5
  8
0
 10
2440.9444454263339139
 20
141.6407604684964952
 30
0.0
 40
0.5632485381639817
 50
271.2120930670299117
 51
291.1746829283977718
  0
ARC
  5
A0C6
  8
0
 10
2440.8844385352049358
 20
142.3164335997404919
 30
0.0
 40
1.240881677861686
 50
269.6090217651363901
 51
273.3227269852411041
  0
ARC
  5
A0C7
  8
0
 10
2440.8831269834968225
 20
139.8215067123680058
 30
0.0
 40
1.375489275927875
 50
88.7235908927332844
 51
90.2980826111316901
  0
ARC
  5
A0C8
  8
0
 10
2440.8864440034399195
 20
140.0017614066865974
 30
0.0
 40
1.1952056244803311
 50
86.6623555999460677
 51
88.6900773119814971
  0
ARC
  5
A0C9
  8
0
 10
2441.1069022040028358
 20
141.0507791685776056
 30
0.0
 40
0.1159515242418171
 50
48.7078818576836312
 51
73.1974783037620114
  0
ARC
  5
A0CA
  8
0
 10
2441.1294900868761033
 20
141.0328228466393057
 30
0.0
 40
0.1411246919386759
 50
48.1220922176395192
 51
73.7832679616832507
  0
ARC
  5
A0CB
  8
0
 10
2441.2065545424088668
 20
141.1605892793961914
 30
0.0
 40
0.0240109095076984
 50
315.5575902784913751
 51
0.8764620417214706
  0
LINE
  5
A0CC
  8
0
 10
2440.9136523705738
 20
141.1949062010137936
 30
0.0
 11
2440.9234948902740143
 21
141.1909843720137872
 31
0.0
  0
LINE
  5
A0CD
  8
0
 10
2440.9234948902740143
 20
141.1909843720137872
 30
0.0
 11
2440.9136523705738
 21
141.1870625429137931
 31
0.0
  0
LINE
  5
A0CE
  8
0
 10
2440.9136523705738
 20
141.1870625429137931
 30
0.0
 11
2440.8939673311738261
 21
141.1870625429137931
 31
0.0
  0
LINE
  5
A0CF
  8
0
 10
2440.8939673311738261
 20
141.1870625429137931
 30
0.0
 11
2440.8841248114740665
 21
141.1909843720137872
 31
0.0
  0
LINE
  5
A0D0
  8
0
 10
2440.8841248114740665
 20
141.1909843720137872
 30
0.0
 11
2440.8939673311738261
 21
141.1949062010137936
 31
0.0
  0
LINE
  5
A0D1
  8
0
 10
2440.8939673311738261
 20
141.1949062010137936
 30
0.0
 11
2440.9136523705738
 21
141.1949062010137936
 31
0.0
  0
LINE
  5
A0D2
  8
0
 10
2440.9136523705738
 20
141.1949062010137936
 30
0.0
 11
2440.9136523705738
 21
141.1870625429137931
 31
0.0
  0
LINE
  5
A0D3
  8
0
 10
2440.8939673311738261
 20
141.1870625429137931
 30
0.0
 11
2440.8939673311738261
 21
141.1949062010137936
 31
0.0
  0
LINE
  5
A0D4
  8
0
 10
2440.9136523705738
 20
141.1820975609138031
 30
0.0
 11
2440.9234948902740143
 21
141.1781757319137967
 31
0.0
  0
LINE
  5
A0D5
  8
0
 10
2440.9234948902740143
 20
141.1781757319137967
 30
0.0
 11
2440.9136523705738
 21
141.1742539028138026
 31
0.0
  0
LINE
  5
A0D6
  8
0
 10
2440.9136523705738
 20
141.1742539028138026
 30
0.0
 11
2440.8939673311738261
 21
141.1742539028138026
 31
0.0
  0
LINE
  5
A0D7
  8
0
 10
2440.8939673311738261
 20
141.1742539028138026
 30
0.0
 11
2440.8841248114740665
 21
141.1781757319137967
 31
0.0
  0
LINE
  5
A0D8
  8
0
 10
2440.8841248114740665
 20
141.1781757319137967
 30
0.0
 11
2440.8939673311738261
 21
141.1820975609138031
 31
0.0
  0
LINE
  5
A0D9
  8
0
 10
2440.8939673311738261
 20
141.1820975609138031
 30
0.0
 11
2440.9136523705738
 21
141.1820975609138031
 31
0.0
  0
LINE
  5
A0DA
  8
0
 10
2440.9136523705738
 20
141.1820975609138031
 30
0.0
 11
2440.9136523705738
 21
141.1742539028138026
 31
0.0
  0
LINE
  5
A0DB
  8
0
 10
2440.8939673311738261
 20
141.1742539028138026
 30
0.0
 11
2440.8939673311738261
 21
141.1820975609138031
 31
0.0
  0
LINE
  5
A0DC
  8
0
 10
2440.9136523705738
 20
141.1692889208138126
 30
0.0
 11
2440.9234948902740143
 21
141.1653670918138062
 31
0.0
  0
LINE
  5
A0DD
  8
0
 10
2440.9234948902740143
 20
141.1653670918138062
 30
0.0
 11
2440.9136523705738
 21
141.1614452627138121
 31
0.0
  0
LINE
  5
A0DE
  8
0
 10
2440.9136523705738
 20
141.1614452627138121
 30
0.0
 11
2440.8939673311738261
 21
141.1614452627138121
 31
0.0
  0
LINE
  5
A0DF
  8
0
 10
2440.8939673311738261
 20
141.1614452627138121
 30
0.0
 11
2440.8841248114740665
 21
141.1653670918138062
 31
0.0
  0
LINE
  5
A0E0
  8
0
 10
2440.8841248114740665
 20
141.1653670918138062
 30
0.0
 11
2440.8939673311738261
 21
141.1692889208138126
 31
0.0
  0
LINE
  5
A0E1
  8
0
 10
2440.8939673311738261
 20
141.1692889208138126
 30
0.0
 11
2440.9136523705738
 21
141.1692889208138126
 31
0.0
  0
LINE
  5
A0E2
  8
0
 10
2440.9136523705738
 20
141.1692889208138126
 30
0.0
 11
2440.9136523705738
 21
141.1614452627138121
 31
0.0
  0
LINE
  5
A0E3
  8
0
 10
2440.8939673311738261
 20
141.1614452627138121
 30
0.0
 11
2440.8939673311738261
 21
141.1692889208138126
 31
0.0
  0
LINE
  5
A0E4
  8
0
 10
2440.9136523705738
 20
141.1564802807137937
 30
0.0
 11
2440.9234948902740143
 21
141.1525584517137872
 31
0.0
  0
LINE
  5
A0E5
  8
0
 10
2440.9234948902740143
 20
141.1525584517137872
 30
0.0
 11
2440.9136523705738
 21
141.1486366226137932
 31
0.0
  0
LINE
  5
A0E6
  8
0
 10
2440.9136523705738
 20
141.1486366226137932
 30
0.0
 11
2440.8939673311738261
 21
141.1486366226137932
 31
0.0
  0
LINE
  5
A0E7
  8
0
 10
2440.8939673311738261
 20
141.1486366226137932
 30
0.0
 11
2440.8841248114740665
 21
141.1525584517137872
 31
0.0
  0
LINE
  5
A0E8
  8
0
 10
2440.8841248114740665
 20
141.1525584517137872
 30
0.0
 11
2440.8939673311738261
 21
141.1564802807137937
 31
0.0
  0
LINE
  5
A0E9
  8
0
 10
2440.8939673311738261
 20
141.1564802807137937
 30
0.0
 11
2440.9136523705738
 21
141.1564802807137937
 31
0.0
  0
LINE
  5
A0EA
  8
0
 10
2440.9136523705738
 20
141.1564802807137937
 30
0.0
 11
2440.9136523705738
 21
141.1486366226137932
 31
0.0
  0
LINE
  5
A0EB
  8
0
 10
2440.8939673311738261
 20
141.1486366226137932
 30
0.0
 11
2440.8939673311738261
 21
141.1564802807137937
 31
0.0
  0
LINE
  5
A0EC
  8
0
 10
2440.9136523705738
 20
141.1436716406138032
 30
0.0
 11
2440.9234948902740143
 21
141.1397498116137967
 31
0.0
  0
LINE
  5
A0ED
  8
0
 10
2440.9234948902740143
 20
141.1397498116137967
 30
0.0
 11
2440.9136523705738
 21
141.1358279825138027
 31
0.0
  0
LINE
  5
A0EE
  8
0
 10
2440.9136523705738
 20
141.1358279825138027
 30
0.0
 11
2440.8939673311738261
 21
141.1358279825138027
 31
0.0
  0
LINE
  5
A0EF
  8
0
 10
2440.8939673311738261
 20
141.1358279825138027
 30
0.0
 11
2440.8841248114740665
 21
141.1397498116137967
 31
0.0
  0
LINE
  5
A0F0
  8
0
 10
2440.8841248114740665
 20
141.1397498116137967
 30
0.0
 11
2440.8939673311738261
 21
141.1436716406138032
 31
0.0
  0
LINE
  5
A0F1
  8
0
 10
2440.8939673311738261
 20
141.1436716406138032
 30
0.0
 11
2440.9136523705738
 21
141.1436716406138032
 31
0.0
  0
LINE
  5
A0F2
  8
0
 10
2440.9136523705738
 20
141.1436716406138032
 30
0.0
 11
2440.9136523705738
 21
141.1358279825138027
 31
0.0
  0
LINE
  5
A0F3
  8
0
 10
2440.8939673311738261
 20
141.1358279825138027
 30
0.0
 11
2440.8939673311738261
 21
141.1436716406138032
 31
0.0
  0
LINE
  5
A0F4
  8
0
 10
2440.9136523705738
 20
141.1308630005138127
 30
0.0
 11
2440.9234948902740143
 21
141.1269411715138062
 31
0.0
  0
LINE
  5
A0F5
  8
0
 10
2440.9234948902740143
 20
141.1269411715138062
 30
0.0
 11
2440.9136523705738
 21
141.1230193424138122
 31
0.0
  0
LINE
  5
A0F6
  8
0
 10
2440.9136523705738
 20
141.1230193424138122
 30
0.0
 11
2440.8939673311738261
 21
141.1230193424138122
 31
0.0
  0
LINE
  5
A0F7
  8
0
 10
2440.8939673311738261
 20
141.1230193424138122
 30
0.0
 11
2440.8841248114740665
 21
141.1269411715138062
 31
0.0
  0
LINE
  5
A0F8
  8
0
 10
2440.8841248114740665
 20
141.1269411715138062
 30
0.0
 11
2440.8939673311738261
 21
141.1308630005138127
 31
0.0
  0
LINE
  5
A0F9
  8
0
 10
2440.8939673311738261
 20
141.1308630005138127
 30
0.0
 11
2440.9136523705738
 21
141.1308630005138127
 31
0.0
  0
LINE
  5
A0FA
  8
0
 10
2440.9136523705738
 20
141.1308630005138127
 30
0.0
 11
2440.9136523705738
 21
141.1230193424138122
 31
0.0
  0
LINE
  5
A0FB
  8
0
 10
2440.8939673311738261
 20
141.1230193424138122
 30
0.0
 11
2440.8939673311738261
 21
141.1308630005138127
 31
0.0
  0
LINE
  5
A0FC
  8
0
 10
2440.9136523705738
 20
141.1180543604137938
 30
0.0
 11
2440.9234948902740143
 21
141.1141325314137873
 31
0.0
  0
LINE
  5
A0FD
  8
0
 10
2440.9234948902740143
 20
141.1141325314137873
 30
0.0
 11
2440.9136523705738
 21
141.1102107023137933
 31
0.0
  0
LINE
  5
A0FE
  8
0
 10
2440.9136523705738
 20
141.1102107023137933
 30
0.0
 11
2440.8939673311738261
 21
141.1102107023137933
 31
0.0
  0
LINE
  5
A0FF
  8
0
 10
2440.8939673311738261
 20
141.1102107023137933
 30
0.0
 11
2440.8841248114740665
 21
141.1141325314137873
 31
0.0
  0
LINE
  5
A100
  8
0
 10
2440.8841248114740665
 20
141.1141325314137873
 30
0.0
 11
2440.8939673311738261
 21
141.1180543604137938
 31
0.0
  0
LINE
  5
A101
  8
0
 10
2440.8939673311738261
 20
141.1180543604137938
 30
0.0
 11
2440.9136523705738
 21
141.1180543604137938
 31
0.0
  0
LINE
  5
A102
  8
0
 10
2440.9136523705738
 20
141.1180543604137938
 30
0.0
 11
2440.9136523705738
 21
141.1102107023137933
 31
0.0
  0
LINE
  5
A103
  8
0
 10
2440.8939673311738261
 20
141.1102107023137933
 30
0.0
 11
2440.8939673311738261
 21
141.1180543604137938
 31
0.0
  0
LINE
  5
A104
  8
0
 10
2440.9136523705738
 20
141.1052457203138033
 30
0.0
 11
2440.9234948902740143
 21
141.1013238913137968
 31
0.0
  0
LINE
  5
A105
  8
0
 10
2440.9234948902740143
 20
141.1013238913137968
 30
0.0
 11
2440.9136523705738
 21
141.0974020622138028
 31
0.0
  0
LINE
  5
A106
  8
0
 10
2440.9136523705738
 20
141.0974020622138028
 30
0.0
 11
2440.8939673311738261
 21
141.0974020622138028
 31
0.0
  0
LINE
  5
A107
  8
0
 10
2440.8939673311738261
 20
141.0974020622138028
 30
0.0
 11
2440.8841248114740665
 21
141.1013238913137968
 31
0.0
  0
LINE
  5
A108
  8
0
 10
2440.8841248114740665
 20
141.1013238913137968
 30
0.0
 11
2440.8939673311738261
 21
141.1052457203138033
 31
0.0
  0
LINE
  5
A109
  8
0
 10
2440.8939673311738261
 20
141.1052457203138033
 30
0.0
 11
2440.9136523705738
 21
141.1052457203138033
 31
0.0
  0
LINE
  5
A10A
  8
0
 10
2440.9136523705738
 20
141.1052457203138033
 30
0.0
 11
2440.9136523705738
 21
141.0974020622138028
 31
0.0
  0
LINE
  5
A10B
  8
0
 10
2440.8939673311738261
 20
141.0974020622138028
 30
0.0
 11
2440.8939673311738261
 21
141.1052457203138033
 31
0.0
  0
LINE
  5
A10C
  8
0
 10
2440.9136523705738
 20
141.0924370802138128
 30
0.0
 11
2440.9234948902740143
 21
141.0885152512138063
 31
0.0
  0
LINE
  5
A10D
  8
0
 10
2440.9234948902740143
 20
141.0885152512138063
 30
0.0
 11
2440.9136523705738
 21
141.0845934221138123
 31
0.0
  0
LINE
  5
A10E
  8
0
 10
2440.9136523705738
 20
141.0845934221138123
 30
0.0
 11
2440.8939673311738261
 21
141.0845934221138123
 31
0.0
  0
LINE
  5
A10F
  8
0
 10
2440.8939673311738261
 20
141.0845934221138123
 30
0.0
 11
2440.8841248114740665
 21
141.0885152512138063
 31
0.0
  0
LINE
  5
A110
  8
0
 10
2440.8841248114740665
 20
141.0885152512138063
 30
0.0
 11
2440.8939673311738261
 21
141.0924370802138128
 31
0.0
  0
LINE
  5
A111
  8
0
 10
2440.8939673311738261
 20
141.0924370802138128
 30
0.0
 11
2440.9136523705738
 21
141.0924370802138128
 31
0.0
  0
LINE
  5
A112
  8
0
 10
2440.9136523705738
 20
141.0924370802138128
 30
0.0
 11
2440.9136523705738
 21
141.0845934221138123
 31
0.0
  0
LINE
  5
A113
  8
0
 10
2440.8939673311738261
 20
141.0845934221138123
 30
0.0
 11
2440.8939673311738261
 21
141.0924370802138128
 31
0.0
  0
LINE
  5
A114
  8
0
 10
2440.9414912201741572
 20
141.1885018809138046
 30
0.0
 11
2440.9513337398739168
 21
141.1845800519137981
 31
0.0
  0
LINE
  5
A115
  8
0
 10
2440.9513337398739168
 20
141.1845800519137981
 30
0.0
 11
2440.9414912201741572
 21
141.1806582228138041
 31
0.0
  0
LINE
  5
A116
  8
0
 10
2440.9414912201741572
 20
141.1806582228138041
 30
0.0
 11
2440.9218061807741833
 21
141.1806582228138041
 31
0.0
  0
LINE
  5
A117
  8
0
 10
2440.9218061807741833
 20
141.1806582228138041
 30
0.0
 11
2440.911963661073969
 21
141.1845800519137981
 31
0.0
  0
LINE
  5
A118
  8
0
 10
2440.911963661073969
 20
141.1845800519137981
 30
0.0
 11
2440.9218061807741833
 21
141.1885018809138046
 31
0.0
  0
LINE
  5
A119
  8
0
 10
2440.9218061807741833
 20
141.1885018809138046
 30
0.0
 11
2440.9414912201741572
 21
141.1885018809138046
 31
0.0
  0
LINE
  5
A11A
  8
0
 10
2440.9414912201741572
 20
141.1885018809138046
 30
0.0
 11
2440.9414912201741572
 21
141.1806582228138041
 31
0.0
  0
LINE
  5
A11B
  8
0
 10
2440.9218061807741833
 20
141.1806582228138041
 30
0.0
 11
2440.9218061807741833
 21
141.1885018809138046
 31
0.0
  0
LINE
  5
A11C
  8
0
 10
2440.9414912201741572
 20
141.1756932408138141
 30
0.0
 11
2440.9513337398739168
 21
141.1717714118138076
 31
0.0
  0
LINE
  5
A11D
  8
0
 10
2440.9513337398739168
 20
141.1717714118138076
 30
0.0
 11
2440.9414912201741572
 21
141.1678495827138136
 31
0.0
  0
LINE
  5
A11E
  8
0
 10
2440.9414912201741572
 20
141.1678495827138136
 30
0.0
 11
2440.9218061807741833
 21
141.1678495827138136
 31
0.0
  0
LINE
  5
A11F
  8
0
 10
2440.9218061807741833
 20
141.1678495827138136
 30
0.0
 11
2440.911963661073969
 21
141.1717714118138076
 31
0.0
  0
LINE
  5
A120
  8
0
 10
2440.911963661073969
 20
141.1717714118138076
 30
0.0
 11
2440.9218061807741833
 21
141.1756932408138141
 31
0.0
  0
LINE
  5
A121
  8
0
 10
2440.9218061807741833
 20
141.1756932408138141
 30
0.0
 11
2440.9414912201741572
 21
141.1756932408138141
 31
0.0
  0
LINE
  5
A122
  8
0
 10
2440.9414912201741572
 20
141.1756932408138141
 30
0.0
 11
2440.9414912201741572
 21
141.1678495827138136
 31
0.0
  0
LINE
  5
A123
  8
0
 10
2440.9218061807741833
 20
141.1678495827138136
 30
0.0
 11
2440.9218061807741833
 21
141.1756932408138141
 31
0.0
  0
LINE
  5
A124
  8
0
 10
2440.9414912201741572
 20
141.1628846007137952
 30
0.0
 11
2440.9513337398739168
 21
141.1589627717137887
 31
0.0
  0
LINE
  5
A125
  8
0
 10
2440.9513337398739168
 20
141.1589627717137887
 30
0.0
 11
2440.9414912201741572
 21
141.1550409426137946
 31
0.0
  0
LINE
  5
A126
  8
0
 10
2440.9414912201741572
 20
141.1550409426137946
 30
0.0
 11
2440.9218061807741833
 21
141.1550409426137946
 31
0.0
  0
LINE
  5
A127
  8
0
 10
2440.9218061807741833
 20
141.1550409426137946
 30
0.0
 11
2440.911963661073969
 21
141.1589627717137887
 31
0.0
  0
LINE
  5
A128
  8
0
 10
2440.911963661073969
 20
141.1589627717137887
 30
0.0
 11
2440.9218061807741833
 21
141.1628846007137952
 31
0.0
  0
LINE
  5
A129
  8
0
 10
2440.9218061807741833
 20
141.1628846007137952
 30
0.0
 11
2440.9414912201741572
 21
141.1628846007137952
 31
0.0
  0
LINE
  5
A12A
  8
0
 10
2440.9414912201741572
 20
141.1628846007137952
 30
0.0
 11
2440.9414912201741572
 21
141.1550409426137946
 31
0.0
  0
LINE
  5
A12B
  8
0
 10
2440.9218061807741833
 20
141.1550409426137946
 30
0.0
 11
2440.9218061807741833
 21
141.1628846007137952
 31
0.0
  0
LINE
  5
A12C
  8
0
 10
2440.9414912201741572
 20
141.1500759606138047
 30
0.0
 11
2440.9513337398739168
 21
141.1461541316137982
 31
0.0
  0
LINE
  5
A12D
  8
0
 10
2440.9513337398739168
 20
141.1461541316137982
 30
0.0
 11
2440.9414912201741572
 21
141.1422323025138041
 31
0.0
  0
LINE
  5
A12E
  8
0
 10
2440.9414912201741572
 20
141.1422323025138041
 30
0.0
 11
2440.9218061807741833
 21
141.1422323025138041
 31
0.0
  0
LINE
  5
A12F
  8
0
 10
2440.9218061807741833
 20
141.1422323025138041
 30
0.0
 11
2440.911963661073969
 21
141.1461541316137982
 31
0.0
  0
LINE
  5
A130
  8
0
 10
2440.911963661073969
 20
141.1461541316137982
 30
0.0
 11
2440.9218061807741833
 21
141.1500759606138047
 31
0.0
  0
LINE
  5
A131
  8
0
 10
2440.9218061807741833
 20
141.1500759606138047
 30
0.0
 11
2440.9414912201741572
 21
141.1500759606138047
 31
0.0
  0
LINE
  5
A132
  8
0
 10
2440.9414912201741572
 20
141.1500759606138047
 30
0.0
 11
2440.9414912201741572
 21
141.1422323025138041
 31
0.0
  0
LINE
  5
A133
  8
0
 10
2440.9218061807741833
 20
141.1422323025138041
 30
0.0
 11
2440.9218061807741833
 21
141.1500759606138047
 31
0.0
  0
LINE
  5
A134
  8
0
 10
2440.9414912201741572
 20
141.1372673206138018
 30
0.0
 11
2440.9513337398739168
 21
141.1333454916137953
 31
0.0
  0
LINE
  5
A135
  8
0
 10
2440.9513337398739168
 20
141.1333454916137953
 30
0.0
 11
2440.9414912201741572
 21
141.1294236625138012
 31
0.0
  0
LINE
  5
A136
  8
0
 10
2440.9414912201741572
 20
141.1294236625138012
 30
0.0
 11
2440.9218061807741833
 21
141.1294236625138012
 31
0.0
  0
LINE
  5
A137
  8
0
 10
2440.9218061807741833
 20
141.1294236625138012
 30
0.0
 11
2440.911963661073969
 21
141.1333454916137953
 31
0.0
  0
LINE
  5
A138
  8
0
 10
2440.911963661073969
 20
141.1333454916137953
 30
0.0
 11
2440.9218061807741833
 21
141.1372673206138018
 31
0.0
  0
LINE
  5
A139
  8
0
 10
2440.9218061807741833
 20
141.1372673206138018
 30
0.0
 11
2440.9414912201741572
 21
141.1372673206138018
 31
0.0
  0
LINE
  5
A13A
  8
0
 10
2440.9414912201741572
 20
141.1372673206138018
 30
0.0
 11
2440.9414912201741572
 21
141.1294236625138012
 31
0.0
  0
LINE
  5
A13B
  8
0
 10
2440.9218061807741833
 20
141.1294236625138012
 30
0.0
 11
2440.9218061807741833
 21
141.1372673206138018
 31
0.0
  0
LINE
  5
A13C
  8
0
 10
2440.9414912201741572
 20
141.1244586805138113
 30
0.0
 11
2440.9513337398739168
 21
141.1205368515138048
 31
0.0
  0
LINE
  5
A13D
  8
0
 10
2440.9513337398739168
 20
141.1205368515138048
 30
0.0
 11
2440.9414912201741572
 21
141.1166150224138107
 31
0.0
  0
LINE
  5
A13E
  8
0
 10
2440.9414912201741572
 20
141.1166150224138107
 30
0.0
 11
2440.9218061807741833
 21
141.1166150224138107
 31
0.0
  0
LINE
  5
A13F
  8
0
 10
2440.9218061807741833
 20
141.1166150224138107
 30
0.0
 11
2440.911963661073969
 21
141.1205368515138048
 31
0.0
  0
LINE
  5
A140
  8
0
 10
2440.911963661073969
 20
141.1205368515138048
 30
0.0
 11
2440.9218061807741833
 21
141.1244586805138113
 31
0.0
  0
LINE
  5
A141
  8
0
 10
2440.9218061807741833
 20
141.1244586805138113
 30
0.0
 11
2440.9414912201741572
 21
141.1244586805138113
 31
0.0
  0
LINE
  5
A142
  8
0
 10
2440.9414912201741572
 20
141.1244586805138113
 30
0.0
 11
2440.9414912201741572
 21
141.1166150224138107
 31
0.0
  0
LINE
  5
A143
  8
0
 10
2440.9218061807741833
 20
141.1166150224138107
 30
0.0
 11
2440.9218061807741833
 21
141.1244586805138113
 31
0.0
  0
LINE
  5
A144
  8
0
 10
2440.9414912201741572
 20
141.1116500404137923
 30
0.0
 11
2440.9513337398739168
 21
141.1077282114137859
 31
0.0
  0
LINE
  5
A145
  8
0
 10
2440.9513337398739168
 20
141.1077282114137859
 30
0.0
 11
2440.9414912201741572
 21
141.1038063823137918
 31
0.0
  0
LINE
  5
A146
  8
0
 10
2440.9414912201741572
 20
141.1038063823137918
 30
0.0
 11
2440.9218061807741833
 21
141.1038063823137918
 31
0.0
  0
LINE
  5
A147
  8
0
 10
2440.9218061807741833
 20
141.1038063823137918
 30
0.0
 11
2440.911963661073969
 21
141.1077282114137859
 31
0.0
  0
LINE
  5
A148
  8
0
 10
2440.911963661073969
 20
141.1077282114137859
 30
0.0
 11
2440.9218061807741833
 21
141.1116500404137923
 31
0.0
  0
LINE
  5
A149
  8
0
 10
2440.9218061807741833
 20
141.1116500404137923
 30
0.0
 11
2440.9414912201741572
 21
141.1116500404137923
 31
0.0
  0
LINE
  5
A14A
  8
0
 10
2440.9414912201741572
 20
141.1116500404137923
 30
0.0
 11
2440.9414912201741572
 21
141.1038063823137918
 31
0.0
  0
LINE
  5
A14B
  8
0
 10
2440.9218061807741833
 20
141.1038063823137918
 30
0.0
 11
2440.9218061807741833
 21
141.1116500404137923
 31
0.0
  0
LINE
  5
A14C
  8
0
 10
2440.9414912201741572
 20
141.0988414003138018
 30
0.0
 11
2440.9513337398739168
 21
141.0949195713137954
 31
0.0
  0
LINE
  5
A14D
  8
0
 10
2440.9513337398739168
 20
141.0949195713137954
 30
0.0
 11
2440.9414912201741572
 21
141.0909977422138013
 31
0.0
  0
LINE
  5
A14E
  8
0
 10
2440.9414912201741572
 20
141.0909977422138013
 30
0.0
 11
2440.9218061807741833
 21
141.0909977422138013
 31
0.0
  0
LINE
  5
A14F
  8
0
 10
2440.9218061807741833
 20
141.0909977422138013
 30
0.0
 11
2440.911963661073969
 21
141.0949195713137954
 31
0.0
  0
LINE
  5
A150
  8
0
 10
2440.911963661073969
 20
141.0949195713137954
 30
0.0
 11
2440.9218061807741833
 21
141.0988414003138018
 31
0.0
  0
LINE
  5
A151
  8
0
 10
2440.9218061807741833
 20
141.0988414003138018
 30
0.0
 11
2440.9414912201741572
 21
141.0988414003138018
 31
0.0
  0
LINE
  5
A152
  8
0
 10
2440.9414912201741572
 20
141.0988414003138018
 30
0.0
 11
2440.9414912201741572
 21
141.0909977422138013
 31
0.0
  0
LINE
  5
A153
  8
0
 10
2440.9218061807741833
 20
141.0909977422138013
 30
0.0
 11
2440.9218061807741833
 21
141.0988414003138018
 31
0.0
  0
LINE
  5
A154
  8
0
 10
2440.9693300698741041
 20
141.0924370802138128
 30
0.0
 11
2440.9791725895738637
 21
141.0885152512138063
 31
0.0
  0
LINE
  5
A155
  8
0
 10
2440.9791725895738637
 20
141.0885152512138063
 30
0.0
 11
2440.9693300698741041
 21
141.0845934221138123
 31
0.0
  0
LINE
  5
A156
  8
0
 10
2440.9693300698741041
 20
141.0845934221138123
 30
0.0
 11
2440.9496450304750397
 21
141.0845934221138123
 31
0.0
  0
LINE
  5
A157
  8
0
 10
2440.9496450304750397
 20
141.0845934221138123
 30
0.0
 11
2440.9398025107739159
 21
141.0885152512138063
 31
0.0
  0
LINE
  5
A158
  8
0
 10
2440.9398025107739159
 20
141.0885152512138063
 30
0.0
 11
2440.9496450304750397
 21
141.0924370802138128
 31
0.0
  0
LINE
  5
A159
  8
0
 10
2440.9496450304750397
 20
141.0924370802138128
 30
0.0
 11
2440.9693300698741041
 21
141.0924370802138128
 31
0.0
  0
LINE
  5
A15A
  8
0
 10
2440.9693300698741041
 20
141.0924370802138128
 30
0.0
 11
2440.9693300698741041
 21
141.0845934221138123
 31
0.0
  0
LINE
  5
A15B
  8
0
 10
2440.9496450304750397
 20
141.0845934221138123
 30
0.0
 11
2440.9496450304750397
 21
141.0924370802138128
 31
0.0
  0
LINE
  5
A15C
  8
0
 10
2440.9693300698741041
 20
141.1052457203138033
 30
0.0
 11
2440.9791725895738637
 21
141.1013238913137968
 31
0.0
  0
LINE
  5
A15D
  8
0
 10
2440.9791725895738637
 20
141.1013238913137968
 30
0.0
 11
2440.9693300698741041
 21
141.0974020622138028
 31
0.0
  0
LINE
  5
A15E
  8
0
 10
2440.9693300698741041
 20
141.0974020622138028
 30
0.0
 11
2440.9496450304750397
 21
141.0974020622138028
 31
0.0
  0
LINE
  5
A15F
  8
0
 10
2440.9496450304750397
 20
141.0974020622138028
 30
0.0
 11
2440.9398025107739159
 21
141.1013238913137968
 31
0.0
  0
LINE
  5
A160
  8
0
 10
2440.9398025107739159
 20
141.1013238913137968
 30
0.0
 11
2440.9496450304750397
 21
141.1052457203138033
 31
0.0
  0
LINE
  5
A161
  8
0
 10
2440.9496450304750397
 20
141.1052457203138033
 30
0.0
 11
2440.9693300698741041
 21
141.1052457203138033
 31
0.0
  0
LINE
  5
A162
  8
0
 10
2440.9693300698741041
 20
141.1052457203138033
 30
0.0
 11
2440.9693300698741041
 21
141.0974020622138028
 31
0.0
  0
LINE
  5
A163
  8
0
 10
2440.9496450304750397
 20
141.0974020622138028
 30
0.0
 11
2440.9496450304750397
 21
141.1052457203138033
 31
0.0
  0
LINE
  5
A164
  8
0
 10
2440.9693300698741041
 20
141.1180543604137938
 30
0.0
 11
2440.9791725895738637
 21
141.1141325314137873
 31
0.0
  0
LINE
  5
A165
  8
0
 10
2440.9791725895738637
 20
141.1141325314137873
 30
0.0
 11
2440.9693300698741041
 21
141.1102107023137933
 31
0.0
  0
LINE
  5
A166
  8
0
 10
2440.9693300698741041
 20
141.1102107023137933
 30
0.0
 11
2440.9496450304750397
 21
141.1102107023137933
 31
0.0
  0
LINE
  5
A167
  8
0
 10
2440.9496450304750397
 20
141.1102107023137933
 30
0.0
 11
2440.9398025107739159
 21
141.1141325314137873
 31
0.0
  0
LINE
  5
A168
  8
0
 10
2440.9398025107739159
 20
141.1141325314137873
 30
0.0
 11
2440.9496450304750397
 21
141.1180543604137938
 31
0.0
  0
LINE
  5
A169
  8
0
 10
2440.9496450304750397
 20
141.1180543604137938
 30
0.0
 11
2440.9693300698741041
 21
141.1180543604137938
 31
0.0
  0
LINE
  5
A16A
  8
0
 10
2440.9693300698741041
 20
141.1180543604137938
 30
0.0
 11
2440.9693300698741041
 21
141.1102107023137933
 31
0.0
  0
LINE
  5
A16B
  8
0
 10
2440.9496450304750397
 20
141.1102107023137933
 30
0.0
 11
2440.9496450304750397
 21
141.1180543604137938
 31
0.0
  0
LINE
  5
A16C
  8
0
 10
2440.9693300698741041
 20
141.1308630005138127
 30
0.0
 11
2440.9791725895738637
 21
141.1269411715138062
 31
0.0
  0
LINE
  5
A16D
  8
0
 10
2440.9791725895738637
 20
141.1269411715138062
 30
0.0
 11
2440.9693300698741041
 21
141.1230193424138122
 31
0.0
  0
LINE
  5
A16E
  8
0
 10
2440.9693300698741041
 20
141.1230193424138122
 30
0.0
 11
2440.9496450304750397
 21
141.1230193424138122
 31
0.0
  0
LINE
  5
A16F
  8
0
 10
2440.9496450304750397
 20
141.1230193424138122
 30
0.0
 11
2440.9398025107739159
 21
141.1269411715138062
 31
0.0
  0
LINE
  5
A170
  8
0
 10
2440.9398025107739159
 20
141.1269411715138062
 30
0.0
 11
2440.9496450304750397
 21
141.1308630005138127
 31
0.0
  0
LINE
  5
A171
  8
0
 10
2440.9496450304750397
 20
141.1308630005138127
 30
0.0
 11
2440.9693300698741041
 21
141.1308630005138127
 31
0.0
  0
LINE
  5
A172
  8
0
 10
2440.9693300698741041
 20
141.1308630005138127
 30
0.0
 11
2440.9693300698741041
 21
141.1230193424138122
 31
0.0
  0
LINE
  5
A173
  8
0
 10
2440.9496450304750397
 20
141.1230193424138122
 30
0.0
 11
2440.9496450304750397
 21
141.1308630005138127
 31
0.0
  0
LINE
  5
A174
  8
0
 10
2440.9693300698741041
 20
141.1436716406138032
 30
0.0
 11
2440.9791725895738637
 21
141.1397498116137967
 31
0.0
  0
LINE
  5
A175
  8
0
 10
2440.9791725895738637
 20
141.1397498116137967
 30
0.0
 11
2440.9693300698741041
 21
141.1358279825138027
 31
0.0
  0
LINE
  5
A176
  8
0
 10
2440.9693300698741041
 20
141.1358279825138027
 30
0.0
 11
2440.9496450304750397
 21
141.1358279825138027
 31
0.0
  0
LINE
  5
A177
  8
0
 10
2440.9496450304750397
 20
141.1358279825138027
 30
0.0
 11
2440.9398025107739159
 21
141.1397498116137967
 31
0.0
  0
LINE
  5
A178
  8
0
 10
2440.9398025107739159
 20
141.1397498116137967
 30
0.0
 11
2440.9496450304750397
 21
141.1436716406138032
 31
0.0
  0
LINE
  5
A179
  8
0
 10
2440.9496450304750397
 20
141.1436716406138032
 30
0.0
 11
2440.9693300698741041
 21
141.1436716406138032
 31
0.0
  0
LINE
  5
A17A
  8
0
 10
2440.9693300698741041
 20
141.1436716406138032
 30
0.0
 11
2440.9693300698741041
 21
141.1358279825138027
 31
0.0
  0
LINE
  5
A17B
  8
0
 10
2440.9496450304750397
 20
141.1358279825138027
 30
0.0
 11
2440.9496450304750397
 21
141.1436716406138032
 31
0.0
  0
LINE
  5
A17C
  8
0
 10
2440.9693300698741041
 20
141.1564802807137937
 30
0.0
 11
2440.9791725895738637
 21
141.1525584517137872
 31
0.0
  0
LINE
  5
A17D
  8
0
 10
2440.9791725895738637
 20
141.1525584517137872
 30
0.0
 11
2440.9693300698741041
 21
141.1486366226137932
 31
0.0
  0
LINE
  5
A17E
  8
0
 10
2440.9693300698741041
 20
141.1486366226137932
 30
0.0
 11
2440.9496450304750397
 21
141.1486366226137932
 31
0.0
  0
LINE
  5
A17F
  8
0
 10
2440.9496450304750397
 20
141.1486366226137932
 30
0.0
 11
2440.9398025107739159
 21
141.1525584517137872
 31
0.0
  0
LINE
  5
A180
  8
0
 10
2440.9398025107739159
 20
141.1525584517137872
 30
0.0
 11
2440.9496450304750397
 21
141.1564802807137937
 31
0.0
  0
LINE
  5
A181
  8
0
 10
2440.9496450304750397
 20
141.1564802807137937
 30
0.0
 11
2440.9693300698741041
 21
141.1564802807137937
 31
0.0
  0
LINE
  5
A182
  8
0
 10
2440.9693300698741041
 20
141.1564802807137937
 30
0.0
 11
2440.9693300698741041
 21
141.1486366226137932
 31
0.0
  0
LINE
  5
A183
  8
0
 10
2440.9496450304750397
 20
141.1486366226137932
 30
0.0
 11
2440.9496450304750397
 21
141.1564802807137937
 31
0.0
  0
LINE
  5
A184
  8
0
 10
2440.9971689194740065
 20
141.1628846007137952
 30
0.0
 11
2441.0070114391742209
 21
141.1589627717137887
 31
0.0
  0
LINE
  5
A185
  8
0
 10
2441.0070114391742209
 20
141.1589627717137887
 30
0.0
 11
2440.9971689194740065
 21
141.1550409426137946
 31
0.0
  0
LINE
  5
A186
  8
0
 10
2440.9971689194740065
 20
141.1550409426137946
 30
0.0
 11
2440.9774838800740326
 21
141.1550409426137946
 31
0.0
  0
LINE
  5
A187
  8
0
 10
2440.9774838800740326
 20
141.1550409426137946
 30
0.0
 11
2440.9676413603738183
 21
141.1589627717137887
 31
0.0
  0
LINE
  5
A188
  8
0
 10
2440.9676413603738183
 20
141.1589627717137887
 30
0.0
 11
2440.9774838800740326
 21
141.1628846007137952
 31
0.0
  0
LINE
  5
A189
  8
0
 10
2440.9774838800740326
 20
141.1628846007137952
 30
0.0
 11
2440.9971689194740065
 21
141.1628846007137952
 31
0.0
  0
LINE
  5
A18A
  8
0
 10
2440.9971689194740065
 20
141.1628846007137952
 30
0.0
 11
2440.9971689194740065
 21
141.1550409426137946
 31
0.0
  0
LINE
  5
A18B
  8
0
 10
2440.9774838800740326
 20
141.1550409426137946
 30
0.0
 11
2440.9774838800740326
 21
141.1628846007137952
 31
0.0
  0
LINE
  5
A18C
  8
0
 10
2440.9971689194740065
 20
141.1756932408138141
 30
0.0
 11
2441.0070114391742209
 21
141.1717714118138076
 31
0.0
  0
LINE
  5
A18D
  8
0
 10
2441.0070114391742209
 20
141.1717714118138076
 30
0.0
 11
2440.9971689194740065
 21
141.1678495827138136
 31
0.0
  0
LINE
  5
A18E
  8
0
 10
2440.9971689194740065
 20
141.1678495827138136
 30
0.0
 11
2440.9774838800740326
 21
141.1678495827138136
 31
0.0
  0
LINE
  5
A18F
  8
0
 10
2440.9774838800740326
 20
141.1678495827138136
 30
0.0
 11
2440.9676413603738183
 21
141.1717714118138076
 31
0.0
  0
LINE
  5
A190
  8
0
 10
2440.9676413603738183
 20
141.1717714118138076
 30
0.0
 11
2440.9774838800740326
 21
141.1756932408138141
 31
0.0
  0
LINE
  5
A191
  8
0
 10
2440.9774838800740326
 20
141.1756932408138141
 30
0.0
 11
2440.9971689194740065
 21
141.1756932408138141
 31
0.0
  0
LINE
  5
A192
  8
0
 10
2440.9971689194740065
 20
141.1756932408138141
 30
0.0
 11
2440.9971689194740065
 21
141.1678495827138136
 31
0.0
  0
LINE
  5
A193
  8
0
 10
2440.9774838800740326
 20
141.1678495827138136
 30
0.0
 11
2440.9774838800740326
 21
141.1756932408138141
 31
0.0
  0
LINE
  5
A194
  8
0
 10
2440.9693300698741041
 20
141.1692889208138126
 30
0.0
 11
2440.9791725895738637
 21
141.1653670918138062
 31
0.0
  0
LINE
  5
A195
  8
0
 10
2440.9791725895738637
 20
141.1653670918138062
 30
0.0
 11
2440.9693300698741041
 21
141.1614452627138121
 31
0.0
  0
LINE
  5
A196
  8
0
 10
2440.9693300698741041
 20
141.1614452627138121
 30
0.0
 11
2440.9496450304750397
 21
141.1614452627138121
 31
0.0
  0
LINE
  5
A197
  8
0
 10
2440.9496450304750397
 20
141.1614452627138121
 30
0.0
 11
2440.9398025107739159
 21
141.1653670918138062
 31
0.0
  0
LINE
  5
A198
  8
0
 10
2440.9398025107739159
 20
141.1653670918138062
 30
0.0
 11
2440.9496450304750397
 21
141.1692889208138126
 31
0.0
  0
LINE
  5
A199
  8
0
 10
2440.9496450304750397
 20
141.1692889208138126
 30
0.0
 11
2440.9693300698741041
 21
141.1692889208138126
 31
0.0
  0
LINE
  5
A19A
  8
0
 10
2440.9693300698741041
 20
141.1692889208138126
 30
0.0
 11
2440.9693300698741041
 21
141.1614452627138121
 31
0.0
  0
LINE
  5
A19B
  8
0
 10
2440.9496450304750397
 20
141.1614452627138121
 30
0.0
 11
2440.9496450304750397
 21
141.1692889208138126
 31
0.0
  0
LINE
  5
A19C
  8
0
 10
2440.9693300698741041
 20
141.1820975609138031
 30
0.0
 11
2440.9791725895738637
 21
141.1781757319137967
 31
0.0
  0
LINE
  5
A19D
  8
0
 10
2440.9791725895738637
 20
141.1781757319137967
 30
0.0
 11
2440.9693300698741041
 21
141.1742539028138026
 31
0.0
  0
LINE
  5
A19E
  8
0
 10
2440.9693300698741041
 20
141.1742539028138026
 30
0.0
 11
2440.9496450304750397
 21
141.1742539028138026
 31
0.0
  0
LINE
  5
A19F
  8
0
 10
2440.9496450304750397
 20
141.1742539028138026
 30
0.0
 11
2440.9398025107739159
 21
141.1781757319137967
 31
0.0
  0
LINE
  5
A1A0
  8
0
 10
2440.9398025107739159
 20
141.1781757319137967
 30
0.0
 11
2440.9496450304750397
 21
141.1820975609138031
 31
0.0
  0
LINE
  5
A1A1
  8
0
 10
2440.9496450304750397
 20
141.1820975609138031
 30
0.0
 11
2440.9693300698741041
 21
141.1820975609138031
 31
0.0
  0
LINE
  5
A1A2
  8
0
 10
2440.9693300698741041
 20
141.1820975609138031
 30
0.0
 11
2440.9693300698741041
 21
141.1742539028138026
 31
0.0
  0
LINE
  5
A1A3
  8
0
 10
2440.9496450304750397
 20
141.1742539028138026
 30
0.0
 11
2440.9496450304750397
 21
141.1820975609138031
 31
0.0
  0
LINE
  5
A1A4
  8
0
 10
2440.9971689194740065
 20
141.1500759606138047
 30
0.0
 11
2441.0070114391742209
 21
141.1461541316137982
 31
0.0
  0
LINE
  5
A1A5
  8
0
 10
2441.0070114391742209
 20
141.1461541316137982
 30
0.0
 11
2440.9971689194740065
 21
141.1422323025138041
 31
0.0
  0
LINE
  5
A1A6
  8
0
 10
2440.9971689194740065
 20
141.1422323025138041
 30
0.0
 11
2440.9774838800740326
 21
141.1422323025138041
 31
0.0
  0
LINE
  5
A1A7
  8
0
 10
2440.9774838800740326
 20
141.1422323025138041
 30
0.0
 11
2440.9676413603738183
 21
141.1461541316137982
 31
0.0
  0
LINE
  5
A1A8
  8
0
 10
2440.9676413603738183
 20
141.1461541316137982
 30
0.0
 11
2440.9774838800740326
 21
141.1500759606138047
 31
0.0
  0
LINE
  5
A1A9
  8
0
 10
2440.9774838800740326
 20
141.1500759606138047
 30
0.0
 11
2440.9971689194740065
 21
141.1500759606138047
 31
0.0
  0
LINE
  5
A1AA
  8
0
 10
2440.9971689194740065
 20
141.1500759606138047
 30
0.0
 11
2440.9971689194740065
 21
141.1422323025138041
 31
0.0
  0
LINE
  5
A1AB
  8
0
 10
2440.9774838800740326
 20
141.1422323025138041
 30
0.0
 11
2440.9774838800740326
 21
141.1500759606138047
 31
0.0
  0
LINE
  5
A1AC
  8
0
 10
2440.9971689194740065
 20
141.1885018809138046
 30
0.0
 11
2441.0070114391742209
 21
141.1845800519137981
 31
0.0
  0
LINE
  5
A1AD
  8
0
 10
2441.0070114391742209
 20
141.1845800519137981
 30
0.0
 11
2440.9971689194740065
 21
141.1806582228138041
 31
0.0
  0
LINE
  5
A1AE
  8
0
 10
2440.9971689194740065
 20
141.1806582228138041
 30
0.0
 11
2440.9774838800740326
 21
141.1806582228138041
 31
0.0
  0
LINE
  5
A1AF
  8
0
 10
2440.9774838800740326
 20
141.1806582228138041
 30
0.0
 11
2440.9676413603738183
 21
141.1845800519137981
 31
0.0
  0
LINE
  5
A1B0
  8
0
 10
2440.9676413603738183
 20
141.1845800519137981
 30
0.0
 11
2440.9774838800740326
 21
141.1885018809138046
 31
0.0
  0
LINE
  5
A1B1
  8
0
 10
2440.9774838800740326
 20
141.1885018809138046
 30
0.0
 11
2440.9971689194740065
 21
141.1885018809138046
 31
0.0
  0
LINE
  5
A1B2
  8
0
 10
2440.9971689194740065
 20
141.1885018809138046
 30
0.0
 11
2440.9971689194740065
 21
141.1806582228138041
 31
0.0
  0
LINE
  5
A1B3
  8
0
 10
2440.9774838800740326
 20
141.1806582228138041
 30
0.0
 11
2440.9774838800740326
 21
141.1885018809138046
 31
0.0
  0
LINE
  5
A1B4
  8
0
 10
2441.0250077691739534
 20
141.1820975609138031
 30
0.0
 11
2441.0348502888741677
 21
141.1781757319137967
 31
0.0
  0
LINE
  5
A1B5
  8
0
 10
2441.0348502888741677
 20
141.1781757319137967
 30
0.0
 11
2441.0250077691739534
 21
141.1742539028138026
 31
0.0
  0
LINE
  5
A1B6
  8
0
 10
2441.0250077691739534
 20
141.1742539028138026
 30
0.0
 11
2441.0053227297739795
 21
141.1742539028138026
 31
0.0
  0
LINE
  5
A1B7
  8
0
 10
2441.0053227297739795
 20
141.1742539028138026
 30
0.0
 11
2440.9954802100742199
 21
141.1781757319137967
 31
0.0
  0
LINE
  5
A1B8
  8
0
 10
2440.9954802100742199
 20
141.1781757319137967
 30
0.0
 11
2441.0053227297739795
 21
141.1820975609138031
 31
0.0
  0
LINE
  5
A1B9
  8
0
 10
2441.0053227297739795
 20
141.1820975609138031
 30
0.0
 11
2441.0250077691739534
 21
141.1820975609138031
 31
0.0
  0
LINE
  5
A1BA
  8
0
 10
2441.0250077691739534
 20
141.1820975609138031
 30
0.0
 11
2441.0250077691739534
 21
141.1742539028138026
 31
0.0
  0
LINE
  5
A1BB
  8
0
 10
2441.0053227297739795
 20
141.1742539028138026
 30
0.0
 11
2441.0053227297739795
 21
141.1820975609138031
 31
0.0
  0
LINE
  5
A1BC
  8
0
 10
2441.0250077691739534
 20
141.1692889208138126
 30
0.0
 11
2441.0348502888741677
 21
141.1653670918138062
 31
0.0
  0
LINE
  5
A1BD
  8
0
 10
2441.0348502888741677
 20
141.1653670918138062
 30
0.0
 11
2441.0250077691739534
 21
141.1614452627138121
 31
0.0
  0
LINE
  5
A1BE
  8
0
 10
2441.0250077691739534
 20
141.1614452627138121
 30
0.0
 11
2441.0053227297739795
 21
141.1614452627138121
 31
0.0
  0
LINE
  5
A1BF
  8
0
 10
2441.0053227297739795
 20
141.1614452627138121
 30
0.0
 11
2440.9954802100742199
 21
141.1653670918138062
 31
0.0
  0
LINE
  5
A1C0
  8
0
 10
2440.9954802100742199
 20
141.1653670918138062
 30
0.0
 11
2441.0053227297739795
 21
141.1692889208138126
 31
0.0
  0
LINE
  5
A1C1
  8
0
 10
2441.0053227297739795
 20
141.1692889208138126
 30
0.0
 11
2441.0250077691739534
 21
141.1692889208138126
 31
0.0
  0
LINE
  5
A1C2
  8
0
 10
2441.0250077691739534
 20
141.1692889208138126
 30
0.0
 11
2441.0250077691739534
 21
141.1614452627138121
 31
0.0
  0
LINE
  5
A1C3
  8
0
 10
2441.0053227297739795
 20
141.1614452627138121
 30
0.0
 11
2441.0053227297739795
 21
141.1692889208138126
 31
0.0
  0
LINE
  5
A1C4
  8
0
 10
2441.0528466187738559
 20
141.1756932408138141
 30
0.0
 11
2441.0626891384740702
 21
141.1717714118138076
 31
0.0
  0
LINE
  5
A1C5
  8
0
 10
2441.0626891384740702
 20
141.1717714118138076
 30
0.0
 11
2441.0528466187738559
 21
141.1678495827138136
 31
0.0
  0
LINE
  5
A1C6
  8
0
 10
2441.0528466187738559
 20
141.1678495827138136
 30
0.0
 11
2441.033161579373882
 21
141.1678495827138136
 31
0.0
  0
LINE
  5
A1C7
  8
0
 10
2441.033161579373882
 20
141.1678495827138136
 30
0.0
 11
2441.0233190596741224
 21
141.1717714118138076
 31
0.0
  0
LINE
  5
A1C8
  8
0
 10
2441.0233190596741224
 20
141.1717714118138076
 30
0.0
 11
2441.033161579373882
 21
141.1756932408138141
 31
0.0
  0
LINE
  5
A1C9
  8
0
 10
2441.033161579373882
 20
141.1756932408138141
 30
0.0
 11
2441.0528466187738559
 21
141.1756932408138141
 31
0.0
  0
LINE
  5
A1CA
  8
0
 10
2441.0528466187738559
 20
141.1756932408138141
 30
0.0
 11
2441.0528466187738559
 21
141.1678495827138136
 31
0.0
  0
LINE
  5
A1CB
  8
0
 10
2441.033161579373882
 20
141.1678495827138136
 30
0.0
 11
2441.033161579373882
 21
141.1756932408138141
 31
0.0
  0
LINE
  5
A1CC
  8
0
 10
2441.0528466187738559
 20
141.1372673206138018
 30
0.0
 11
2441.0626891384740702
 21
141.1333454916137953
 31
0.0
  0
LINE
  5
A1CD
  8
0
 10
2441.0626891384740702
 20
141.1333454916137953
 30
0.0
 11
2441.0528466187738559
 21
141.1294236625138012
 31
0.0
  0
LINE
  5
A1CE
  8
0
 10
2441.0528466187738559
 20
141.1294236625138012
 30
0.0
 11
2441.033161579373882
 21
141.1294236625138012
 31
0.0
  0
LINE
  5
A1CF
  8
0
 10
2441.033161579373882
 20
141.1294236625138012
 30
0.0
 11
2441.0233190596741224
 21
141.1333454916137953
 31
0.0
  0
LINE
  5
A1D0
  8
0
 10
2441.0233190596741224
 20
141.1333454916137953
 30
0.0
 11
2441.033161579373882
 21
141.1372673206138018
 31
0.0
  0
LINE
  5
A1D1
  8
0
 10
2441.033161579373882
 20
141.1372673206138018
 30
0.0
 11
2441.0528466187738559
 21
141.1372673206138018
 31
0.0
  0
LINE
  5
A1D2
  8
0
 10
2441.0528466187738559
 20
141.1372673206138018
 30
0.0
 11
2441.0528466187738559
 21
141.1294236625138012
 31
0.0
  0
LINE
  5
A1D3
  8
0
 10
2441.033161579373882
 20
141.1294236625138012
 30
0.0
 11
2441.033161579373882
 21
141.1372673206138018
 31
0.0
  0
LINE
  5
A1D4
  8
0
 10
2441.0528466187738559
 20
141.1500759606138047
 30
0.0
 11
2441.0626891384740702
 21
141.1461541316137982
 31
0.0
  0
LINE
  5
A1D5
  8
0
 10
2441.0626891384740702
 20
141.1461541316137982
 30
0.0
 11
2441.0528466187738559
 21
141.1422323025138041
 31
0.0
  0
LINE
  5
A1D6
  8
0
 10
2441.0528466187738559
 20
141.1422323025138041
 30
0.0
 11
2441.033161579373882
 21
141.1422323025138041
 31
0.0
  0
LINE
  5
A1D7
  8
0
 10
2441.033161579373882
 20
141.1422323025138041
 30
0.0
 11
2441.0233190596741224
 21
141.1461541316137982
 31
0.0
  0
LINE
  5
A1D8
  8
0
 10
2441.0233190596741224
 20
141.1461541316137982
 30
0.0
 11
2441.033161579373882
 21
141.1500759606138047
 31
0.0
  0
LINE
  5
A1D9
  8
0
 10
2441.033161579373882
 20
141.1500759606138047
 30
0.0
 11
2441.0528466187738559
 21
141.1500759606138047
 31
0.0
  0
LINE
  5
A1DA
  8
0
 10
2441.0528466187738559
 20
141.1500759606138047
 30
0.0
 11
2441.0528466187738559
 21
141.1422323025138041
 31
0.0
  0
LINE
  5
A1DB
  8
0
 10
2441.033161579373882
 20
141.1422323025138041
 30
0.0
 11
2441.033161579373882
 21
141.1500759606138047
 31
0.0
  0
LINE
  5
A1DC
  8
0
 10
2441.0528466187738559
 20
141.1628846007137952
 30
0.0
 11
2441.0626891384740702
 21
141.1589627717137887
 31
0.0
  0
LINE
  5
A1DD
  8
0
 10
2441.0626891384740702
 20
141.1589627717137887
 30
0.0
 11
2441.0528466187738559
 21
141.1550409426137946
 31
0.0
  0
LINE
  5
A1DE
  8
0
 10
2441.0528466187738559
 20
141.1550409426137946
 30
0.0
 11
2441.033161579373882
 21
141.1550409426137946
 31
0.0
  0
LINE
  5
A1DF
  8
0
 10
2441.033161579373882
 20
141.1550409426137946
 30
0.0
 11
2441.0233190596741224
 21
141.1589627717137887
 31
0.0
  0
LINE
  5
A1E0
  8
0
 10
2441.0233190596741224
 20
141.1589627717137887
 30
0.0
 11
2441.033161579373882
 21
141.1628846007137952
 31
0.0
  0
LINE
  5
A1E1
  8
0
 10
2441.033161579373882
 20
141.1628846007137952
 30
0.0
 11
2441.0528466187738559
 21
141.1628846007137952
 31
0.0
  0
LINE
  5
A1E2
  8
0
 10
2441.0528466187738559
 20
141.1628846007137952
 30
0.0
 11
2441.0528466187738559
 21
141.1550409426137946
 31
0.0
  0
LINE
  5
A1E3
  8
0
 10
2441.033161579373882
 20
141.1550409426137946
 30
0.0
 11
2441.033161579373882
 21
141.1628846007137952
 31
0.0
  0
LINE
  5
A1E4
  8
0
 10
2441.0250077691739534
 20
141.1436716406138032
 30
0.0
 11
2441.0348502888741677
 21
141.1397498116137967
 31
0.0
  0
LINE
  5
A1E5
  8
0
 10
2441.0348502888741677
 20
141.1397498116137967
 30
0.0
 11
2441.0250077691739534
 21
141.1358279825138027
 31
0.0
  0
LINE
  5
A1E6
  8
0
 10
2441.0250077691739534
 20
141.1358279825138027
 30
0.0
 11
2441.0053227297739795
 21
141.1358279825138027
 31
0.0
  0
LINE
  5
A1E7
  8
0
 10
2441.0053227297739795
 20
141.1358279825138027
 30
0.0
 11
2440.9954802100742199
 21
141.1397498116137967
 31
0.0
  0
LINE
  5
A1E8
  8
0
 10
2440.9954802100742199
 20
141.1397498116137967
 30
0.0
 11
2441.0053227297739795
 21
141.1436716406138032
 31
0.0
  0
LINE
  5
A1E9
  8
0
 10
2441.0053227297739795
 20
141.1436716406138032
 30
0.0
 11
2441.0250077691739534
 21
141.1436716406138032
 31
0.0
  0
LINE
  5
A1EA
  8
0
 10
2441.0250077691739534
 20
141.1436716406138032
 30
0.0
 11
2441.0250077691739534
 21
141.1358279825138027
 31
0.0
  0
LINE
  5
A1EB
  8
0
 10
2441.0053227297739795
 20
141.1358279825138027
 30
0.0
 11
2441.0053227297739795
 21
141.1436716406138032
 31
0.0
  0
LINE
  5
A1EC
  8
0
 10
2441.0250077691739534
 20
141.1564802807137937
 30
0.0
 11
2441.0348502888741677
 21
141.1525584517137872
 31
0.0
  0
LINE
  5
A1ED
  8
0
 10
2441.0348502888741677
 20
141.1525584517137872
 30
0.0
 11
2441.0250077691739534
 21
141.1486366226137932
 31
0.0
  0
LINE
  5
A1EE
  8
0
 10
2441.0250077691739534
 20
141.1486366226137932
 30
0.0
 11
2441.0053227297739795
 21
141.1486366226137932
 31
0.0
  0
LINE
  5
A1EF
  8
0
 10
2441.0053227297739795
 20
141.1486366226137932
 30
0.0
 11
2440.9954802100742199
 21
141.1525584517137872
 31
0.0
  0
LINE
  5
A1F0
  8
0
 10
2440.9954802100742199
 20
141.1525584517137872
 30
0.0
 11
2441.0053227297739795
 21
141.1564802807137937
 31
0.0
  0
LINE
  5
A1F1
  8
0
 10
2441.0053227297739795
 20
141.1564802807137937
 30
0.0
 11
2441.0250077691739534
 21
141.1564802807137937
 31
0.0
  0
LINE
  5
A1F2
  8
0
 10
2441.0250077691739534
 20
141.1564802807137937
 30
0.0
 11
2441.0250077691739534
 21
141.1486366226137932
 31
0.0
  0
LINE
  5
A1F3
  8
0
 10
2441.0053227297739795
 20
141.1486366226137932
 30
0.0
 11
2441.0053227297739795
 21
141.1564802807137937
 31
0.0
  0
LINE
  5
A1F4
  8
0
 10
2441.0250077691739534
 20
141.1180543604137938
 30
0.0
 11
2441.0348502888741677
 21
141.1141325314137873
 31
0.0
  0
LINE
  5
A1F5
  8
0
 10
2441.0348502888741677
 20
141.1141325314137873
 30
0.0
 11
2441.0250077691739534
 21
141.1102107023137933
 31
0.0
  0
LINE
  5
A1F6
  8
0
 10
2441.0250077691739534
 20
141.1102107023137933
 30
0.0
 11
2441.0053227297739795
 21
141.1102107023137933
 31
0.0
  0
LINE
  5
A1F7
  8
0
 10
2441.0053227297739795
 20
141.1102107023137933
 30
0.0
 11
2440.9954802100742199
 21
141.1141325314137873
 31
0.0
  0
LINE
  5
A1F8
  8
0
 10
2440.9954802100742199
 20
141.1141325314137873
 30
0.0
 11
2441.0053227297739795
 21
141.1180543604137938
 31
0.0
  0
LINE
  5
A1F9
  8
0
 10
2441.0053227297739795
 20
141.1180543604137938
 30
0.0
 11
2441.0250077691739534
 21
141.1180543604137938
 31
0.0
  0
LINE
  5
A1FA
  8
0
 10
2441.0250077691739534
 20
141.1180543604137938
 30
0.0
 11
2441.0250077691739534
 21
141.1102107023137933
 31
0.0
  0
LINE
  5
A1FB
  8
0
 10
2441.0053227297739795
 20
141.1102107023137933
 30
0.0
 11
2441.0053227297739795
 21
141.1180543604137938
 31
0.0
  0
LINE
  5
A1FC
  8
0
 10
2441.0250077691739534
 20
141.1308630005138127
 30
0.0
 11
2441.0348502888741677
 21
141.1269411715138062
 31
0.0
  0
LINE
  5
A1FD
  8
0
 10
2441.0348502888741677
 20
141.1269411715138062
 30
0.0
 11
2441.0250077691739534
 21
141.1230193424138122
 31
0.0
  0
LINE
  5
A1FE
  8
0
 10
2441.0250077691739534
 20
141.1230193424138122
 30
0.0
 11
2441.0053227297739795
 21
141.1230193424138122
 31
0.0
  0
LINE
  5
A1FF
  8
0
 10
2441.0053227297739795
 20
141.1230193424138122
 30
0.0
 11
2440.9954802100742199
 21
141.1269411715138062
 31
0.0
  0
LINE
  5
A200
  8
0
 10
2440.9954802100742199
 20
141.1269411715138062
 30
0.0
 11
2441.0053227297739795
 21
141.1308630005138127
 31
0.0
  0
LINE
  5
A201
  8
0
 10
2441.0053227297739795
 20
141.1308630005138127
 30
0.0
 11
2441.0250077691739534
 21
141.1308630005138127
 31
0.0
  0
LINE
  5
A202
  8
0
 10
2441.0250077691739534
 20
141.1308630005138127
 30
0.0
 11
2441.0250077691739534
 21
141.1230193424138122
 31
0.0
  0
LINE
  5
A203
  8
0
 10
2441.0053227297739795
 20
141.1230193424138122
 30
0.0
 11
2441.0053227297739795
 21
141.1308630005138127
 31
0.0
  0
LINE
  5
A204
  8
0
 10
2440.9971689194740065
 20
141.1244586805138113
 30
0.0
 11
2441.0070114391742209
 21
141.1205368515138048
 31
0.0
  0
LINE
  5
A205
  8
0
 10
2441.0070114391742209
 20
141.1205368515138048
 30
0.0
 11
2440.9971689194740065
 21
141.1166150224138107
 31
0.0
  0
LINE
  5
A206
  8
0
 10
2440.9971689194740065
 20
141.1166150224138107
 30
0.0
 11
2440.9774838800740326
 21
141.1166150224138107
 31
0.0
  0
LINE
  5
A207
  8
0
 10
2440.9774838800740326
 20
141.1166150224138107
 30
0.0
 11
2440.9676413603738183
 21
141.1205368515138048
 31
0.0
  0
LINE
  5
A208
  8
0
 10
2440.9676413603738183
 20
141.1205368515138048
 30
0.0
 11
2440.9774838800740326
 21
141.1244586805138113
 31
0.0
  0
LINE
  5
A209
  8
0
 10
2440.9774838800740326
 20
141.1244586805138113
 30
0.0
 11
2440.9971689194740065
 21
141.1244586805138113
 31
0.0
  0
LINE
  5
A20A
  8
0
 10
2440.9971689194740065
 20
141.1244586805138113
 30
0.0
 11
2440.9971689194740065
 21
141.1166150224138107
 31
0.0
  0
LINE
  5
A20B
  8
0
 10
2440.9774838800740326
 20
141.1166150224138107
 30
0.0
 11
2440.9774838800740326
 21
141.1244586805138113
 31
0.0
  0
LINE
  5
A20C
  8
0
 10
2440.9971689194740065
 20
141.1372673206138018
 30
0.0
 11
2441.0070114391742209
 21
141.1333454916137953
 31
0.0
  0
LINE
  5
A20D
  8
0
 10
2441.0070114391742209
 20
141.1333454916137953
 30
0.0
 11
2440.9971689194740065
 21
141.1294236625138012
 31
0.0
  0
LINE
  5
A20E
  8
0
 10
2440.9971689194740065
 20
141.1294236625138012
 30
0.0
 11
2440.9774838800740326
 21
141.1294236625138012
 31
0.0
  0
LINE
  5
A20F
  8
0
 10
2440.9774838800740326
 20
141.1294236625138012
 30
0.0
 11
2440.9676413603738183
 21
141.1333454916137953
 31
0.0
  0
LINE
  5
A210
  8
0
 10
2440.9676413603738183
 20
141.1333454916137953
 30
0.0
 11
2440.9774838800740326
 21
141.1372673206138018
 31
0.0
  0
LINE
  5
A211
  8
0
 10
2440.9774838800740326
 20
141.1372673206138018
 30
0.0
 11
2440.9971689194740065
 21
141.1372673206138018
 31
0.0
  0
LINE
  5
A212
  8
0
 10
2440.9971689194740065
 20
141.1372673206138018
 30
0.0
 11
2440.9971689194740065
 21
141.1294236625138012
 31
0.0
  0
LINE
  5
A213
  8
0
 10
2440.9774838800740326
 20
141.1294236625138012
 30
0.0
 11
2440.9774838800740326
 21
141.1372673206138018
 31
0.0
  0
LINE
  5
A214
  8
0
 10
2440.9971689194740065
 20
141.1116500404137923
 30
0.0
 11
2441.0070114391742209
 21
141.1077282114137859
 31
0.0
  0
LINE
  5
A215
  8
0
 10
2441.0070114391742209
 20
141.1077282114137859
 30
0.0
 11
2440.9971689194740065
 21
141.1038063823137918
 31
0.0
  0
LINE
  5
A216
  8
0
 10
2440.9971689194740065
 20
141.1038063823137918
 30
0.0
 11
2440.9774838800740326
 21
141.1038063823137918
 31
0.0
  0
LINE
  5
A217
  8
0
 10
2440.9774838800740326
 20
141.1038063823137918
 30
0.0
 11
2440.9676413603738183
 21
141.1077282114137859
 31
0.0
  0
LINE
  5
A218
  8
0
 10
2440.9676413603738183
 20
141.1077282114137859
 30
0.0
 11
2440.9774838800740326
 21
141.1116500404137923
 31
0.0
  0
LINE
  5
A219
  8
0
 10
2440.9774838800740326
 20
141.1116500404137923
 30
0.0
 11
2440.9971689194740065
 21
141.1116500404137923
 31
0.0
  0
LINE
  5
A21A
  8
0
 10
2440.9971689194740065
 20
141.1116500404137923
 30
0.0
 11
2440.9971689194740065
 21
141.1038063823137918
 31
0.0
  0
LINE
  5
A21B
  8
0
 10
2440.9774838800740326
 20
141.1038063823137918
 30
0.0
 11
2440.9774838800740326
 21
141.1116500404137923
 31
0.0
  0
LINE
  5
A21C
  8
0
 10
2440.9971689194740065
 20
141.0988414003138018
 30
0.0
 11
2441.0070114391742209
 21
141.0949195713137954
 31
0.0
  0
LINE
  5
A21D
  8
0
 10
2441.0070114391742209
 20
141.0949195713137954
 30
0.0
 11
2440.9971689194740065
 21
141.0909977422138013
 31
0.0
  0
LINE
  5
A21E
  8
0
 10
2440.9971689194740065
 20
141.0909977422138013
 30
0.0
 11
2440.9774838800740326
 21
141.0909977422138013
 31
0.0
  0
LINE
  5
A21F
  8
0
 10
2440.9774838800740326
 20
141.0909977422138013
 30
0.0
 11
2440.9676413603738183
 21
141.0949195713137954
 31
0.0
  0
LINE
  5
A220
  8
0
 10
2440.9676413603738183
 20
141.0949195713137954
 30
0.0
 11
2440.9774838800740326
 21
141.0988414003138018
 31
0.0
  0
LINE
  5
A221
  8
0
 10
2440.9774838800740326
 20
141.0988414003138018
 30
0.0
 11
2440.9971689194740065
 21
141.0988414003138018
 31
0.0
  0
LINE
  5
A222
  8
0
 10
2440.9971689194740065
 20
141.0988414003138018
 30
0.0
 11
2440.9971689194740065
 21
141.0909977422138013
 31
0.0
  0
LINE
  5
A223
  8
0
 10
2440.9774838800740326
 20
141.0909977422138013
 30
0.0
 11
2440.9774838800740326
 21
141.0988414003138018
 31
0.0
  0
LINE
  5
A224
  8
0
 10
2441.0250077691739534
 20
141.1052457203138033
 30
0.0
 11
2441.0348502888741677
 21
141.1013238913137968
 31
0.0
  0
LINE
  5
A225
  8
0
 10
2441.0348502888741677
 20
141.1013238913137968
 30
0.0
 11
2441.0250077691739534
 21
141.0974020622138028
 31
0.0
  0
LINE
  5
A226
  8
0
 10
2441.0250077691739534
 20
141.0974020622138028
 30
0.0
 11
2441.0053227297739795
 21
141.0974020622138028
 31
0.0
  0
LINE
  5
A227
  8
0
 10
2441.0053227297739795
 20
141.0974020622138028
 30
0.0
 11
2440.9954802100742199
 21
141.1013238913137968
 31
0.0
  0
LINE
  5
A228
  8
0
 10
2440.9954802100742199
 20
141.1013238913137968
 30
0.0
 11
2441.0053227297739795
 21
141.1052457203138033
 31
0.0
  0
LINE
  5
A229
  8
0
 10
2441.0053227297739795
 20
141.1052457203138033
 30
0.0
 11
2441.0250077691739534
 21
141.1052457203138033
 31
0.0
  0
LINE
  5
A22A
  8
0
 10
2441.0250077691739534
 20
141.1052457203138033
 30
0.0
 11
2441.0250077691739534
 21
141.0974020622138028
 31
0.0
  0
LINE
  5
A22B
  8
0
 10
2441.0053227297739795
 20
141.0974020622138028
 30
0.0
 11
2441.0053227297739795
 21
141.1052457203138033
 31
0.0
  0
LINE
  5
A22C
  8
0
 10
2441.0528466187738559
 20
141.1244586805138113
 30
0.0
 11
2441.0626891384740702
 21
141.1205368515138048
 31
0.0
  0
LINE
  5
A22D
  8
0
 10
2441.0626891384740702
 20
141.1205368515138048
 30
0.0
 11
2441.0528466187738559
 21
141.1166150224138107
 31
0.0
  0
LINE
  5
A22E
  8
0
 10
2441.0528466187738559
 20
141.1166150224138107
 30
0.0
 11
2441.033161579373882
 21
141.1166150224138107
 31
0.0
  0
LINE
  5
A22F
  8
0
 10
2441.033161579373882
 20
141.1166150224138107
 30
0.0
 11
2441.0233190596741224
 21
141.1205368515138048
 31
0.0
  0
LINE
  5
A230
  8
0
 10
2441.0233190596741224
 20
141.1205368515138048
 30
0.0
 11
2441.033161579373882
 21
141.1244586805138113
 31
0.0
  0
LINE
  5
A231
  8
0
 10
2441.033161579373882
 20
141.1244586805138113
 30
0.0
 11
2441.0528466187738559
 21
141.1244586805138113
 31
0.0
  0
LINE
  5
A232
  8
0
 10
2441.0528466187738559
 20
141.1244586805138113
 30
0.0
 11
2441.0528466187738559
 21
141.1166150224138107
 31
0.0
  0
LINE
  5
A233
  8
0
 10
2441.033161579373882
 20
141.1166150224138107
 30
0.0
 11
2441.033161579373882
 21
141.1244586805138113
 31
0.0
  0
LINE
  5
A234
  8
0
 10
2441.0528466187738559
 20
141.1116500404137923
 30
0.0
 11
2441.0626891384740702
 21
141.1077282114137859
 31
0.0
  0
LINE
  5
A235
  8
0
 10
2441.0626891384740702
 20
141.1077282114137859
 30
0.0
 11
2441.0528466187738559
 21
141.1038063823137918
 31
0.0
  0
LINE
  5
A236
  8
0
 10
2441.0528466187738559
 20
141.1038063823137918
 30
0.0
 11
2441.033161579373882
 21
141.1038063823137918
 31
0.0
  0
LINE
  5
A237
  8
0
 10
2441.033161579373882
 20
141.1038063823137918
 30
0.0
 11
2441.0233190596741224
 21
141.1077282114137859
 31
0.0
  0
LINE
  5
A238
  8
0
 10
2441.0233190596741224
 20
141.1077282114137859
 30
0.0
 11
2441.033161579373882
 21
141.1116500404137923
 31
0.0
  0
LINE
  5
A239
  8
0
 10
2441.033161579373882
 20
141.1116500404137923
 30
0.0
 11
2441.0528466187738559
 21
141.1116500404137923
 31
0.0
  0
LINE
  5
A23A
  8
0
 10
2441.0528466187738559
 20
141.1116500404137923
 30
0.0
 11
2441.0528466187738559
 21
141.1038063823137918
 31
0.0
  0
LINE
  5
A23B
  8
0
 10
2441.033161579373882
 20
141.1038063823137918
 30
0.0
 11
2441.033161579373882
 21
141.1116500404137923
 31
0.0
  0
LINE
  5
A23C
  8
0
 10
2441.0528466187738559
 20
141.0988414003138018
 30
0.0
 11
2441.0626891384740702
 21
141.0949195713137954
 31
0.0
  0
LINE
  5
A23D
  8
0
 10
2441.0626891384740702
 20
141.0949195713137954
 30
0.0
 11
2441.0528466187738559
 21
141.0909977422138013
 31
0.0
  0
LINE
  5
A23E
  8
0
 10
2441.0528466187738559
 20
141.0909977422138013
 30
0.0
 11
2441.033161579373882
 21
141.0909977422138013
 31
0.0
  0
LINE
  5
A23F
  8
0
 10
2441.033161579373882
 20
141.0909977422138013
 30
0.0
 11
2441.0233190596741224
 21
141.0949195713137954
 31
0.0
  0
LINE
  5
A240
  8
0
 10
2441.0233190596741224
 20
141.0949195713137954
 30
0.0
 11
2441.033161579373882
 21
141.0988414003138018
 31
0.0
  0
LINE
  5
A241
  8
0
 10
2441.033161579373882
 20
141.0988414003138018
 30
0.0
 11
2441.0528466187738559
 21
141.0988414003138018
 31
0.0
  0
LINE
  5
A242
  8
0
 10
2441.0528466187738559
 20
141.0988414003138018
 30
0.0
 11
2441.0528466187738559
 21
141.0909977422138013
 31
0.0
  0
LINE
  5
A243
  8
0
 10
2441.033161579373882
 20
141.0909977422138013
 30
0.0
 11
2441.033161579373882
 21
141.0988414003138018
 31
0.0
  0
LINE
  5
A244
  8
0
 10
2441.0806854684738028
 20
141.1052457203138033
 30
0.0
 11
2441.0905279881740171
 21
141.1013238913137968
 31
0.0
  0
LINE
  5
A245
  8
0
 10
2441.0905279881740171
 20
141.1013238913137968
 30
0.0
 11
2441.0806854684738028
 21
141.0974020622138028
 31
0.0
  0
LINE
  5
A246
  8
0
 10
2441.0806854684738028
 20
141.0974020622138028
 30
0.0
 11
2441.0610004290738289
 21
141.0974020622138028
 31
0.0
  0
LINE
  5
A247
  8
0
 10
2441.0610004290738289
 20
141.0974020622138028
 30
0.0
 11
2441.0511579093740693
 21
141.1013238913137968
 31
0.0
  0
LINE
  5
A248
  8
0
 10
2441.0511579093740693
 20
141.1013238913137968
 30
0.0
 11
2441.0610004290738289
 21
141.1052457203138033
 31
0.0
  0
LINE
  5
A249
  8
0
 10
2441.0610004290738289
 20
141.1052457203138033
 30
0.0
 11
2441.0806854684738028
 21
141.1052457203138033
 31
0.0
  0
LINE
  5
A24A
  8
0
 10
2441.0806854684738028
 20
141.1052457203138033
 30
0.0
 11
2441.0806854684738028
 21
141.0974020622138028
 31
0.0
  0
LINE
  5
A24B
  8
0
 10
2441.0610004290738289
 20
141.0974020622138028
 30
0.0
 11
2441.0610004290738289
 21
141.1052457203138033
 31
0.0
  0
LINE
  5
A24C
  8
0
 10
2441.0806854684738028
 20
141.1180543604137938
 30
0.0
 11
2441.0905279881740171
 21
141.1141325314137873
 31
0.0
  0
LINE
  5
A24D
  8
0
 10
2441.0905279881740171
 20
141.1141325314137873
 30
0.0
 11
2441.0806854684738028
 21
141.1102107023137933
 31
0.0
  0
LINE
  5
A24E
  8
0
 10
2441.0806854684738028
 20
141.1102107023137933
 30
0.0
 11
2441.0610004290738289
 21
141.1102107023137933
 31
0.0
  0
LINE
  5
A24F
  8
0
 10
2441.0610004290738289
 20
141.1102107023137933
 30
0.0
 11
2441.0511579093740693
 21
141.1141325314137873
 31
0.0
  0
LINE
  5
A250
  8
0
 10
2441.0511579093740693
 20
141.1141325314137873
 30
0.0
 11
2441.0610004290738289
 21
141.1180543604137938
 31
0.0
  0
LINE
  5
A251
  8
0
 10
2441.0610004290738289
 20
141.1180543604137938
 30
0.0
 11
2441.0806854684738028
 21
141.1180543604137938
 31
0.0
  0
LINE
  5
A252
  8
0
 10
2441.0806854684738028
 20
141.1180543604137938
 30
0.0
 11
2441.0806854684738028
 21
141.1102107023137933
 31
0.0
  0
LINE
  5
A253
  8
0
 10
2441.0610004290738289
 20
141.1102107023137933
 30
0.0
 11
2441.0610004290738289
 21
141.1180543604137938
 31
0.0
  0
LINE
  5
A254
  8
0
 10
2441.0806854684738028
 20
141.1308630005138127
 30
0.0
 11
2441.0905279881740171
 21
141.1269411715138062
 31
0.0
  0
LINE
  5
A255
  8
0
 10
2441.0905279881740171
 20
141.1269411715138062
 30
0.0
 11
2441.0806854684738028
 21
141.1230193424138122
 31
0.0
  0
LINE
  5
A256
  8
0
 10
2441.0806854684738028
 20
141.1230193424138122
 30
0.0
 11
2441.0610004290738289
 21
141.1230193424138122
 31
0.0
  0
LINE
  5
A257
  8
0
 10
2441.0610004290738289
 20
141.1230193424138122
 30
0.0
 11
2441.0511579093740693
 21
141.1269411715138062
 31
0.0
  0
LINE
  5
A258
  8
0
 10
2441.0511579093740693
 20
141.1269411715138062
 30
0.0
 11
2441.0610004290738289
 21
141.1308630005138127
 31
0.0
  0
LINE
  5
A259
  8
0
 10
2441.0610004290738289
 20
141.1308630005138127
 30
0.0
 11
2441.0806854684738028
 21
141.1308630005138127
 31
0.0
  0
LINE
  5
A25A
  8
0
 10
2441.0806854684738028
 20
141.1308630005138127
 30
0.0
 11
2441.0806854684738028
 21
141.1230193424138122
 31
0.0
  0
LINE
  5
A25B
  8
0
 10
2441.0610004290738289
 20
141.1230193424138122
 30
0.0
 11
2441.0610004290738289
 21
141.1308630005138127
 31
0.0
  0
LINE
  5
A25C
  8
0
 10
2441.10852431807416
 20
141.1500759606138047
 30
0.0
 11
2441.1183668377739195
 21
141.1461541316137982
 31
0.0
  0
LINE
  5
A25D
  8
0
 10
2441.1183668377739195
 20
141.1461541316137982
 30
0.0
 11
2441.10852431807416
 21
141.1422323025138041
 31
0.0
  0
LINE
  5
A25E
  8
0
 10
2441.10852431807416
 20
141.1422323025138041
 30
0.0
 11
2441.0888392786741861
 21
141.1422323025138041
 31
0.0
  0
LINE
  5
A25F
  8
0
 10
2441.0888392786741861
 20
141.1422323025138041
 30
0.0
 11
2441.0789967589739717
 21
141.1461541316137982
 31
0.0
  0
LINE
  5
A260
  8
0
 10
2441.0789967589739717
 20
141.1461541316137982
 30
0.0
 11
2441.0888392786741861
 21
141.1500759606138047
 31
0.0
  0
LINE
  5
A261
  8
0
 10
2441.0888392786741861
 20
141.1500759606138047
 30
0.0
 11
2441.10852431807416
 21
141.1500759606138047
 31
0.0
  0
LINE
  5
A262
  8
0
 10
2441.10852431807416
 20
141.1500759606138047
 30
0.0
 11
2441.10852431807416
 21
141.1422323025138041
 31
0.0
  0
LINE
  5
A263
  8
0
 10
2441.0888392786741861
 20
141.1422323025138041
 30
0.0
 11
2441.0888392786741861
 21
141.1500759606138047
 31
0.0
  0
LINE
  5
A264
  8
0
 10
2441.10852431807416
 20
141.1372673206138018
 30
0.0
 11
2441.1183668377739195
 21
141.1333454916137953
 31
0.0
  0
LINE
  5
A265
  8
0
 10
2441.1183668377739195
 20
141.1333454916137953
 30
0.0
 11
2441.10852431807416
 21
141.1294236625138012
 31
0.0
  0
LINE
  5
A266
  8
0
 10
2441.10852431807416
 20
141.1294236625138012
 30
0.0
 11
2441.0888392786741861
 21
141.1294236625138012
 31
0.0
  0
LINE
  5
A267
  8
0
 10
2441.0888392786741861
 20
141.1294236625138012
 30
0.0
 11
2441.0789967589739717
 21
141.1333454916137953
 31
0.0
  0
LINE
  5
A268
  8
0
 10
2441.0789967589739717
 20
141.1333454916137953
 30
0.0
 11
2441.0888392786741861
 21
141.1372673206138018
 31
0.0
  0
LINE
  5
A269
  8
0
 10
2441.0888392786741861
 20
141.1372673206138018
 30
0.0
 11
2441.10852431807416
 21
141.1372673206138018
 31
0.0
  0
LINE
  5
A26A
  8
0
 10
2441.10852431807416
 20
141.1372673206138018
 30
0.0
 11
2441.10852431807416
 21
141.1294236625138012
 31
0.0
  0
LINE
  5
A26B
  8
0
 10
2441.0888392786741861
 20
141.1294236625138012
 30
0.0
 11
2441.0888392786741861
 21
141.1372673206138018
 31
0.0
  0
LINE
  5
A26C
  8
0
 10
2441.10852431807416
 20
141.1244586805138113
 30
0.0
 11
2441.1183668377739195
 21
141.1205368515138048
 31
0.0
  0
LINE
  5
A26D
  8
0
 10
2441.1183668377739195
 20
141.1205368515138048
 30
0.0
 11
2441.10852431807416
 21
141.1166150224138107
 31
0.0
  0
LINE
  5
A26E
  8
0
 10
2441.10852431807416
 20
141.1166150224138107
 30
0.0
 11
2441.0888392786741861
 21
141.1166150224138107
 31
0.0
  0
LINE
  5
A26F
  8
0
 10
2441.0888392786741861
 20
141.1166150224138107
 30
0.0
 11
2441.0789967589739717
 21
141.1205368515138048
 31
0.0
  0
LINE
  5
A270
  8
0
 10
2441.0789967589739717
 20
141.1205368515138048
 30
0.0
 11
2441.0888392786741861
 21
141.1244586805138113
 31
0.0
  0
LINE
  5
A271
  8
0
 10
2441.0888392786741861
 20
141.1244586805138113
 30
0.0
 11
2441.10852431807416
 21
141.1244586805138113
 31
0.0
  0
LINE
  5
A272
  8
0
 10
2441.10852431807416
 20
141.1244586805138113
 30
0.0
 11
2441.10852431807416
 21
141.1166150224138107
 31
0.0
  0
LINE
  5
A273
  8
0
 10
2441.0888392786741861
 20
141.1166150224138107
 30
0.0
 11
2441.0888392786741861
 21
141.1244586805138113
 31
0.0
  0
LINE
  5
A274
  8
0
 10
2441.10852431807416
 20
141.1116500404137923
 30
0.0
 11
2441.1183668377739195
 21
141.1077282114137859
 31
0.0
  0
LINE
  5
A275
  8
0
 10
2441.1183668377739195
 20
141.1077282114137859
 30
0.0
 11
2441.10852431807416
 21
141.1038063823137918
 31
0.0
  0
LINE
  5
A276
  8
0
 10
2441.10852431807416
 20
141.1038063823137918
 30
0.0
 11
2441.0888392786741861
 21
141.1038063823137918
 31
0.0
  0
LINE
  5
A277
  8
0
 10
2441.0888392786741861
 20
141.1038063823137918
 30
0.0
 11
2441.0789967589739717
 21
141.1077282114137859
 31
0.0
  0
LINE
  5
A278
  8
0
 10
2441.0789967589739717
 20
141.1077282114137859
 30
0.0
 11
2441.0888392786741861
 21
141.1116500404137923
 31
0.0
  0
LINE
  5
A279
  8
0
 10
2441.0888392786741861
 20
141.1116500404137923
 30
0.0
 11
2441.10852431807416
 21
141.1116500404137923
 31
0.0
  0
LINE
  5
A27A
  8
0
 10
2441.10852431807416
 20
141.1116500404137923
 30
0.0
 11
2441.10852431807416
 21
141.1038063823137918
 31
0.0
  0
LINE
  5
A27B
  8
0
 10
2441.0888392786741861
 20
141.1038063823137918
 30
0.0
 11
2441.0888392786741861
 21
141.1116500404137923
 31
0.0
  0
LINE
  5
A27C
  8
0
 10
2441.0806854684738028
 20
141.1436716406138032
 30
0.0
 11
2441.0905279881740171
 21
141.1397498116137967
 31
0.0
  0
LINE
  5
A27D
  8
0
 10
2441.0905279881740171
 20
141.1397498116137967
 30
0.0
 11
2441.0806854684738028
 21
141.1358279825138027
 31
0.0
  0
LINE
  5
A27E
  8
0
 10
2441.0806854684738028
 20
141.1358279825138027
 30
0.0
 11
2441.0610004290738289
 21
141.1358279825138027
 31
0.0
  0
LINE
  5
A27F
  8
0
 10
2441.0610004290738289
 20
141.1358279825138027
 30
0.0
 11
2441.0511579093740693
 21
141.1397498116137967
 31
0.0
  0
LINE
  5
A280
  8
0
 10
2441.0511579093740693
 20
141.1397498116137967
 30
0.0
 11
2441.0610004290738289
 21
141.1436716406138032
 31
0.0
  0
LINE
  5
A281
  8
0
 10
2441.0610004290738289
 20
141.1436716406138032
 30
0.0
 11
2441.0806854684738028
 21
141.1436716406138032
 31
0.0
  0
LINE
  5
A282
  8
0
 10
2441.0806854684738028
 20
141.1436716406138032
 30
0.0
 11
2441.0806854684738028
 21
141.1358279825138027
 31
0.0
  0
LINE
  5
A283
  8
0
 10
2441.0610004290738289
 20
141.1358279825138027
 30
0.0
 11
2441.0610004290738289
 21
141.1436716406138032
 31
0.0
  0
LINE
  5
A284
  8
0
 10
2441.0806854684738028
 20
141.1564802807137937
 30
0.0
 11
2441.0905279881740171
 21
141.1525584517137872
 31
0.0
  0
LINE
  5
A285
  8
0
 10
2441.0905279881740171
 20
141.1525584517137872
 30
0.0
 11
2441.0806854684738028
 21
141.1486366226137932
 31
0.0
  0
LINE
  5
A286
  8
0
 10
2441.0806854684738028
 20
141.1486366226137932
 30
0.0
 11
2441.0610004290738289
 21
141.1486366226137932
 31
0.0
  0
LINE
  5
A287
  8
0
 10
2441.0610004290738289
 20
141.1486366226137932
 30
0.0
 11
2441.0511579093740693
 21
141.1525584517137872
 31
0.0
  0
LINE
  5
A288
  8
0
 10
2441.0511579093740693
 20
141.1525584517137872
 30
0.0
 11
2441.0610004290738289
 21
141.1564802807137937
 31
0.0
  0
LINE
  5
A289
  8
0
 10
2441.0610004290738289
 20
141.1564802807137937
 30
0.0
 11
2441.0806854684738028
 21
141.1564802807137937
 31
0.0
  0
LINE
  5
A28A
  8
0
 10
2441.0806854684738028
 20
141.1564802807137937
 30
0.0
 11
2441.0806854684738028
 21
141.1486366226137932
 31
0.0
  0
LINE
  5
A28B
  8
0
 10
2441.0610004290738289
 20
141.1486366226137932
 30
0.0
 11
2441.0610004290738289
 21
141.1564802807137937
 31
0.0
  0
LINE
  5
A28C
  8
0
 10
2441.0806854684738028
 20
141.1692889208138126
 30
0.0
 11
2441.0905279881740171
 21
141.1653670918138062
 31
0.0
  0
LINE
  5
A28D
  8
0
 10
2441.0905279881740171
 20
141.1653670918138062
 30
0.0
 11
2441.0806854684738028
 21
141.1614452627138121
 31
0.0
  0
LINE
  5
A28E
  8
0
 10
2441.0806854684738028
 20
141.1614452627138121
 30
0.0
 11
2441.0610004290738289
 21
141.1614452627138121
 31
0.0
  0
LINE
  5
A28F
  8
0
 10
2441.0610004290738289
 20
141.1614452627138121
 30
0.0
 11
2441.0511579093740693
 21
141.1653670918138062
 31
0.0
  0
LINE
  5
A290
  8
0
 10
2441.0511579093740693
 20
141.1653670918138062
 30
0.0
 11
2441.0610004290738289
 21
141.1692889208138126
 31
0.0
  0
LINE
  5
A291
  8
0
 10
2441.0610004290738289
 20
141.1692889208138126
 30
0.0
 11
2441.0806854684738028
 21
141.1692889208138126
 31
0.0
  0
LINE
  5
A292
  8
0
 10
2441.0806854684738028
 20
141.1692889208138126
 30
0.0
 11
2441.0806854684738028
 21
141.1614452627138121
 31
0.0
  0
LINE
  5
A293
  8
0
 10
2441.0610004290738289
 20
141.1614452627138121
 30
0.0
 11
2441.0610004290738289
 21
141.1692889208138126
 31
0.0
  0
LINE
  5
A294
  8
0
 10
2441.10852431807416
 20
141.1628846007137952
 30
0.0
 11
2441.1183668377739195
 21
141.1589627717137887
 31
0.0
  0
LINE
  5
A295
  8
0
 10
2441.1183668377739195
 20
141.1589627717137887
 30
0.0
 11
2441.10852431807416
 21
141.1550409426137946
 31
0.0
  0
LINE
  5
A296
  8
0
 10
2441.10852431807416
 20
141.1550409426137946
 30
0.0
 11
2441.0888392786741861
 21
141.1550409426137946
 31
0.0
  0
LINE
  5
A297
  8
0
 10
2441.0888392786741861
 20
141.1550409426137946
 30
0.0
 11
2441.0789967589739717
 21
141.1589627717137887
 31
0.0
  0
LINE
  5
A298
  8
0
 10
2441.0789967589739717
 20
141.1589627717137887
 30
0.0
 11
2441.0888392786741861
 21
141.1628846007137952
 31
0.0
  0
LINE
  5
A299
  8
0
 10
2441.0888392786741861
 20
141.1628846007137952
 30
0.0
 11
2441.10852431807416
 21
141.1628846007137952
 31
0.0
  0
LINE
  5
A29A
  8
0
 10
2441.10852431807416
 20
141.1628846007137952
 30
0.0
 11
2441.10852431807416
 21
141.1550409426137946
 31
0.0
  0
LINE
  5
A29B
  8
0
 10
2441.0888392786741861
 20
141.1550409426137946
 30
0.0
 11
2441.0888392786741861
 21
141.1628846007137952
 31
0.0
  0
LINE
  5
A29C
  8
0
 10
2441.1363631677741068
 20
141.1486366226137932
 30
0.0
 11
2441.1166781283741329
 21
141.1486366226137932
 31
0.0
  0
LINE
  5
A29D
  8
0
 10
2441.1166781283741329
 20
141.1486366226137932
 30
0.0
 11
2441.1068356086739186
 21
141.1525584517137872
 31
0.0
  0
LINE
  5
A29E
  8
0
 10
2441.1068356086739186
 20
141.1525584517137872
 30
0.0
 11
2441.1166781283741329
 21
141.1564802807137937
 31
0.0
  0
LINE
  5
A29F
  8
0
 10
2441.1166781283741329
 20
141.1564802807137937
 30
0.0
 11
2441.1363631677741068
 21
141.1564802807137937
 31
0.0
  0
LINE
  5
A2A0
  8
0
 10
2441.1363631677741068
 20
141.1564802807137937
 30
0.0
 11
2441.1363631677741068
 21
141.1486366226137932
 31
0.0
  0
LINE
  5
A2A1
  8
0
 10
2441.1166781283741329
 20
141.1486366226137932
 30
0.0
 11
2441.1166781283741329
 21
141.1564802807137937
 31
0.0
  0
LINE
  5
A2A2
  8
0
 10
2441.1363631677741068
 20
141.1436716406138032
 30
0.0
 11
2441.1462056874738664
 21
141.1397498116137967
 31
0.0
  0
LINE
  5
A2A3
  8
0
 10
2441.1462056874738664
 20
141.1397498116137967
 30
0.0
 11
2441.1363631677741068
 21
141.1358279825138027
 31
0.0
  0
LINE
  5
A2A4
  8
0
 10
2441.1363631677741068
 20
141.1358279825138027
 30
0.0
 11
2441.1166781283741329
 21
141.1358279825138027
 31
0.0
  0
LINE
  5
A2A5
  8
0
 10
2441.1166781283741329
 20
141.1358279825138027
 30
0.0
 11
2441.1068356086739186
 21
141.1397498116137967
 31
0.0
  0
LINE
  5
A2A6
  8
0
 10
2441.1068356086739186
 20
141.1397498116137967
 30
0.0
 11
2441.1166781283741329
 21
141.1436716406138032
 31
0.0
  0
LINE
  5
A2A7
  8
0
 10
2441.1166781283741329
 20
141.1436716406138032
 30
0.0
 11
2441.1363631677741068
 21
141.1436716406138032
 31
0.0
  0
LINE
  5
A2A8
  8
0
 10
2441.1363631677741068
 20
141.1436716406138032
 30
0.0
 11
2441.1363631677741068
 21
141.1358279825138027
 31
0.0
  0
LINE
  5
A2A9
  8
0
 10
2441.1166781283741329
 20
141.1358279825138027
 30
0.0
 11
2441.1166781283741329
 21
141.1436716406138032
 31
0.0
  0
LINE
  5
A2AA
  8
0
 10
2441.1378328287742079
 20
141.1302774025137978
 30
0.0
 11
2441.1304063152961135
 21
141.1230193424138122
 31
0.0
  0
LINE
  5
A2AB
  8
0
 10
2441.1304063152738308
 20
141.1230193424138122
 30
0.0
 11
2441.1166781283741329
 21
141.1230193424138122
 31
0.0
  0
LINE
  5
A2AC
  8
0
 10
2441.1166781283741329
 20
141.1230193424138122
 30
0.0
 11
2441.1068356086739186
 21
141.1269411715138062
 31
0.0
  0
LINE
  5
A2AD
  8
0
 10
2441.1068356086739186
 20
141.1269411715138062
 30
0.0
 11
2441.1166781283741329
 21
141.1308630005138127
 31
0.0
  0
LINE
  5
A2AE
  8
0
 10
2441.1166781283741329
 20
141.1308630005138127
 30
0.0
 11
2441.1363631677741068
 21
141.1308630005138127
 31
0.0
  0
LINE
  5
A2AF
  8
0
 10
2441.1304063152961135
 20
141.1308630005138127
 30
0.0
 11
2441.1304063152961135
 21
141.1230193424138122
 31
0.0
  0
LINE
  5
A2B0
  8
0
 10
2441.1166781283741329
 20
141.1230193424138122
 30
0.0
 11
2441.1166781283741329
 21
141.1308630005138127
 31
0.0
  0
LINE
  5
A2B1
  8
0
 10
2441.0595618415250101
 20
141.183333955839089
 30
0.0
 11
2441.0528466190248764
 21
141.1806582228138041
 31
0.0
  0
LINE
  5
A2B2
  8
0
 10
2441.0528466190248764
 20
141.1806582228138041
 30
0.0
 11
2441.0331615796249025
 21
141.1806582228138041
 31
0.0
  0
LINE
  5
A2B3
  8
0
 10
2441.0331615796249025
 20
141.1806582228138041
 30
0.0
 11
2441.0233190599251429
 21
141.1845800519137981
 31
0.0
  0
LINE
  5
A2B4
  8
0
 10
2441.0233190599251429
 20
141.1845800519137981
 30
0.0
 11
2441.0313077730770601
 21
141.1877632171870971
 31
0.0
  0
LINE
  5
A2B5
  8
0
 10
2441.0528466190248764
 20
141.1845052798203994
 30
0.0
 11
2441.0528466190248764
 21
141.1806582228138041
 31
0.0
  0
LINE
  5
A2B6
  8
0
 10
2441.0331615796249025
 20
141.1806582228138041
 30
0.0
 11
2441.0331615796249025
 21
141.1875125432281095
 31
0.0
  0
LINE
  5
A2B7
  8
0
 10
2441.0278895944729811
 20
141.1882108286858966
 30
0.0
 11
2441.0250077691739534
 21
141.1870625428138055
 31
0.0
  0
LINE
  5
A2B8
  8
0
 10
2441.0250077691739534
 20
141.1870625428138055
 30
0.0
 11
2441.0053227297739795
 21
141.1870625428138055
 31
0.0
  0
LINE
  5
A2B9
  8
0
 10
2441.0053227297739795
 20
141.1870625428138055
 30
0.0
 11
2440.9954802100742199
 21
141.1909843719137996
 31
0.0
  0
LINE
  5
A2BA
  8
0
 10
2440.9954802100742199
 20
141.1909843719137996
 30
0.0
 11
2440.9973075382299612
 21
141.1917124851177903
 31
0.0
  0
LINE
  5
A2BB
  8
0
 10
2441.0250077691739534
 20
141.1885735214137867
 30
0.0
 11
2441.0250077691739534
 21
141.1870625428138055
 31
0.0
  0
LINE
  5
A2BC
  8
0
 10
2441.0053227297739795
 20
141.1870625428138055
 30
0.0
 11
2441.0053227297739795
 21
141.190885965902396
 31
0.0
  0
LINE
  5
A2BD
  8
0
 10
2440.9724793727659744
 20
141.1936513366306087
 30
0.0
 11
2440.9791725898248842
 21
141.1909843719137996
 31
0.0
  0
LINE
  5
A2BE
  8
0
 10
2440.9791725898248842
 20
141.1909843719137996
 30
0.0
 11
2440.9693300701251246
 21
141.1870625428138055
 31
0.0
  0
LINE
  5
A2BF
  8
0
 10
2440.9693300701251246
 20
141.1870625428138055
 30
0.0
 11
2440.9496450307251507
 21
141.1870625428138055
 31
0.0
  0
LINE
  5
A2C0
  8
0
 10
2440.9496450307251507
 20
141.1870625428138055
 30
0.0
 11
2440.9398025110249364
 21
141.1909843719137996
 31
0.0
  0
LINE
  5
A2C1
  8
0
 10
2440.9398025110249364
 20
141.1909843719137996
 30
0.0
 11
2440.9496450307251507
 21
141.1949062009138061
 31
0.0
  0
LINE
  5
A2C2
  8
0
 10
2440.9496450307251507
 20
141.1949062009138061
 30
0.0
 11
2440.9560288076741017
 21
141.1949397000732915
 31
0.0
  0
LINE
  5
A2C3
  8
0
 10
2440.9693300701251246
 20
141.1938547252979959
 30
0.0
 11
2440.9693300701251246
 21
141.1870625428138055
 31
0.0
  0
LINE
  5
A2C4
  8
0
 10
2440.9496450307251507
 20
141.1870625428138055
 30
0.0
 11
2440.9496450307251507
 21
141.1949062009138061
 31
0.0
  0
LINE
  5
A2C5
  8
0
 10
2440.9464879620950342
 20
141.1954578537863085
 30
0.0
 11
2440.9414912204251777
 21
141.1934668629137946
 31
0.0
  0
LINE
  5
A2C6
  8
0
 10
2440.9414912204251777
 20
141.1934668629137946
 30
0.0
 11
2440.9218061810252038
 21
141.1934668629137946
 31
0.0
  0
LINE
  5
A2C7
  8
0
 10
2440.9218061810252038
 20
141.1934668629137946
 30
0.0
 11
2440.9138081527221402
 21
141.1966537399632955
 31
0.0
  0
LINE
  5
A2C8
  8
0
 10
2440.9414912204251777
 20
141.1956987118628888
 30
0.0
 11
2440.9414912204251777
 21
141.1934668629137946
 31
0.0
  0
LINE
  5
A2C9
  8
0
 10
2440.9218061810252038
 20
141.1934668629137946
 30
0.0
 11
2440.9218061810252038
 21
141.1964437917521877
 31
0.0
  0
LINE
  5
A2CA
  8
0
 10
2441.0885935890041765
 20
141.1774049553067982
 30
0.0
 11
2441.0806854684738028
 21
141.1742539027137866
 31
0.0
  0
LINE
  5
A2CB
  8
0
 10
2441.0806854684738028
 20
141.1742539027137866
 30
0.0
 11
2441.0610004290738289
 21
141.1742539027137866
 31
0.0
  0
LINE
  5
A2CC
  8
0
 10
2441.0610004290738289
 20
141.1742539027137866
 30
0.0
 11
2441.0511579093740693
 21
141.1781757318138091
 31
0.0
  0
LINE
  5
A2CD
  8
0
 10
2441.0511579093740693
 20
141.1781757318138091
 30
0.0
 11
2441.0610004290738289
 21
141.1820975608137871
 31
0.0
  0
LINE
  5
A2CE
  8
0
 10
2441.0610004290738289
 20
141.1820975608137871
 30
0.0
 11
2441.066226893853127
 21
141.1820975608137871
 31
0.0
  0
LINE
  5
A2CF
  8
0
 10
2441.0806854684738028
 20
141.1791604703464031
 30
0.0
 11
2441.0806854684738028
 21
141.1742539027137866
 31
0.0
  0
LINE
  5
A2D0
  8
0
 10
2441.0610004290738289
 20
141.1742539027137866
 30
0.0
 11
2441.0610004290738289
 21
141.1820975608137871
 31
0.0
  0
LINE
  5
A2D1
  8
0
 10
2441.1147885929508448
 20
141.1703456320850876
 30
0.0
 11
2441.1085243181742044
 21
141.1678495827138136
 31
0.0
  0
LINE
  5
A2D2
  8
0
 10
2441.1085243181742044
 20
141.1678495827138136
 30
0.0
 11
2441.0888392787737757
 21
141.1678495827138136
 31
0.0
  0
LINE
  5
A2D3
  8
0
 10
2441.0888392787737757
 20
141.1678495827138136
 30
0.0
 11
2441.0789967590740162
 21
141.1717714118138076
 31
0.0
  0
LINE
  5
A2D4
  8
0
 10
2441.0789967590740162
 20
141.1717714118138076
 30
0.0
 11
2441.0888392787737757
 21
141.1756932408138141
 31
0.0
  0
LINE
  5
A2D5
  8
0
 10
2441.0888392787737757
 20
141.1756932408138141
 30
0.0
 11
2441.0956804189081595
 21
141.1756932408138141
 31
0.0
  0
LINE
  5
A2D6
  8
0
 10
2441.1085243181742044
 20
141.1722182105847878
 30
0.0
 11
2441.1085243181742044
 21
141.1678495827138136
 31
0.0
  0
LINE
  5
A2D7
  8
0
 10
2441.0888392787737757
 20
141.1678495827138136
 30
0.0
 11
2441.0888392787737757
 21
141.1756932408138141
 31
0.0
  0
LINE
  5
A2D8
  8
0
 10
2441.1376781839971954
 20
141.1619692412322138
 30
0.0
 11
2441.1363631677741068
 21
141.1614452627138121
 31
0.0
  0
LINE
  5
A2D9
  8
0
 10
2441.1363631677741068
 20
141.1614452627138121
 30
0.0
 11
2441.1166781283741329
 21
141.1614452627138121
 31
0.0
  0
LINE
  5
A2DA
  8
0
 10
2441.1166781283741329
 20
141.1614452627138121
 30
0.0
 11
2441.1068356086739186
 21
141.1653670918138062
 31
0.0
  0
LINE
  5
A2DB
  8
0
 10
2441.1068356086739186
 20
141.1653670918138062
 30
0.0
 11
2441.1166781283741329
 21
141.1692889208138126
 31
0.0
  0
LINE
  5
A2DC
  8
0
 10
2441.1166781283741329
 20
141.1692889208138126
 30
0.0
 11
2441.1181593256919768
 21
141.1692889208138126
 31
0.0
  0
LINE
  5
A2DD
  8
0
 10
2441.1363631677741068
 20
141.162534321137997
 30
0.0
 11
2441.1363631677741068
 21
141.1614452627138121
 31
0.0
  0
LINE
  5
A2DE
  8
0
 10
2441.1166781283741329
 20
141.1614452627138121
 30
0.0
 11
2441.1166781283741329
 21
141.1692889208138126
 31
0.0
  0
LINE
  5
A2DF
  8
0
 10
2441.1259839112740337
 20
141.1102107023137933
 30
0.0
 11
2441.1166781283741329
 21
141.1102107023137933
 31
0.0
  0
LINE
  5
A2E0
  8
0
 10
2441.1166781283741329
 20
141.1102107023137933
 30
0.0
 11
2441.1068356086739186
 21
141.1141325314137873
 31
0.0
  0
LINE
  5
A2E1
  8
0
 10
2441.1068356086739186
 20
141.1141325314137873
 30
0.0
 11
2441.1166781283741329
 21
141.1180543604137938
 31
0.0
  0
LINE
  5
A2E2
  8
0
 10
2441.1166781283741329
 20
141.1180543604137938
 30
0.0
 11
2441.1363631677741068
 21
141.1180543604137938
 31
0.0
  0
LINE
  5
A2E3
  8
0
 10
2441.1166781283741329
 20
141.1102107023137933
 30
0.0
 11
2441.1166781283741329
 21
141.1180543604137938
 31
0.0
  0
LINE
  5
A2E4
  8
0
 10
2441.0250077691739534
 20
141.0924370802138128
 30
0.0
 11
2441.0348502888741677
 21
141.0885152512138063
 31
0.0
  0
LINE
  5
A2E5
  8
0
 10
2441.0348502888741677
 20
141.0885152512138063
 30
0.0
 11
2441.0323396177100221
 21
141.0875148546147955
 31
0.0
  0
LINE
  5
A2E6
  8
0
 10
2441.0099120777740609
 20
141.0845934221138123
 30
0.0
 11
2441.0053227297739795
 21
141.0845934221138123
 31
0.0
  0
LINE
  5
A2E7
  8
0
 10
2441.0053227297739795
 20
141.0845934221138123
 30
0.0
 11
2440.9954802100742199
 21
141.0885152512138063
 31
0.0
  0
LINE
  5
A2E8
  8
0
 10
2440.9954802100742199
 20
141.0885152512138063
 30
0.0
 11
2441.0053227297739795
 21
141.0924370802138128
 31
0.0
  0
LINE
  5
A2E9
  8
0
 10
2441.0053227297739795
 20
141.0924370802138128
 30
0.0
 11
2441.0250077691739534
 21
141.0924370802138128
 31
0.0
  0
LINE
  5
A2EA
  8
0
 10
2441.0250077691739534
 20
141.0924370802138128
 30
0.0
 11
2441.0250077691739534
 21
141.0865598010954898
 31
0.0
  0
LINE
  5
A2EB
  8
0
 10
2441.0053227297739795
 20
141.0845934221138123
 30
0.0
 11
2441.0053227297739795
 21
141.0924370802138128
 31
0.0
  0
LINE
  5
A2EC
  8
0
 10
2440.9411903185191477
 20
141.0861526567607029
 30
0.0
 11
2440.9510328382189073
 21
141.0822308277606965
 31
0.0
  0
LINE
  5
A2ED
  8
0
 10
2440.9510328382189073
 20
141.0822308277606965
 30
0.0
 11
2440.94406145310586
 21
141.0792132315467882
 31
0.0
  0
LINE
  5
A2EE
  8
0
 10
2440.94406145310586
 20
141.0792132315467882
 30
0.0
 11
2440.9215052791191738
 21
141.0783089986607024
 31
0.0
  0
LINE
  5
A2EF
  8
0
 10
2440.9215052791191738
 20
141.0783089986607024
 30
0.0
 11
2440.9116627594189595
 21
141.0822308277606965
 31
0.0
  0
LINE
  5
A2F0
  8
0
 10
2440.9116627594189595
 20
141.0822308277606965
 30
0.0
 11
2440.9215052791191738
 21
141.0861526567607029
 31
0.0
  0
LINE
  5
A2F1
  8
0
 10
2440.9215052791191738
 20
141.0861526567607029
 30
0.0
 11
2440.9411903185191477
 21
141.0861526567607029
 31
0.0
  0
LINE
  5
A2F2
  8
0
 10
2440.9215052791191738
 20
141.0783089986607024
 30
0.0
 11
2440.9215052791191738
 21
141.0861526567607029
 31
0.0
  0
LINE
  5
A2F3
  8
0
 10
2441.1259839112740337
 20
141.1102107023137933
 30
0.0
 11
2441.1397331334737828
 21
141.1167115712138127
 31
0.0
  0
LINE
  5
A2F4
  8
0
 10
2441.1397331334737828
 20
141.1167115712138127
 30
0.0
 11
2441.1363631677741068
 21
141.1180543604137938
 31
0.0
  0
LINE
  5
A2F5
  8
0
 10
2441.0323396177100221
 20
141.0875148546147955
 30
0.0
 11
2441.0099120777740609
 21
141.0845934220672859
 31
0.0
  0
LINE
  5
A2F6
  8
0
 10
2440.94406145310586
 20
141.0792132315467882
 30
0.0
 11
2440.94406145310586
 21
141.0850086307619904
 31
0.0
  0
ARC
  5
A2F7
  8
0
 10
2441.6784658692708945
 20
141.1791450291003969
 30
0.0
 40
0.0557345877168504
 50
42.0613136772967593
 51
81.1279141150677532
  0
ARC
  5
A2F9
  8
0
 10
2441.2397603840331612
 20
141.1569808146986134
 30
0.0
 40
0.1019918768822505
 50
286.4446741177121112
 51
323.2974305343198012
  0
LINE
  5
A2FA
  8
0
 10
2441.2872979770331767
 20
141.0960236221137905
 30
0.0
 11
2441.3215322532741993
 21
141.0960242371137952
 31
0.0
  0
LINE
  5
A2FB
  8
0
 10
2441.2872979770181701
 20
141.1247798392458037
 30
0.0
 11
2441.321532269418185
 21
141.1247797640521071
 31
0.0
  0
LINE
  5
A2FC
  8
0
 10
2441.3215497135738588
 20
141.1247797640137946
 30
0.0
 11
2441.321548771973994
 21
141.1260359197137859
 31
0.0
  0
LINE
  5
A2FD
  8
0
 10
2441.321548771973994
 20
141.1260359197137859
 30
0.0
 11
2441.3395296063699789
 21
141.1360975007866898
 31
0.0
  0
LINE
  5
A2FE
  8
0
 10
2441.3215322532741993
 20
141.0960242371137952
 30
0.0
 11
2441.3215120256741102
 21
141.099929237713809
 31
0.0
  0
LINE
  5
A2FF
  8
0
 10
2441.3215120256741102
 20
141.099929237713809
 30
0.0
 11
2441.3483059934737867
 21
141.1148036501137994
 31
0.0
  0
ARC
  5
A300
  8
0
 10
2440.8486998188682264
 20
142.1523432073744004
 30
0.0
 40
1.1048504838243289
 50
261.8519456560234744
 51
267.2615275643693735
  0
ARC
  5
A301
  8
0
 10
2440.8854951107327906
 20
142.1379813227131876
 30
0.0
 40
1.0904398277143339
 50
272.702700277740405
 51
278.183826476390891
  0
ARC
  5
A302
  8
0
 10
2440.8664131810178333
 20
143.1999954902142065
 30
0.0
 40
2.1867738095312039
 50
268.3625766942645896
 51
271.6374124858435835
  0
ARC
  5
A303
  8
0
 10
2440.8664130170541284
 20
143.0557145496487976
 30
0.0
 40
2.0344592078962451
 50
268.2395699862382799
 51
271.7604886549240177
  0
ARC
  5
A304
  8
0
 10
2440.9032960669878776
 20
143.0599600220639047
 30
0.0
 40
2.0241241390261502
 50
267.2073521277171722
 51
270.7251438861060819
  0
LINE
  5
A305
  8
0
 10
2441.1363631677741068
 20
141.1308630005138127
 30
0.0
 11
2441.1378328287742079
 21
141.1302774025137978
 31
0.0
  0
LINE
  5
A306
  8
0
 10
2439.7852619239738488
 20
136.6844960355138028
 30
0.0
 11
2441.9666800783738836
 21
136.6844960355138028
 31
0.0
  0
ARC
  5
A307
  8
0
 10
2437.7959786869191703
 20
136.1769492600560056
 30
0.0
 40
0.0119178487003725
 50
162.2288716018447872
 51
177.8378496057545135
  0
ARC
  5
A308
  8
0
 10
2441.9563760743831153
 20
136.6861485845440995
 30
0.0
 40
0.0104356799754948
 50
350.8885340547446958
 51
91.5574510561824155
  0
ARC
  5
A309
  8
0
 10
2441.9305652152529547
 20
136.6364883564822037
 30
0.0
 40
0.0600751245044319
 50
3.2573728128377559
 51
53.0468573544103705
  0
ARC
  5
A30A
  8
0
 10
2442.1582381691550836
 20
136.6395133054446092
 30
0.0
 40
0.1676953389871929
 50
179.8672301147823021
 51
204.7274982921186108
  0
ARC
  5
A30B
  8
0
 10
2442.2999617398791088
 20
136.7477652411012912
 30
0.0
 40
0.3439292741510163
 50
211.2457320822836095
 51
262.6646230736027974
  0
ENDSEC
  0
EOF
