  0
SECTION
  2
HEADER
  9
$ACADVER
  1
AC1009
  9
$INSBASE
 10
4752.5973345770853484
 20
205.6477449212736985
 30
0.0
  9
$EXTMIN
 10
4736.2223345770844389
 20
204.7942449212737017
 30
0.0
  9
$EXTMAX
 10
4768.9723345770844389
 20
206.486244921273709
 30
0.0
  9
$LIMMIN
 10
0.0
 20
0.0
  9
$LIMMAX
 10
11.6929133858000007
 20
8.2677165353999982
  9
$ORTHOMODE
 70
     0
  9
$REGENMODE
 70
     1
  9
$FILLMODE
 70
     1
  9
$QTEXTMODE
 70
     0
  9
$MIRRTEXT
 70
     0
  9
$DRAGMODE
 70
     2
  9
$LTSCALE
 40
0.6431102362
  9
$OSMODE
 70
  4095
  9
$ATTMODE
 70
     1
  9
$TEXTSIZE
 40
0.2
  9
$TRACEWID
 40
0.05
  9
$TEXTSTYLE
  7
STANDARD
  9
$CLAYER
  8
0
  9
$CELTYPE
  6
BYLAYER
  9
$CECOLOR
 62
   256
  9
$DIMSCALE
 40
1.0
  9
$DIMASZ
 40
0.1875
  9
$DIMEXO
 40
0.0625
  9
$DIMDLI
 40
0.4443307087
  9
$DIMRND
 40
0.0
  9
$DIMDLE
 40
0.0
  9
$DIMEXE
 40
0.125
  9
$DIMTP
 40
0.01
  9
$DIMTM
 40
0.01
  9
$DIMTXT
 40
2.0
  9
$DIMCEN
 40
0.1052362205
  9
$DIMTSZ
 40
0.0
  9
$DIMTOL
 70
     1
  9
$DIMLIM
 70
     0
  9
$DIMTIH
 70
     1
  9
$DIMTOH
 70
     1
  9
$DIMSE1
 70
     0
  9
$DIMSE2
 70
     0
  9
$DIMTAD
 70
     0
  9
$DIMZIN
 70
     0
  9
$DIMBLK
  1

  9
$DIMASO
 70
     1
  9
$DIMSHO
 70
     1
  9
$DIMPOST
  1
\X
  9
$DIMAPOST
  1

  9
$DIMALT
 70
     1
  9
$DIMALTD
 70
     2
  9
$DIMALTF
 40
25.3999999999999986
  9
$DIMLFAC
 40
1.0
  9
$DIMTOFL
 70
     0
  9
$DIMTVP
 40
0.0
  9
$DIMTIX
 70
     0
  9
$DIMSOXD
 70
     0
  9
$DIMSAH
 70
     0
  9
$DIMBLK1
  1

  9
$DIMBLK2
  1

  9
$DIMSTYLE
  2
STANDARD
  9
$DIMCLRD
 70
     0
  9
$DIMCLRE
 70
     0
  9
$DIMCLRT
 70
     0
  9
$DIMTFAC
 40
1.0
  9
$DIMGAP
 40
0.09
  9
$LUNITS
 70
     2
  9
$LUPREC
 70
     4
  9
$SKETCHINC
 40
0.1
  9
$FILLETRAD
 40
0.0
  9
$AUNITS
 70
     0
  9
$AUPREC
 70
     0
  9
$MENU
  1
.
  9
$ELEVATION
 40
0.0
  9
$PELEVATION
 40
0.0
  9
$THICKNESS
 40
0.0
  9
$LIMCHECK
 70
     0
  9
$BLIPMODE
 70
     0
  9
$CHAMFERA
 40
0.0
  9
$CHAMFERB
 40
0.0
  9
$SKPOLY
 70
     0
  9
$TDCREATE
 40
2458060.468368056230247
  9
$TDUPDATE
 40
2459439.6450462960638106
  9
$TDINDWG
 40
0.4035255787
  9
$TDUSRTIMER
 40
0.4035255787
  9
$USRTIMER
 70
     1
  9
$ANGBASE
 50
0.0
  9
$ANGDIR
 70
     0
  9
$PDMODE
 70
     0
  9
$PDSIZE
 40
0.3125
  9
$PLINEWID
 40
0.0
  9
$COORDS
 70
     1
  9
$SPLFRAME
 70
     0
  9
$SPLINETYPE
 70
     6
  9
$SPLINESEGS
 70
     8
  9
$ATTDIA
 70
     1
  9
$ATTREQ
 70
     1
  9
$HANDLING
 70
     1
  9
$HANDSEED
  5
A728
  9
$SURFTAB1
 70
     6
  9
$SURFTAB2
 70
     6
  9
$SURFTYPE
 70
     6
  9
$SURFU
 70
     6
  9
$SURFV
 70
     6
  9
$UCSNAME
  2

  9
$UCSORG
 10
0.0
 20
0.0
 30
0.0
  9
$UCSXDIR
 10
1.0
 20
0.0
 30
0.0
  9
$UCSYDIR
 10
0.0
 20
1.0
 30
0.0
  9
$PUCSNAME
  2

  9
$PUCSORG
 10
0.0
 20
0.0
 30
0.0
  9
$PUCSXDIR
 10
1.0
 20
0.0
 30
0.0
  9
$PUCSYDIR
 10
0.0
 20
1.0
 30
0.0
  9
$USERI1
 70
     0
  9
$USERI2
 70
     0
  9
$USERI3
 70
     0
  9
$USERI4
 70
     0
  9
$USERI5
 70
     0
  9
$USERR1
 40
0.0
  9
$USERR2
 40
0.0
  9
$USERR3
 40
0.0
  9
$USERR4
 40
0.0
  9
$USERR5
 40
0.0
  9
$WORLDVIEW
 70
     1
  9
$SHADEDGE
 70
     3
  9
$SHADEDIF
 70
    70
  9
$TILEMODE
 70
     1
  9
$MAXACTVP
 70
    64
  9
$PLIMCHECK
 70
     0
  9
$PEXTMIN
 10
1.0000000000000000E+20
 20
1.0000000000000000E+20
 30
1.0000000000000000E+20
  9
$PEXTMAX
 10
-1.0000000000000000E+20
 20
-1.0000000000000000E+20
 30
-1.0000000000000000E+20
  9
$PLIMMIN
 10
0.0
 20
0.0
  9
$PLIMMAX
 10
12.0
 20
9.0
  9
$UNITMODE
 70
     0
  9
$VISRETAIN
 70
     1
  9
$PLINEGEN
 70
     0
  9
$PSLTSCALE
 70
     1
  0
ENDSEC
  0
SECTION
  2
TABLES
  0
TABLE
  2
VPORT
 70
     1
  0
VPORT
  2
*ACTIVE
 70
     0
 10
0.0
 20
0.0
 11
1.0
 21
1.0
 12
948.9869340919020715
 22
79.648760135371802
 13
0.0
 23
0.0
 14
1.0
 24
1.0
 15
0.0
 25
0.0
 16
0.0
 26
0.0
 36
17.1152628219792007
 17
3803.5440673828129547
 27
125.9952621967499056
 37
0.0
 40
11.6881128128266401
 41
2.8440779610194902
 42
50.0
 43
0.0
 44
0.0
 50
0.0
 51
0.0
 71
     0
 72
   100
 73
     1
 74
     1
 75
     0
 76
     0
 77
     0
 78
     0
  0
ENDTAB
  0
TABLE
  2
LTYPE
 70
     2
  0
LTYPE
  2
CONTINUOUS
 70
     0
  3
Solid line
 72
    65
 73
     0
 40
0.0
  0
LTYPE
  2
PHANTOM2
 70
     0
  3
___ _ _ ___ _ _ ___ _ _ ___ _ _
 72
    65
 73
     6
 40
1.25
 49
0.625
 49
-0.125
 49
0.125
 49
-0.125
 49
0.125
 49
-0.125
  0
ENDTAB
  0
TABLE
  2
LAYER
 70
     2
  0
LAYER
  2
0
 70
     0
 62
   255
  6
CONTINUOUS
  0
LAYER
  2
DEFPOINTS
 70
     0
 62
     7
  6
CONTINUOUS
  0
ENDTAB
  0
TABLE
  2
STYLE
 70
     1
  0
STYLE
  2
STANDARD
 70
     0
 40
0.0
 41
0.8
 50
0.0
 71
     0
 42
0.2
  3
txt
  4

  0
ENDTAB
  0
TABLE
  2
VIEW
 70
     0
  0
ENDTAB
  0
TABLE
  2
UCS
 70
     0
  0
ENDTAB
  0
TABLE
  2
APPID
 70
     9
  0
APPID
  2
ACAD
 70
     0
  0
APPID
  2
ACAD_MLEADERVER
 70
     0
  0
APPID
  2
ACAD_EXEMPT_FROM_CAD_STANDARDS
 70
     0
  0
APPID
  2
ACAD_NAV_VCDISPLAY
 70
     0
  0
APPID
  2
ACAECLAYERSTANDARD
 70
     0
  0
APPID
  2
ACCMTRANSPARENCY
 70
     0
  0
APPID
  2
ACAD_DSTYLE_DIMJAG
 70
     0
  0
APPID
  2
ACAD_DSTYLE_DIMTALN
 70
     0
  0
APPID
  2
ACDBATTR
 70
     0
  0
ENDTAB
  0
TABLE
  2
DIMSTYLE
 70
     1
  0
DIMSTYLE
  2
STANDARD
 70
     0
  3

  4

  5

  6

  7

 40
1.0
 41
0.1875
 42
0.0625
 43
0.38
 44
0.125
 45
0.0
 46
0.0
 47
0.01
 48
0.01
140
0.15625
141
0.09
142
0.0
143
25.3999999999999986
144
1.0
145
0.0
146
1.0
147
0.09
 71
     1
 72
     0
 73
     1
 74
     1
 75
     0
 76
     0
 77
     0
 78
     4
170
     0
171
     2
172
     0
173
     0
174
     0
175
     0
176
     0
177
     0
178
     0
  0
ENDTAB
  0
ENDSEC
  0
SECTION
  2
BLOCKS
  0
BLOCK
  8
0
  2
$MODEL_SPACE
 70
     0
 10
0.0
 20
0.0
 30
0.0
  3
$MODEL_SPACE
  1

  0
ENDBLK
  5
21
  8
0
  0
BLOCK
 67
     1
  8
0
  2
$PAPER_SPACE
 70
     0
 10
0.0
 20
0.0
 30
0.0
  3
$PAPER_SPACE
  1

  0
ENDBLK
  5
1D
 67
     1
  8
0
  0
ENDSEC
  0
SECTION
  2
ENTITIES
  0
ATTDEF
  5
3930
  8
DEFPOINTS
 10
4752.5921168832392141
 20
205.6442854953940866
 30
0.0
 40
0.001
  1
K-26936-3G06
  3

  2
MODELNUMBER
 70
     0
1001
ACDBATTR
1070
     0
1070
     1
  0
ATTDEF
  5
3931
  8
DEFPOINTS
 10
4752.5921168832392141
 20
205.6426188287275068
 30
0.0
 40
0.001
  1

  3

  2
TRADENAME
 70
     0
1001
ACDBATTR
1070
     0
1070
     1
  0
ATTDEF
  5
3932
  8
DEFPOINTS
 10
4752.5921168832392141
 20
205.6409521620608132
 30
0.0
 40
0.001
  1
SHOWER DOOR
  3

  2
PRODUCT
 70
     0
1001
ACDBATTR
1070
     0
1070
     1
  0
LINE
  5
A3CD
  8
0
 10
4736.2223345770853484
 20
205.2027449212737054
 30
0.0
 11
4736.2223345770853484
 21
206.0287449212736988
 31
0.0
  0
LINE
  5
A3CE
  8
0
 10
4736.2623345770862215
 20
205.9647449212737058
 30
0.0
 11
4736.2623345770862215
 21
205.3307449212736913
 31
0.0
  0
LINE
  5
A3CF
  8
0
 10
4736.3123345770845845
 20
205.345744921273706
 30
0.0
 11
4736.3123345770845845
 21
205.9447449212736956
 31
0.0
  0
LINE
  5
A3D0
  8
0
 10
4737.6403345770850137
 20
205.3537449212736874
 30
0.0
 11
4737.6403345770850137
 21
205.345744921273706
 31
0.0
  0
LINE
  5
A3D1
  8
0
 10
4737.6903345770851956
 20
205.3487449212736919
 30
0.0
 11
4737.6903345770851956
 21
205.3537449212736874
 31
0.0
  0
LINE
  5
A3D2
  8
0
 10
4737.6903345770851956
 20
205.9687449212736965
 30
0.0
 11
4737.6903345770851956
 21
205.9967449212736881
 31
0.0
  0
LINE
  5
A3D3
  8
0
 10
4737.7633345770846063
 20
205.4157449212736992
 30
0.0
 11
4737.7633345770846063
 21
205.876744921273712
 31
0.0
  0
LINE
  5
A3D4
  8
0
 10
4737.8133345770856977
 20
205.8654068260736949
 30
0.0
 11
4737.8133345770856977
 21
205.4052943316737014
 31
0.0
  0
LINE
  5
A3D5
  8
0
 10
4737.9063345770846354
 20
205.8777449212736883
 30
0.0
 11
4737.9063345770846354
 21
205.9107449212737038
 31
0.0
  0
LINE
  5
A3D6
  8
0
 10
4737.9063345770846354
 20
206.0302943316737014
 30
0.0
 11
4737.9063345770846354
 21
206.0712943316736983
 31
0.0
  0
LINE
  5
A3D7
  8
0
 10
4737.9563345770848173
 20
206.079294331673708
 30
0.0
 11
4737.9563345770848173
 21
206.0302943316737014
 31
0.0
  0
LINE
  5
A3D8
  8
0
 10
4737.9563345770848173
 20
205.9187449212737135
 30
0.0
 11
4737.9563345770848173
 21
205.869744921273707
 31
0.0
  0
LINE
  5
A3D9
  8
0
 10
4737.9738345770847445
 20
206.0872943316736894
 30
0.0
 11
4737.9738345770847445
 21
206.0422943316737019
 31
0.0
  0
LINE
  5
A3DA
  8
0
 10
4737.9738345770847445
 20
205.9067449212737131
 30
0.0
 11
4737.9738345770847445
 21
205.8617449212736972
 31
0.0
  0
LINE
  5
A3DB
  8
0
 10
4738.0213345770853266
 20
206.0062943316737005
 30
0.0
 11
4738.0213345770853266
 21
205.9882943316736998
 31
0.0
  0
LINE
  5
A3DC
  8
0
 10
4738.0213345770853266
 20
206.0422943316737019
 30
0.0
 11
4738.0213345770853266
 21
205.9522943316736985
 31
0.0
  0
LINE
  5
A3DD
  8
0
 10
4738.0213345770853266
 20
205.9522943316736985
 30
0.0
 11
4738.0213345770853266
 21
205.942744921273686
 31
0.0
  0
LINE
  5
A3DE
  8
0
 10
4738.0213345770853266
 20
205.9522943316736985
 30
0.0
 11
4738.0213345770853266
 21
205.9067449212737131
 31
0.0
  0
LINE
  5
A3DF
  8
0
 10
4738.0563345770851811
 20
205.4767449212737063
 30
0.0
 11
4738.0563345770851811
 21
205.8037449212737044
 31
0.0
  0
LINE
  5
A3E0
  8
0
 10
4738.106334577085363
 20
205.7922449212736922
 30
0.0
 11
4738.106334577085363
 21
205.4882449212736901
 31
0.0
  0
LINE
  5
A3E1
  8
0
 10
4738.171324704185281
 20
205.7542449212737097
 30
0.0
 11
4738.171324704185281
 21
205.526244921273701
 31
0.0
  0
LINE
  5
A3E2
  8
0
 10
4738.3263345770847081
 20
205.9067449212737131
 30
0.0
 11
4738.3263345770847081
 21
205.9522943316736985
 31
0.0
  0
LINE
  5
A3E3
  8
0
 10
4738.3263345770847081
 20
205.9522943316736985
 30
0.0
 11
4738.3263345770847081
 21
206.0422943316737019
 31
0.0
  0
LINE
  5
A3E4
  8
0
 10
4738.3463345770851447
 20
205.942744921273686
 30
0.0
 11
4738.3463345770851447
 21
205.9607449212736867
 31
0.0
  0
LINE
  5
A3E5
  8
0
 10
4738.3463345770851447
 20
205.9882943316736998
 30
0.0
 11
4738.3463345770851447
 21
206.0062943316737005
 31
0.0
  0
LINE
  5
A3E6
  8
0
 10
4738.3738345770843807
 20
205.8617449212736972
 30
0.0
 11
4738.3738345770843807
 21
205.9067449212737131
 31
0.0
  0
LINE
  5
A3E7
  8
0
 10
4738.3738345770843807
 20
206.0422943316737019
 30
0.0
 11
4738.3738345770843807
 21
206.0872943316736894
 31
0.0
  0
LINE
  5
A3E8
  8
0
 10
4738.411334577085654
 20
206.0302943316737014
 30
0.0
 11
4738.411334577085654
 21
206.079294331673708
 31
0.0
  0
LINE
  5
A3E9
  8
0
 10
4738.4613345770849264
 20
206.0712943316736983
 30
0.0
 11
4738.4613345770849264
 21
206.0382943316737112
 31
0.0
  0
LINE
  5
A3EA
  8
0
 10
4738.5463345770849628
 20
204.8602449212737042
 30
0.0
 11
4738.5463345770849628
 21
205.4107449212737038
 31
0.0
  0
LINE
  5
A3EB
  8
0
 10
4738.5463345770849628
 20
205.9847449212736876
 30
0.0
 11
4738.5463345770849628
 21
206.4202449212737065
 31
0.0
  0
LINE
  5
A3EC
  8
0
 10
4738.5963345770851447
 20
206.4282449212736879
 30
0.0
 11
4738.5963345770851447
 21
205.8002449212737019
 31
0.0
  0
LINE
  5
A3ED
  8
0
 10
4738.5963345770851447
 20
205.8002449212737019
 30
0.0
 11
4738.5963345770851447
 21
205.4515969596737079
 31
0.0
  0
LINE
  5
A3EE
  8
0
 10
4738.5963345770851447
 20
205.4622449212737081
 30
0.0
 11
4738.5963345770851447
 21
204.8522449212736944
 31
0.0
  0
LINE
  5
A3EF
  8
0
 10
4738.0833345770852247
 20
205.9672943316737133
 30
0.0
 11
4738.0746743230856737
 21
205.9522943316736985
 31
0.0
  0
LINE
  5
A3F0
  8
0
 10
4736.9499914313846602
 20
205.9424017754737122
 30
0.0
 11
4736.9579914313853806
 21
205.9504017754736935
 31
0.0
  0
LINE
  5
A3F1
  8
0
 10
4738.0919948310847758
 20
205.9522943316736985
 30
0.0
 11
4738.0833345770852247
 21
205.9672943316737133
 31
0.0
  0
LINE
  5
A3F2
  8
0
 10
4737.7930208685847902
 20
205.957431212773713
 30
0.0
 11
4737.8385530350851695
 21
206.0029633792736945
 31
0.0
  0
LINE
  5
A3F3
  8
0
 10
4737.873553035085024
 20
205.9529633792737116
 30
0.0
 11
4737.8326655295850287
 21
205.9120758736737002
 31
0.0
  0
LINE
  5
A3F4
  8
0
 10
4738.6226777228848732
 20
206.4465880669737032
 30
0.0
 11
4738.6146777228850624
 21
206.4385880669736935
 31
0.0
  0
LINE
  5
A3F5
  8
0
 10
4738.654677722885026
 20
206.4465880669737032
 30
0.0
 11
4738.6499914313853878
 21
206.4419017754736956
 31
0.0
  0
LINE
  5
A3F6
  8
0
 10
4738.6866777228851788
 20
206.4465880669737032
 30
0.0
 11
4738.6819914313846311
 21
206.4419017754736956
 31
0.0
  0
LINE
  5
A3F7
  8
0
 10
4738.7186777228853316
 20
206.4465880669737032
 30
0.0
 11
4738.7139914313847839
 21
206.4419017754736956
 31
0.0
  0
LINE
  5
A3F8
  8
0
 10
4738.7506777228863939
 20
206.4465880669737032
 30
0.0
 11
4738.7459914313849367
 21
206.4419017754736956
 31
0.0
  0
LINE
  5
A3F9
  8
0
 10
4738.7826777228856372
 20
206.4465880669737032
 30
0.0
 11
4738.7779914313850895
 21
206.4419017754736956
 31
0.0
  0
LINE
  5
A3FA
  8
0
 10
4738.814677722883971
 20
206.4465880669737032
 30
0.0
 11
4738.8099914313852423
 21
206.4419017754736956
 31
0.0
  0
LINE
  5
A3FB
  8
0
 10
4738.8466777228850333
 20
206.4465880669737032
 30
0.0
 11
4738.8419914313853951
 21
206.4419017754736956
 31
0.0
  0
LINE
  5
A3FC
  8
0
 10
4738.8786777228851861
 20
206.4465880669737032
 30
0.0
 11
4738.8739914313846384
 21
206.4419017754736956
 31
0.0
  0
LINE
  5
A3FD
  8
0
 10
4738.9106777228853389
 20
206.4465880669737032
 30
0.0
 11
4738.9059914313847912
 21
206.4419017754736956
 31
0.0
  0
LINE
  5
A3FE
  8
0
 10
4736.9306777228848659
 20
205.9504017754736935
 30
0.0
 11
4736.9386777228846768
 21
205.9424017754737122
 31
0.0
  0
LINE
  5
A3FF
  8
0
 10
4738.6146777228850624
 20
204.8419017754737013
 30
0.0
 11
4738.6226777228848732
 21
204.8339017754736915
 31
0.0
  0
LINE
  5
A400
  8
0
 10
4738.6499914313853878
 20
204.8385880669736991
 30
0.0
 11
4738.654677722885026
 21
204.8339017754736915
 31
0.0
  0
LINE
  5
A401
  8
0
 10
4738.6819914313846311
 20
204.8385880669736991
 30
0.0
 11
4738.6866777228851788
 21
204.8339017754736915
 31
0.0
  0
LINE
  5
A402
  8
0
 10
4738.7139914313847839
 20
204.8385880669736991
 30
0.0
 11
4738.7186777228853316
 21
204.8339017754736915
 31
0.0
  0
LINE
  5
A403
  8
0
 10
4738.7459914313849367
 20
204.8385880669736991
 30
0.0
 11
4738.7506777228863939
 21
204.8339017754736915
 31
0.0
  0
LINE
  5
A404
  8
0
 10
4738.7779914313850895
 20
204.8385880669736991
 30
0.0
 11
4738.7826777228856372
 21
204.8339017754736915
 31
0.0
  0
LINE
  5
A405
  8
0
 10
4738.8099914313852423
 20
204.8385880669736991
 30
0.0
 11
4738.814677722883971
 21
204.8339017754736915
 31
0.0
  0
LINE
  5
A406
  8
0
 10
4738.8419914313853951
 20
204.8385880669736991
 30
0.0
 11
4738.8466777228850333
 21
204.8339017754736915
 31
0.0
  0
LINE
  5
A407
  8
0
 10
4738.8739914313846384
 20
204.8385880669736991
 30
0.0
 11
4738.8786777228851861
 21
204.8339017754736915
 31
0.0
  0
LINE
  5
A408
  8
0
 10
4738.9059914313847912
 20
204.8385880669736991
 30
0.0
 11
4738.9106777228853389
 21
204.8339017754736915
 31
0.0
  0
LINE
  5
A409
  8
0
 10
4738.9426777228845822
 20
206.4465880669737032
 30
0.0
 11
4738.9379914313840345
 21
206.4419017754736956
 31
0.0
  0
LINE
  5
A40A
  8
0
 10
4738.974677722884735
 20
206.4465880669737032
 30
0.0
 11
4738.9699914313841873
 21
206.4419017754736956
 31
0.0
  0
LINE
  5
A40B
  8
0
 10
4739.0066777228848878
 20
206.4465880669737032
 30
0.0
 11
4739.0019914313852496
 21
206.4419017754736956
 31
0.0
  0
LINE
  5
A40C
  8
0
 10
4739.0386777228841311
 20
206.4465880669737032
 30
0.0
 11
4739.0339914313854024
 21
206.4419017754736956
 31
0.0
  0
LINE
  5
A40D
  8
0
 10
4738.2753596699149057
 20
205.8002449212737019
 30
0.0
 11
4738.2606281310863778
 21
205.7855133825736971
 31
0.0
  0
LINE
  5
A40E
  8
0
 10
4739.0706777228842839
 20
206.4465880669737032
 30
0.0
 11
4739.0659914313846457
 21
206.4419017754736956
 31
0.0
  0
LINE
  5
A40F
  8
0
 10
4739.1026777228853462
 20
206.4465880669737032
 30
0.0
 11
4739.0979914313847985
 21
206.4419017754736956
 31
0.0
  0
LINE
  5
A410
  8
0
 10
4739.1346777228845895
 20
206.4465880669737032
 30
0.0
 11
4739.1299914313849513
 21
206.4419017754736956
 31
0.0
  0
LINE
  5
A411
  8
0
 10
4738.9379914313840345
 20
204.8385880669736991
 30
0.0
 11
4738.9426777228845822
 21
204.8339017754736915
 31
0.0
  0
LINE
  5
A412
  8
0
 10
4738.9699914313841873
 20
204.8385880669736991
 30
0.0
 11
4738.974677722884735
 21
204.8339017754736915
 31
0.0
  0
LINE
  5
A413
  8
0
 10
4739.0019914313852496
 20
204.8385880669736991
 30
0.0
 11
4739.0066777228848878
 21
204.8339017754736915
 31
0.0
  0
LINE
  5
A414
  8
0
 10
4739.0339914313854024
 20
204.8385880669736991
 30
0.0
 11
4739.0386777228841311
 21
204.8339017754736915
 31
0.0
  0
LINE
  5
A415
  8
0
 10
4738.2611635388848299
 20
205.4944410520737108
 30
0.0
 11
4738.2753596696848035
 21
205.4802449212737088
 31
0.0
  0
LINE
  5
A416
  8
0
 10
4739.0659914313846457
 20
204.8385880669736991
 30
0.0
 11
4739.0706777228842839
 21
204.8339017754736915
 31
0.0
  0
LINE
  5
A417
  8
0
 10
4739.0979914313847985
 20
204.8385880669736991
 30
0.0
 11
4739.1026777228853462
 21
204.8339017754736915
 31
0.0
  0
LINE
  5
A418
  8
0
 10
4739.1299914313849513
 20
204.8385880669736991
 30
0.0
 11
4739.1346777228845895
 21
204.8339017754736915
 31
0.0
  0
LINE
  5
A419
  8
0
 10
4738.6339914313848567
 20
204.8339017754736915
 30
0.0
 11
4738.6386777228854044
 21
204.8385880669736991
 31
0.0
  0
LINE
  5
A41A
  8
0
 10
4738.6659914313850095
 20
204.8339017754736915
 30
0.0
 11
4738.6706777228846477
 21
204.8385880669736991
 31
0.0
  0
LINE
  5
A41B
  8
0
 10
4738.6979914313860718
 20
204.8339017754736915
 30
0.0
 11
4738.70267772288571
 21
204.8385880669736991
 31
0.0
  0
LINE
  5
A41C
  8
0
 10
4738.7299914313862246
 20
204.8339017754736915
 30
0.0
 11
4738.7346777228840438
 21
204.8385880669736991
 31
0.0
  0
LINE
  5
A41D
  8
0
 10
4738.7619914313845584
 20
204.8339017754736915
 30
0.0
 11
4738.7666777228841966
 21
204.8385880669736991
 31
0.0
  0
LINE
  5
A41E
  8
0
 10
4738.7939914313847112
 20
204.8339017754736915
 30
0.0
 11
4738.7986777228852588
 21
204.8385880669736991
 31
0.0
  0
LINE
  5
A41F
  8
0
 10
4738.825991431384864
 20
204.8339017754736915
 30
0.0
 11
4738.8306777228854116
 21
204.8385880669736991
 31
0.0
  0
LINE
  5
A420
  8
0
 10
4738.8579914313850168
 20
204.8339017754736915
 30
0.0
 11
4738.8626777228846549
 21
204.8385880669736991
 31
0.0
  0
LINE
  5
A421
  8
0
 10
4738.8899914313851696
 20
204.8339017754736915
 30
0.0
 11
4738.8946777228848077
 21
204.8385880669736991
 31
0.0
  0
LINE
  5
A422
  8
0
 10
4738.9219914313853224
 20
204.8339017754736915
 30
0.0
 11
4738.9266777228849605
 21
204.8385880669736991
 31
0.0
  0
LINE
  5
A423
  8
0
 10
4738.9539914313863846
 20
204.8339017754736915
 30
0.0
 11
4738.9586777228851133
 21
204.8385880669736991
 31
0.0
  0
LINE
  5
A424
  8
0
 10
4738.9859914313856279
 20
204.8339017754736915
 30
0.0
 11
4738.9906777228852661
 21
204.8385880669736991
 31
0.0
  0
LINE
  5
A425
  8
0
 10
4739.0179914313839618
 20
204.8339017754736915
 30
0.0
 11
4739.0226777228854189
 21
204.8385880669736991
 31
0.0
  0
LINE
  5
A426
  8
0
 10
4739.049991431385024
 20
204.8339017754736915
 30
0.0
 11
4739.0546777228855717
 21
204.8385880669736991
 31
0.0
  0
LINE
  5
A427
  8
0
 10
4739.0819914313851768
 20
204.8339017754736915
 30
0.0
 11
4739.0866777228857245
 21
204.8385880669736991
 31
0.0
  0
LINE
  5
A428
  8
0
 10
4739.1139914313853296
 20
204.8339017754736915
 30
0.0
 11
4739.1186777228849678
 21
204.8385880669736991
 31
0.0
  0
LINE
  5
A429
  8
0
 10
4739.1459914313845729
 20
204.8339017754736915
 30
0.0
 11
4739.1539914313852933
 21
204.8419017754737013
 31
0.0
  0
LINE
  5
A42A
  8
0
 10
4738.6386777228854044
 20
206.4419017754736956
 30
0.0
 11
4738.6339914313848567
 21
206.4465880669737032
 31
0.0
  0
LINE
  5
A42B
  8
0
 10
4738.6706777228846477
 20
206.4419017754736956
 30
0.0
 11
4738.6659914313850095
 21
206.4465880669737032
 31
0.0
  0
LINE
  5
A42C
  8
0
 10
4738.70267772288571
 20
206.4419017754736956
 30
0.0
 11
4738.6979914313860718
 21
206.4465880669737032
 31
0.0
  0
LINE
  5
A42D
  8
0
 10
4738.7346777228840438
 20
206.4419017754736956
 30
0.0
 11
4738.7299914313862246
 21
206.4465880669737032
 31
0.0
  0
LINE
  5
A42E
  8
0
 10
4738.7666777228841966
 20
206.4419017754736956
 30
0.0
 11
4738.7619914313845584
 21
206.4465880669737032
 31
0.0
  0
LINE
  5
A42F
  8
0
 10
4738.7986777228852588
 20
206.4419017754736956
 30
0.0
 11
4738.7939914313847112
 21
206.4465880669737032
 31
0.0
  0
LINE
  5
A430
  8
0
 10
4738.8306777228854116
 20
206.4419017754736956
 30
0.0
 11
4738.825991431384864
 21
206.4465880669737032
 31
0.0
  0
LINE
  5
A431
  8
0
 10
4738.8626777228846549
 20
206.4419017754736956
 30
0.0
 11
4738.8579914313850168
 21
206.4465880669737032
 31
0.0
  0
LINE
  5
A432
  8
0
 10
4738.8946777228848077
 20
206.4419017754736956
 30
0.0
 11
4738.8899914313851696
 21
206.4465880669737032
 31
0.0
  0
LINE
  5
A433
  8
0
 10
4738.9266777228849605
 20
206.4419017754736956
 30
0.0
 11
4738.9219914313853224
 21
206.4465880669737032
 31
0.0
  0
LINE
  5
A434
  8
0
 10
4738.9586777228851133
 20
206.4419017754736956
 30
0.0
 11
4738.9539914313863846
 21
206.4465880669737032
 31
0.0
  0
LINE
  5
A435
  8
0
 10
4738.9906777228852661
 20
206.4419017754736956
 30
0.0
 11
4738.9859914313856279
 21
206.4465880669737032
 31
0.0
  0
LINE
  5
A436
  8
0
 10
4739.0226777228854189
 20
206.4419017754736956
 30
0.0
 11
4739.0179914313839618
 21
206.4465880669737032
 31
0.0
  0
LINE
  5
A437
  8
0
 10
4739.0546777228855717
 20
206.4419017754736956
 30
0.0
 11
4739.049991431385024
 21
206.4465880669737032
 31
0.0
  0
LINE
  5
A438
  8
0
 10
4739.0866777228857245
 20
206.4419017754736956
 30
0.0
 11
4739.0819914313851768
 21
206.4465880669737032
 31
0.0
  0
LINE
  5
A439
  8
0
 10
4739.1186777228849678
 20
206.4419017754736956
 30
0.0
 11
4739.1139914313853296
 21
206.4465880669737032
 31
0.0
  0
LINE
  5
A43A
  8
0
 10
4739.1539914313852933
 20
206.4385880669736935
 30
0.0
 11
4739.1459914313845729
 21
206.4465880669737032
 31
0.0
  0
LINE
  5
A43B
  8
0
 10
4738.2037413085854496
 20
205.780177534873701
 30
0.0
 11
4738.1775747041847353
 21
205.7650702387736885
 31
0.0
  0
LINE
  5
A43C
  8
0
 10
4738.1775747041847353
 20
205.5154196036737062
 30
0.0
 11
4738.2046686620851688
 21
205.4997768997737069
 31
0.0
  0
LINE
  5
A43D
  8
0
 10
4768.763320163685421
 20
205.3623355106736881
 30
0.0
 11
4768.5833412207848596
 21
205.3402368752736891
 31
0.0
  0
LINE
  5
A43E
  8
0
 10
4768.5766361274863812
 20
205.3998641827737117
 30
0.0
 11
4768.7560080030852987
 21
205.4218882797736967
 31
0.0
  0
LINE
  5
A43F
  8
0
 10
4736.7243279333852115
 20
205.3397862856737106
 30
0.0
 11
4736.5213345770853266
 21
205.3647107357737127
 31
0.0
  0
LINE
  5
A440
  8
0
 10
4736.5286467376854489
 20
205.4242635048736929
 30
0.0
 11
4736.7273632694850676
 21
205.3998641827737117
 31
0.0
  0
LINE
  5
A441
  8
0
 10
4739.1633345770842425
 20
204.7942449212737017
 30
0.0
 11
4738.6123345770847664
 21
204.7942449212737017
 31
0.0
  0
LINE
  5
A442
  8
0
 10
4738.6043345770849555
 20
204.8442449212737131
 30
0.0
 11
4738.6090208685864127
 21
204.8442449212737131
 31
0.0
  0
LINE
  5
A443
  8
0
 10
4739.1596482855857175
 20
204.8442449212737131
 30
0.0
 11
4739.1633345770842425
 21
204.8442449212737131
 31
0.0
  0
LINE
  5
A444
  8
0
 10
4768.9723345770844389
 20
205.2027449212737054
 30
0.0
 11
4738.5963345770851447
 21
205.2027449212737054
 31
0.0
  0
LINE
  5
A445
  8
0
 10
4738.5463345770849628
 20
205.2027449212737054
 30
0.0
 11
4736.2223345770853484
 21
205.2027449212737054
 31
0.0
  0
LINE
  5
A446
  8
0
 10
4768.9523345770849119
 20
205.2827449212736894
 30
0.0
 11
4767.5703345770862143
 21
205.2827449212736894
 31
0.0
  0
LINE
  5
A447
  8
0
 10
4736.2223345770853484
 20
205.2827449212736894
 30
0.0
 11
4736.242334577083966
 21
205.2827449212736894
 31
0.0
  0
LINE
  5
A448
  8
0
 10
4736.242334577083966
 20
205.2827449212736894
 30
0.0
 11
4737.6243345770853921
 21
205.2827449212736894
 31
0.0
  0
LINE
  5
A449
  8
0
 10
4737.6243345770853921
 20
205.2827449212736894
 30
0.0
 11
4738.5463345770849628
 21
205.2827449212736894
 31
0.0
  0
LINE
  5
A44A
  8
0
 10
4738.5963345770851447
 20
205.2827449212736894
 30
0.0
 11
4767.5703345770862143
 21
205.2827449212736894
 31
0.0
  0
LINE
  5
A44B
  8
0
 10
4768.9523345770849119
 20
205.2827449212736894
 30
0.0
 11
4768.9723345770844389
 21
205.2827449212736894
 31
0.0
  0
LINE
  5
A44C
  8
0
 10
4736.2543345770845917
 20
205.3227449212737099
 30
0.0
 11
4736.242334577083966
 21
205.3227449212737099
 31
0.0
  0
LINE
  5
A44D
  8
0
 10
4768.9403345770851956
 20
205.3227449212737099
 30
0.0
 11
4768.9523345770849119
 21
205.3227449212737099
 31
0.0
  0
LINE
  5
A44E
  8
0
 10
4737.6323345770842934
 20
205.3377449212736963
 30
0.0
 11
4736.3203345770862143
 21
205.3377449212736963
 31
0.0
  0
LINE
  5
A44F
  8
0
 10
4767.5623345770845845
 20
205.3377449212736963
 30
0.0
 11
4768.8743345770853921
 21
205.3377449212736963
 31
0.0
  0
LINE
  5
A450
  8
0
 10
4737.7473345770849846
 20
205.3392943316736989
 30
0.0
 11
4737.6896544542760239
 21
205.3392943316736989
 31
0.0
  0
LINE
  5
A451
  8
0
 10
4737.6370663731313471
 20
205.3392943316736989
 30
0.0
 11
4736.7323713099849556
 21
205.3392943316736989
 31
0.0
  0
LINE
  5
A452
  8
0
 10
4767.4253345770848682
 20
205.3397449212737058
 30
0.0
 11
4767.5049510929320604
 21
205.3397449212737058
 31
0.0
  0
LINE
  5
A453
  8
0
 10
4767.5570430744628538
 20
205.3397449212737058
 30
0.0
 11
4768.5752978441851155
 21
205.3397449212737058
 31
0.0
  0
LINE
  5
A454
  8
0
 10
4766.8313345770848173
 20
205.354244921273704
 30
0.0
 11
4766.1973345770857122
 21
205.354244921273704
 31
0.0
  0
LINE
  5
A455
  8
0
 10
4768.5746862179839809
 20
205.3997449212737081
 30
0.0
 11
4767.4301907660847064
 21
205.3997449212737081
 31
0.0
  0
LINE
  5
A456
  8
0
 10
4736.7293131789856488
 20
205.3997449212737081
 30
0.0
 11
4737.7473345770849846
 21
205.3997449212737081
 31
0.0
  0
LINE
  5
A457
  8
0
 10
4766.1973345770857122
 20
205.4042449212736869
 30
0.0
 11
4738.5963345770851447
 21
205.4042449212736869
 31
0.0
  0
LINE
  5
A458
  8
0
 10
4766.1973345770857122
 20
205.4042449212736869
 30
0.0
 11
4766.2453345770845772
 21
205.4042449212736869
 31
0.0
  0
LINE
  5
A459
  8
0
 10
4766.4613345770849264
 20
205.4042449212736869
 30
0.0
 11
4766.8393345770864471
 21
205.4042449212736869
 31
0.0
  0
LINE
  5
A45A
  8
0
 10
4738.538334577085152
 20
205.4187449212737135
 30
0.0
 11
4737.9663345770850356
 21
205.4187449212737135
 31
0.0
  0
LINE
  5
A45B
  8
0
 10
4738.5963345770851447
 20
205.4622449212737081
 30
0.0
 11
4766.2533345770852975
 21
205.4622449212737081
 31
0.0
  0
LINE
  5
A45C
  8
0
 10
4737.9663345770850356
 20
205.4687449212736965
 30
0.0
 11
4738.0483345770862798
 21
205.4687449212736965
 31
0.0
  0
LINE
  5
A45D
  8
0
 10
4766.5693464080068225
 20
205.4752818449736935
 30
0.0
 11
4766.8253345770854139
 21
205.4752818449736935
 31
0.0
  0
LINE
  5
A45E
  8
0
 10
4738.1143345770851738
 20
205.4802449212737088
 30
0.0
 11
4738.3963345770844171
 21
205.4802449212737088
 31
0.0
  0
LINE
  5
A45F
  8
0
 10
4738.4163345770848537
 20
205.4802449212737088
 30
0.0
 11
4738.4863345770845626
 21
205.4802449212737088
 31
0.0
  0
LINE
  5
A460
  8
0
 10
4738.5063345770849992
 20
205.4802449212737088
 30
0.0
 11
4738.5763345770847081
 21
205.4802449212737088
 31
0.0
  0
LINE
  5
A461
  8
0
 10
4766.2733345770857341
 20
205.4802449212737088
 30
0.0
 11
4766.3433345770863525
 21
205.4802449212737088
 31
0.0
  0
LINE
  5
A462
  8
0
 10
4766.3633345770849701
 20
205.4802449212737088
 30
0.0
 11
4766.4333345770855885
 21
205.4802449212737088
 31
0.0
  0
LINE
  5
A463
  8
0
 10
4738.5963345770851447
 20
205.4944410520737108
 30
0.0
 11
4738.2611635388848299
 21
205.4944410520737108
 31
0.0
  0
LINE
  5
A464
  8
0
 10
4766.6387504920840001
 20
205.4981022173737131
 30
0.0
 11
4766.2533345770852975
 21
205.4981022173737131
 31
0.0
  0
LINE
  5
A465
  8
0
 10
4738.5963345770851447
 20
205.4981022173737131
 30
0.0
 11
4738.2109186620864421
 21
205.4981022173737131
 31
0.0
  0
LINE
  5
A466
  8
0
 10
4766.6720944499857069
 20
205.5154196036737062
 30
0.0
 11
4766.2533345770852975
 21
205.5154196036737062
 31
0.0
  0
LINE
  5
A467
  8
0
 10
4738.5963345770851447
 20
205.5154196036737062
 30
0.0
 11
4738.1775747041847353
 21
205.5154196036737062
 31
0.0
  0
LINE
  5
A468
  8
0
 10
4766.8253345770854139
 20
205.5272449212737058
 30
0.0
 11
4766.6783444499842517
 21
205.5272449212737058
 31
0.0
  0
LINE
  5
A469
  8
0
 10
4766.2533345770852975
 20
205.5482449212736924
 30
0.0
 11
4738.5963345770851447
 21
205.5482449212736924
 31
0.0
  0
LINE
  5
A46A
  8
0
 10
4738.5963345770851447
 20
205.564244921273712
 30
0.0
 11
4766.2533345770852975
 21
205.564244921273712
 31
0.0
  0
LINE
  5
A46B
  8
0
 10
4766.2533345770852975
 20
205.6642449212737063
 30
0.0
 11
4738.5963345770851447
 21
205.6642449212737063
 31
0.0
  0
LINE
  5
A46C
  8
0
 10
4738.5963345770851447
 20
205.6802449212736974
 30
0.0
 11
4766.2533345770852975
 21
205.6802449212736974
 31
0.0
  0
LINE
  5
A46D
  8
0
 10
4766.2533345770852975
 20
205.6962449212736885
 30
0.0
 11
4738.5963345770851447
 21
205.6962449212736885
 31
0.0
  0
LINE
  5
A46E
  8
0
 10
4766.6783444499842517
 20
205.7142449212736892
 30
0.0
 11
4766.8253345770854139
 21
205.7142449212736892
 31
0.0
  0
LINE
  5
A46F
  8
0
 10
4738.5963345770851447
 20
205.7542449212737097
 30
0.0
 11
4766.2533345770852975
 21
205.7542449212737097
 31
0.0
  0
LINE
  5
A470
  8
0
 10
4766.8253345770854139
 20
205.7672253323736982
 30
0.0
 11
4766.6683617183762181
 21
205.7672253323736982
 31
0.0
  0
LINE
  5
A471
  8
0
 10
4766.2533345770852975
 20
205.7632449212736958
 30
0.0
 11
4738.5963345770851447
 21
205.7632449212736958
 31
0.0
  0
LINE
  5
A472
  8
0
 10
4738.1775747041847353
 20
205.7650702387736885
 30
0.0
 11
4738.5963345770851447
 21
205.7650702387736885
 31
0.0
  0
LINE
  5
A473
  8
0
 10
4766.2533345770852975
 20
205.7650702387736885
 30
0.0
 11
4766.6720944499857069
 21
205.7650702387736885
 31
0.0
  0
LINE
  5
A474
  8
0
 10
4738.2099913085849039
 20
205.7818522173737108
 30
0.0
 11
4738.5963345770851447
 21
205.7818522173737108
 31
0.0
  0
LINE
  5
A475
  8
0
 10
4766.2533345770852975
 20
205.7818522173737108
 30
0.0
 11
4766.6396778455846288
 21
205.7818522173737108
 31
0.0
  0
LINE
  5
A476
  8
0
 10
4738.2606281310863778
 20
205.7855133825736971
 30
0.0
 11
4738.5963345770851447
 21
205.7855133825736971
 31
0.0
  0
LINE
  5
A477
  8
0
 10
4766.4333345770855885
 20
205.8002449212737019
 30
0.0
 11
4766.3633345770849701
 21
205.8002449212737019
 31
0.0
  0
LINE
  5
A478
  8
0
 10
4766.3433345770863525
 20
205.8002449212737019
 30
0.0
 11
4766.2733345770857341
 21
205.8002449212737019
 31
0.0
  0
LINE
  5
A479
  8
0
 10
4738.5763345770847081
 20
205.8002449212737019
 30
0.0
 11
4738.5063345770849992
 21
205.8002449212737019
 31
0.0
  0
LINE
  5
A47A
  8
0
 10
4738.4863345770845626
 20
205.8002449212737019
 30
0.0
 11
4738.4163345770848537
 21
205.8002449212737019
 31
0.0
  0
LINE
  5
A47B
  8
0
 10
4738.3963345770844171
 20
205.8002449212737019
 30
0.0
 11
4738.1143345770851738
 21
205.8002449212737019
 31
0.0
  0
LINE
  5
A47C
  8
0
 10
4738.0483345770862798
 20
205.8117449212736858
 30
0.0
 11
4737.9723345770862579
 21
205.8117449212736858
 31
0.0
  0
LINE
  5
A47D
  8
0
 10
4767.1295944616840643
 20
205.8342449212736938
 30
0.0
 11
4766.9053345770853412
 21
205.8342449212736938
 31
0.0
  0
LINE
  5
A47E
  8
0
 10
4766.8393345770864471
 20
205.8342449212736938
 30
0.0
 11
4766.4613345770849264
 21
205.8342449212736938
 31
0.0
  0
LINE
  5
A47F
  8
0
 10
4766.2533345770852975
 20
205.8456890609737115
 30
0.0
 11
4738.5963345770851447
 21
205.8456890609737115
 31
0.0
  0
LINE
  5
A480
  8
0
 10
4738.5963345770851447
 20
205.8553049050736945
 30
0.0
 11
4766.2533345770852975
 21
205.8553049050736945
 31
0.0
  0
LINE
  5
A481
  8
0
 10
4737.9738345770847445
 20
205.8617449212736972
 30
0.0
 11
4738.3738345770843807
 21
205.8617449212736972
 31
0.0
  0
LINE
  5
A482
  8
0
 10
4737.9643345770846281
 20
205.8617449212736972
 30
0.0
 11
4738.5048345770846936
 21
205.8617449212736972
 31
0.0
  0
LINE
  5
A483
  8
0
 10
4766.3293345770853193
 20
205.8842449212737051
 30
0.0
 11
4767.1404228888850412
 21
205.8842449212737051
 31
0.0
  0
LINE
  5
A484
  8
0
 10
4737.7473345770849846
 20
205.8927449212737031
 30
0.0
 11
4736.4553345770864325
 21
205.8927449212737031
 31
0.0
  0
LINE
  5
A485
  8
0
 10
4767.4301907660847064
 20
205.8927449212737031
 30
0.0
 11
4768.8523345770845481
 21
205.8927449212737031
 31
0.0
  0
LINE
  5
A486
  8
0
 10
4738.3738345770843807
 20
205.9067449212737131
 30
0.0
 11
4738.3263345770847081
 21
205.9067449212737131
 31
0.0
  0
LINE
  5
A487
  8
0
 10
4738.0213345770853266
 20
205.9067449212737131
 30
0.0
 11
4737.9738345770847445
 21
205.9067449212737131
 31
0.0
  0
LINE
  5
A488
  8
0
 10
4738.5048345770846936
 20
205.9267449212736949
 30
0.0
 11
4738.3623345770847664
 21
205.9267449212736949
 31
0.0
  0
LINE
  5
A489
  8
0
 10
4738.005334577085705
 20
205.9267449212736949
 30
0.0
 11
4737.9643345770846281
 21
205.9267449212736949
 31
0.0
  0
LINE
  5
A48A
  8
0
 10
4738.0213345770853266
 20
205.9522943316736985
 30
0.0
 11
4738.0746743230856737
 21
205.9522943316736985
 31
0.0
  0
LINE
  5
A48B
  8
0
 10
4738.0919948310847758
 20
205.9522943316736985
 30
0.0
 11
4738.3263345770847081
 21
205.9522943316736985
 31
0.0
  0
LINE
  5
A48C
  8
0
 10
4768.8523345770845481
 20
205.9527449212737054
 30
0.0
 11
4768.3826482855856739
 21
205.9527449212737054
 31
0.0
  0
LINE
  5
A48D
  8
0
 10
4768.8743345770853921
 20
205.9527449212737054
 30
0.0
 11
4767.5203345770851229
 21
205.9527449212737054
 31
0.0
  0
LINE
  5
A48E
  8
0
 10
4768.3440208685842663
 20
205.9527449212737054
 30
0.0
 11
4767.4253345770848682
 21
205.9527449212737054
 31
0.0
  0
LINE
  5
A48F
  8
0
 10
4736.4553345770864325
 20
205.9527449212737054
 30
0.0
 11
4736.9250208685853067
 21
205.9527449212737054
 31
0.0
  0
LINE
  5
A490
  8
0
 10
4736.3203345770862143
 20
205.9527449212737054
 30
0.0
 11
4737.6743345770846645
 21
205.9527449212737054
 31
0.0
  0
LINE
  5
A491
  8
0
 10
4736.9636482855848953
 20
205.9527449212737054
 30
0.0
 11
4737.7817071600857162
 21
205.9527449212737054
 31
0.0
  0
LINE
  5
A492
  8
0
 10
4766.2533345770852975
 20
205.9551695760737005
 30
0.0
 11
4738.5963345770851447
 21
205.9551695760737005
 31
0.0
  0
LINE
  5
A493
  8
0
 10
4738.3953345770851229
 20
205.9722943316737087
 30
0.0
 11
4738.3623345770847664
 21
205.9722943316737087
 31
0.0
  0
LINE
  5
A494
  8
0
 10
4738.005334577085705
 20
205.9722943316737087
 30
0.0
 11
4737.9202220826846315
 21
205.9722943316737087
 31
0.0
  0
LINE
  5
A495
  8
0
 10
4768.9523345770849119
 20
205.9727449212736872
 30
0.0
 11
4768.9403345770851956
 21
205.9727449212736872
 31
0.0
  0
LINE
  5
A496
  8
0
 10
4736.242334577083966
 20
205.9727449212736872
 30
0.0
 11
4736.2543345770845917
 21
205.9727449212736872
 31
0.0
  0
LINE
  5
A497
  8
0
 10
4738.4191404901848728
 20
205.9767449212737063
 30
0.0
 11
4738.538334577085152
 21
205.9767449212737063
 31
0.0
  0
LINE
  5
A498
  8
0
 10
4738.5963345770851447
 20
205.991530600373693
 30
0.0
 11
4766.2533345770852975
 21
205.991530600373693
 31
0.0
  0
LINE
  5
A499
  8
0
 10
4768.9723345770844389
 20
206.0127449212737076
 30
0.0
 11
4768.9523345770849119
 21
206.0127449212737076
 31
0.0
  0
LINE
  5
A49A
  8
0
 10
4767.5203345770851229
 20
206.0127449212737076
 30
0.0
 11
4766.321334577084599
 21
206.0127449212737076
 31
0.0
  0
LINE
  5
A49B
  8
0
 10
4738.5463345770849628
 20
206.0127449212737076
 30
0.0
 11
4738.4561818136853617
 21
206.0127449212737076
 31
0.0
  0
LINE
  5
A49C
  8
0
 10
4738.3476961512860726
 20
206.0127449212737076
 30
0.0
 11
4738.3263345770847081
 21
206.0127449212737076
 31
0.0
  0
LINE
  5
A49D
  8
0
 10
4738.0213345770853266
 20
206.0127449212737076
 30
0.0
 11
4738.0199730062840899
 21
206.0127449212737076
 31
0.0
  0
LINE
  5
A49E
  8
0
 10
4737.8510487742851183
 20
206.0127449212737076
 30
0.0
 11
4737.6743345770846645
 21
206.0127449212737076
 31
0.0
  0
LINE
  5
A49F
  8
0
 10
4737.6743345770846645
 20
206.0127449212737076
 30
0.0
 11
4736.242334577083966
 21
206.0127449212737076
 31
0.0
  0
LINE
  5
A4A0
  8
0
 10
4736.242334577083966
 20
206.0127449212737076
 30
0.0
 11
4736.2223345770853484
 21
206.0127449212737076
 31
0.0
  0
LINE
  5
A4A1
  8
0
 10
4767.5203345770851229
 20
206.0127449212737076
 30
0.0
 11
4768.9523345770849119
 21
206.0127449212737076
 31
0.0
  0
LINE
  5
A4A2
  8
0
 10
4737.885222082684777
 20
206.0222943316736917
 30
0.0
 11
4737.8983345770848246
 21
206.0222943316736917
 31
0.0
  0
LINE
  5
A4A3
  8
0
 10
4737.9643345770846281
 20
206.0222943316736917
 30
0.0
 11
4738.005334577085705
 21
206.0222943316736917
 31
0.0
  0
LINE
  5
A4A4
  8
0
 10
4738.3623345770847664
 20
206.0222943316736917
 30
0.0
 11
4738.4033345770849337
 21
206.0222943316736917
 31
0.0
  0
LINE
  5
A4A5
  8
0
 10
4736.2223345770853484
 20
206.0287449212736988
 30
0.0
 11
4737.9061831009848902
 21
206.0287449212736988
 31
0.0
  0
LINE
  5
A4A6
  8
0
 10
4737.9563345770848173
 20
206.0287449212736988
 30
0.0
 11
4738.0213345770853266
 21
206.0287449212736988
 31
0.0
  0
LINE
  5
A4A7
  8
0
 10
4738.3263345770847081
 20
206.0287449212736988
 30
0.0
 11
4738.411334577085654
 21
206.0287449212736988
 31
0.0
  0
LINE
  5
A4A8
  8
0
 10
4738.4606269816849817
 20
206.0287449212736988
 30
0.0
 11
4738.5463345770849628
 21
206.0287449212736988
 31
0.0
  0
LINE
  5
A4A9
  8
0
 10
4766.321334577084599
 20
206.0287449212736988
 30
0.0
 11
4768.9723345770844389
 21
206.0287449212736988
 31
0.0
  0
LINE
  5
A4AA
  8
0
 10
4766.2533345770852975
 20
206.0341401482737069
 30
0.0
 11
4738.5963345770851447
 21
206.0341401482737069
 31
0.0
  0
LINE
  5
A4AB
  8
0
 10
4737.9738345770847445
 20
206.0422943316737019
 30
0.0
 11
4738.0213345770853266
 21
206.0422943316737019
 31
0.0
  0
LINE
  5
A4AC
  8
0
 10
4738.3263345770847081
 20
206.0422943316737019
 30
0.0
 11
4738.3738345770843807
 21
206.0422943316737019
 31
0.0
  0
LINE
  5
A4AD
  8
0
 10
4738.3738345770843807
 20
206.0872943316736894
 30
0.0
 11
4737.9738345770847445
 21
206.0872943316736894
 31
0.0
  0
LINE
  5
A4AE
  8
0
 10
4738.4033345770849337
 20
206.0872943316736894
 30
0.0
 11
4737.9643345770846281
 21
206.0872943316736894
 31
0.0
  0
LINE
  5
A4AF
  8
0
 10
4766.2533345770852975
 20
206.1221990038737033
 30
0.0
 11
4738.5963345770851447
 21
206.1221990038737033
 31
0.0
  0
LINE
  5
A4B0
  8
0
 10
4737.9723345770862579
 20
206.1372943316737008
 30
0.0
 11
4738.3953345770851229
 21
206.1372943316737008
 31
0.0
  0
LINE
  5
A4B1
  8
0
 10
4738.5963345770851447
 20
206.1648085518737048
 30
0.0
 11
4766.2533345770852975
 21
206.1648085518737048
 31
0.0
  0
LINE
  5
A4B2
  8
0
 10
4738.5963345770851447
 20
206.2122203142737078
 30
0.0
 11
4766.2533345770852975
 21
206.2122203142737078
 31
0.0
  0
LINE
  5
A4B3
  8
0
 10
4766.2533345770852975
 20
206.3510241198736992
 30
0.0
 11
4738.5963345770851447
 21
206.3510241198736992
 31
0.0
  0
LINE
  5
A4B4
  8
0
 10
4739.1633345770842425
 20
206.4362449212736976
 30
0.0
 11
4739.1596482855857175
 21
206.4362449212736976
 31
0.0
  0
LINE
  5
A4B5
  8
0
 10
4738.6090208685864127
 20
206.4362449212736976
 30
0.0
 11
4738.6043345770849555
 21
206.4362449212736976
 31
0.0
  0
LINE
  5
A4B6
  8
0
 10
4738.6123345770847664
 20
206.486244921273709
 30
0.0
 11
4739.1633345770842425
 21
206.486244921273709
 31
0.0
  0
LINE
  5
A4B7
  8
0
 10
4766.6720944499857069
 20
205.5154196036737062
 30
0.0
 11
4766.6450004920852734
 21
205.4997768997737069
 31
0.0
  0
LINE
  5
A4B8
  8
0
 10
4766.6459278455849926
 20
205.780177534873701
 30
0.0
 11
4766.6720944499857069
 21
205.7650702387736885
 31
0.0
  0
LINE
  5
A4B9
  8
0
 10
4766.5885056152856123
 20
205.4944410520737108
 30
0.0
 11
4766.5146300651476849
 21
205.4205655026219972
 31
0.0
  0
LINE
  5
A4BA
  8
0
 10
4766.540309484385034
 20
205.8342449212736938
 30
0.0
 11
4766.5890410230849739
 21
205.7855133825736971
 31
0.0
  0
LINE
  5
A4BB
  8
0
 10
4767.1890637792848793
 20
205.7780893121737051
 30
0.0
 11
4767.1352513159854425
 21
205.8319017754737104
 31
0.0
  0
LINE
  5
A4BC
  8
0
 10
4767.1973177551863046
 20
205.4398405998736905
 30
0.0
 11
4767.2303259069849446
 21
205.4728487517737108
 31
0.0
  0
LINE
  5
A4BD
  8
0
 10
4768.3689914313854388
 20
205.9424017754737122
 30
0.0
 11
4768.3769914313852496
 21
205.9504017754736935
 31
0.0
  0
LINE
  5
A4BE
  8
0
 10
4767.2303247152840413
 20
205.8196422824736942
 30
0.0
 11
4767.1973177551863046
 21
205.8526492425737047
 31
0.0
  0
LINE
  5
A4BF
  8
0
 10
4767.1870919363846042
 20
205.864913968773692
 30
0.0
 11
4767.1936552643846881
 21
205.8583506407736934
 31
0.0
  0
LINE
  5
A4C0
  8
0
 10
4765.321334577086418
 20
206.1221990038737033
 30
0.0
 11
4765.321334577086418
 21
206.0341401482737069
 31
0.0
  0
LINE
  5
A4C1
  8
0
 10
4765.3313345770857268
 20
206.1221990038737033
 30
0.0
 11
4765.3313345770857268
 21
206.0341401482737069
 31
0.0
  0
LINE
  5
A4C2
  8
0
 10
4765.543834577085363
 20
206.0341401482737069
 30
0.0
 11
4765.543834577085363
 21
206.1221990038737033
 31
0.0
  0
LINE
  5
A4C3
  8
0
 10
4765.571334577084599
 20
206.1221990038737033
 30
0.0
 11
4765.571334577084599
 21
206.0341401482737069
 31
0.0
  0
LINE
  5
A4C4
  8
0
 10
4768.3496777228856445
 20
205.9504017754736935
 30
0.0
 11
4768.3576777228845458
 21
205.9424017754737122
 31
0.0
  0
LINE
  5
A4C5
  8
0
 10
4766.2533345770852975
 20
205.4122449212736967
 30
0.0
 11
4766.2533345770852975
 21
205.4622449212737081
 31
0.0
  0
LINE
  5
A4C6
  8
0
 10
4766.2533345770852975
 20
205.4515969361737007
 30
0.0
 11
4766.2533345770852975
 21
205.8002449212737019
 31
0.0
  0
LINE
  5
A4C7
  8
0
 10
4766.2533345770852975
 20
205.8002449212737019
 30
0.0
 11
4766.2533345770852975
 21
206.3502449212737133
 31
0.0
  0
LINE
  5
A4C8
  8
0
 10
4766.321334577084599
 20
206.3502449212737133
 30
0.0
 11
4766.321334577084599
 21
205.8922449212736865
 31
0.0
  0
LINE
  5
A4C9
  8
0
 10
4766.4533345770851156
 20
205.8262449212737124
 30
0.0
 11
4766.4533345770851156
 21
205.8002449212737019
 31
0.0
  0
LINE
  5
A4CA
  8
0
 10
4766.4533345770851156
 20
205.4802449212737088
 30
0.0
 11
4766.4533345770851156
 21
205.4122449212736967
 31
0.0
  0
LINE
  5
A4CB
  8
0
 10
4766.6783444499842517
 20
205.7542449212737097
 30
0.0
 11
4766.6783444499842517
 21
205.526244921273701
 31
0.0
  0
LINE
  5
A4CC
  8
0
 10
4766.8253345770854139
 20
205.4752818449736935
 30
0.0
 11
4766.8253345770854139
 21
205.7672253323736982
 31
0.0
  0
LINE
  5
A4CD
  8
0
 10
4766.8473345770853484
 20
205.4122449212736967
 30
0.0
 11
4766.8473345770853484
 21
205.8262449212737124
 31
0.0
  0
LINE
  5
A4CE
  8
0
 10
4766.8973345770864398
 20
205.8262449212737124
 30
0.0
 11
4766.8973345770864398
 21
205.4202449212737065
 31
0.0
  0
LINE
  5
A4CF
  8
0
 10
4767.5043345770845917
 20
205.3487449212736919
 30
0.0
 11
4767.5043345770845917
 21
205.3537449212736874
 31
0.0
  0
LINE
  5
A4D0
  8
0
 10
4767.5043345770845917
 20
205.9687449212736965
 30
0.0
 11
4767.5043345770845917
 21
205.9967449212736881
 31
0.0
  0
LINE
  5
A4D1
  8
0
 10
4767.5543345770847736
 20
205.3537449212736874
 30
0.0
 11
4767.5543345770847736
 21
205.345744921273706
 31
0.0
  0
LINE
  5
A4D2
  8
0
 10
4768.8823345770842934
 20
205.345744921273706
 30
0.0
 11
4768.8823345770842934
 21
205.9447449212736956
 31
0.0
  0
LINE
  5
A4D3
  8
0
 10
4768.9323345770853848
 20
205.9647449212737058
 30
0.0
 11
4768.9323345770853848
 21
205.3307449212736913
 31
0.0
  0
LINE
  5
A4D4
  8
0
 10
4768.9723345770844389
 20
205.2027449212737054
 30
0.0
 11
4768.9723345770844389
 21
206.0287449212736988
 31
0.0
  0
ARC
  5
A4D5
  8
0
 10
4736.5409936949854455
 20
205.5248214022736875
 30
0.0
 40
0.1613130696
 50
229.2826887808984964
 51
262.9999999994952873
  0
ARC
  5
A4D6
  8
0
 10
4736.5409936949854455
 20
205.5248214022736875
 30
0.0
 40
0.1013130696
 50
229.2826887797990878
 51
263.000000000124885
  0
ARC
  5
A4D7
  8
0
 10
4737.6243345770853921
 20
205.3487449212736919
 30
0.0
 40
0.066
 50
270.0
 51
0.0
  0
ARC
  5
A4D8
  8
0
 10
4736.7323713099849556
 20
205.4052943316737014
 30
0.0
 40
0.066
 50
263.0000000004928893
 51
270.0
  0
ARC
  5
A4D9
  8
0
 10
4736.4553345770864325
 20
205.4252943316737117
 30
0.0
 40
0.03
 50
49.2826887841166368
 51
229.2826887815089094
  0
ARC
  5
A4DA
  8
0
 10
4737.6653345770846499
 20
205.3537449212736874
 30
0.0
 40
0.025
 50
0.0
 51
180.0
  0
ARC
  5
A4DB
  8
0
 10
4736.242334577083966
 20
205.3027449212736997
 30
0.0
 40
0.02
 50
90.0
 51
270.0
  0
ARC
  5
A4DC
  8
0
 10
4736.7293131789856488
 20
205.4157449212736992
 30
0.0
 40
0.016
 50
262.9999999927754857
 51
270.0
  0
ARC
  5
A4DD
  8
0
 10
4736.3203345770862143
 20
205.345744921273706
 30
0.0
 40
0.008
 50
180.0
 51
270.0
  0
ARC
  5
A4DE
  8
0
 10
4737.6323345770842934
 20
205.345744921273706
 30
0.0
 40
0.008
 50
270.0
 51
0.0
  0
ARC
  5
A4DF
  8
0
 10
4736.2543345770845917
 20
205.3307449212736913
 30
0.0
 40
0.008
 50
270.0
 51
0.0
  0
ARC
  5
A4E0
  8
0
 10
4738.6123345770847664
 20
204.8602449212737042
 30
0.0
 40
0.066
 50
180.0
 51
270.0
  0
ARC
  5
A4E1
  8
0
 10
4739.1633345770842425
 20
204.8192449212737074
 30
0.0
 40
0.025
 50
270.0
 51
90.0
  0
ARC
  5
A4E2
  8
0
 10
4739.1596482855857175
 20
204.8362449212737033
 30
0.0
 40
0.008
 50
90.0
 51
135.0000000008093934
  0
ARC
  5
A4E3
  8
0
 10
4739.1403345770850137
 20
204.8395586297737054
 30
0.0
 40
0.008
 50
224.9999999991904929
 51
315.0000000008095071
  0
ARC
  5
A4E4
  8
0
 10
4739.1243345770853921
 20
204.8329312127737012
 30
0.0
 40
0.008
 50
44.9999999991905
 51
135.0000000008093934
  0
ARC
  5
A4E5
  8
0
 10
4739.1083345770848609
 20
204.8395586297737054
 30
0.0
 40
0.008
 50
224.9999999991904929
 51
315.0000000008095071
  0
ARC
  5
A4E6
  8
0
 10
4739.0923345770852393
 20
204.8329312127737012
 30
0.0
 40
0.008
 50
44.9999999991905
 51
135.0000000008093934
  0
ARC
  5
A4E7
  8
0
 10
4739.0763345770847081
 20
204.8395586297737054
 30
0.0
 40
0.008
 50
224.9999999991904929
 51
315.0000000008095071
  0
ARC
  5
A4E8
  8
0
 10
4739.0603345770850865
 20
204.8329312127737012
 30
0.0
 40
0.008
 50
44.9999999991905
 51
135.0000000008093934
  0
ARC
  5
A4E9
  8
0
 10
4739.0443345770845553
 20
204.8395586297737054
 30
0.0
 40
0.008
 50
224.9999999991904929
 51
315.0000000008095071
  0
ARC
  5
A4EA
  8
0
 10
4739.0283345770840242
 20
204.8329312127737012
 30
0.0
 40
0.008
 50
44.9999999991905
 51
135.0000000008093934
  0
ARC
  5
A4EB
  8
0
 10
4739.012334577085312
 20
204.8395586297737054
 30
0.0
 40
0.008
 50
224.9999999991904929
 51
315.0000000008095071
  0
ARC
  5
A4EC
  8
0
 10
4738.9963345770856904
 20
204.8329312127737012
 30
0.0
 40
0.008
 50
44.9999999991905
 51
135.0000000008093934
  0
ARC
  5
A4ED
  8
0
 10
4738.9803345770842498
 20
204.8395586297737054
 30
0.0
 40
0.008
 50
224.9999999991904929
 51
315.0000000008095071
  0
ARC
  5
A4EE
  8
0
 10
4738.9643345770864471
 20
204.8329312127737012
 30
0.0
 40
0.008
 50
44.9999999991905
 51
135.0000000008093934
  0
ARC
  5
A4EF
  8
0
 10
4738.948334577084097
 20
204.8395586297737054
 30
0.0
 40
0.008
 50
224.9999999991904929
 51
315.0000000008095071
  0
ARC
  5
A4F0
  8
0
 10
4738.9323345770853848
 20
204.8329312127737012
 30
0.0
 40
0.008
 50
44.9999999991905
 51
135.0000000008093934
  0
ARC
  5
A4F1
  8
0
 10
4738.9163345770857632
 20
204.8395586297737054
 30
0.0
 40
0.008
 50
224.9999999991904929
 51
315.0000000008095071
  0
ARC
  5
A4F2
  8
0
 10
4738.900334577085232
 20
204.8329312127737012
 30
0.0
 40
0.008
 50
44.9999999991905
 51
135.0000000008093934
  0
ARC
  5
A4F3
  8
0
 10
4738.8843345770847009
 20
204.8395586297737054
 30
0.0
 40
0.008
 50
224.9999999991904929
 51
315.0000000008095071
  0
ARC
  5
A4F4
  8
0
 10
4738.8683345770850792
 20
204.8329312127737012
 30
0.0
 40
0.008
 50
44.9999999991905
 51
135.0000000008093934
  0
ARC
  5
A4F5
  8
0
 10
4738.8523345770845481
 20
204.8395586297737054
 30
0.0
 40
0.008
 50
224.9999999991904929
 51
315.0000000008095071
  0
ARC
  5
A4F6
  8
0
 10
4738.8363345770849264
 20
204.8329312127737012
 30
0.0
 40
0.008
 50
44.9999999991905
 51
135.0000000008093934
  0
ARC
  5
A4F7
  8
0
 10
4738.8203345770853048
 20
204.8395586297737054
 30
0.0
 40
0.008
 50
224.9999999991904929
 51
315.0000000008095071
  0
ARC
  5
A4F8
  8
0
 10
4738.8043345770856831
 20
204.8329312127737012
 30
0.0
 40
0.008
 50
44.9999999991905
 51
135.0000000008093934
  0
ARC
  5
A4F9
  8
0
 10
4738.788334577085152
 20
204.8395586297737054
 30
0.0
 40
0.008
 50
224.9999999991904929
 51
315.0000000008095071
  0
ARC
  5
A4FA
  8
0
 10
4738.7723345770864398
 20
204.8329312127737012
 30
0.0
 40
0.008
 50
44.9999999991905
 51
135.0000000008093934
  0
ARC
  5
A4FB
  8
0
 10
4738.7563345770849992
 20
204.8395586297737054
 30
0.0
 40
0.008
 50
224.9999999991904929
 51
315.0000000008095071
  0
ARC
  5
A4FC
  8
0
 10
4738.7403345770853775
 20
204.8329312127737012
 30
0.0
 40
0.008
 50
44.9999999991905
 51
135.0000000008093934
  0
ARC
  5
A4FD
  8
0
 10
4738.7243345770848464
 20
204.8395586297737054
 30
0.0
 40
0.008
 50
224.9999999991904929
 51
315.0000000008095071
  0
ARC
  5
A4FE
  8
0
 10
4738.7083345770852247
 20
204.8329312127737012
 30
0.0
 40
0.008
 50
44.9999999991905
 51
135.0000000008093934
  0
ARC
  5
A4FF
  8
0
 10
4738.6923345770856031
 20
204.8395586297737054
 30
0.0
 40
0.008
 50
224.9999999991904929
 51
315.0000000008095071
  0
ARC
  5
A500
  8
0
 10
4738.6763345770850719
 20
204.8329312127737012
 30
0.0
 40
0.008
 50
44.9999999991905
 51
135.0000000008093934
  0
ARC
  5
A501
  8
0
 10
4738.6603345770863598
 20
204.8395586297737054
 30
0.0
 40
0.008
 50
224.9999999991904929
 51
315.0000000008095071
  0
ARC
  5
A502
  8
0
 10
4738.6443345770849191
 20
204.8329312127737012
 30
0.0
 40
0.008
 50
44.9999999991905
 51
135.0000000008093934
  0
ARC
  5
A503
  8
0
 10
4738.6283345770852975
 20
204.8395586297737054
 30
0.0
 40
0.008
 50
224.9999999991904929
 51
315.0000000008095071
  0
ARC
  5
A504
  8
0
 10
4738.6090208685864127
 20
204.8362449212737033
 30
0.0
 40
0.008
 50
44.9999999991029966
 51
90.0
  0
ARC
  5
A505
  8
0
 10
4738.6043345770849555
 20
204.8522449212736944
 30
0.0
 40
0.008
 50
180.0
 51
270.0
  0
ARC
  5
A506
  8
0
 10
4737.7473345770849846
 20
205.4052943316737014
 30
0.0
 40
0.066
 50
270.0
 51
0.0
  0
ARC
  5
A507
  8
0
 10
4737.9663345770850356
 20
205.4437449212736908
 30
0.0
 40
0.025
 50
90.0
 51
270.0
  0
ARC
  5
A508
  8
0
 10
4737.7473345770849846
 20
205.4157449212736992
 30
0.0
 40
0.016
 50
270.0
 51
0.0
  0
ARC
  5
A509
  8
0
 10
4738.1838247041850991
 20
205.526244921273701
 30
0.0
 40
0.0125
 50
179.9999999998989892
 51
239.9999999998848068
  0
ARC
  5
A50A
  8
0
 10
4738.2109186620864421
 20
205.5106022173737017
 30
0.0
 40
0.0125
 50
239.9999999998848068
 51
270.0
  0
ARC
  5
A50B
  8
0
 10
4738.252324704185412
 20
205.485602217373696
 30
0.0
 40
0.0125
 50
44.9999999996983107
 51
90.0
  0
ARC
  5
A50C
  8
0
 10
4738.5863345770840169
 20
205.4802449212737088
 30
0.0
 40
0.01
 50
0.0
 51
180.0
  0
ARC
  5
A50D
  8
0
 10
4738.4963345770847809
 20
205.4802449212737088
 30
0.0
 40
0.01
 50
0.0
 51
180.0
  0
ARC
  5
A50E
  8
0
 10
4738.4063345770846354
 20
205.4802449212737088
 30
0.0
 40
0.01
 50
0.0
 51
180.0
  0
ARC
  5
A50F
  8
0
 10
4738.0483345770862798
 20
205.4767449212737063
 30
0.0
 40
0.008
 50
270.0
 51
0.0
  0
ARC
  5
A510
  8
0
 10
4738.538334577085152
 20
205.4107449212737038
 30
0.0
 40
0.008
 50
0.0
 51
90.0
  0
ARC
  5
A511
  8
0
 10
4738.1143345770851738
 20
205.4882449212736901
 30
0.0
 40
0.008
 50
180.0
 51
270.0
  0
ARC
  5
A512
  8
0
 10
4736.4553345770864325
 20
205.9227449212737042
 30
0.0
 40
0.03
 50
90.0
 51
270.0
  0
ARC
  5
A513
  8
0
 10
4736.242334577083966
 20
205.9927449212736974
 30
0.0
 40
0.02
 50
90.0
 51
270.0
  0
ARC
  5
A514
  8
0
 10
4737.6743345770846645
 20
205.9967449212736881
 30
0.0
 40
0.016
 50
0.0
 51
90.0
  0
ARC
  5
A515
  8
0
 10
4737.6743345770846645
 20
205.9687449212736965
 30
0.0
 40
0.016
 50
270.0
 51
0.0
  0
ARC
  5
A516
  8
0
 10
4736.2543345770845917
 20
205.9647449212737058
 30
0.0
 40
0.008
 50
0.0
 51
90.0
  0
ARC
  5
A517
  8
0
 10
4736.3203345770862143
 20
205.9447449212736956
 30
0.0
 40
0.008
 50
90.0
 51
180.0
  0
ARC
  5
A518
  8
0
 10
4736.944334577085101
 20
205.9480586297736977
 30
0.0
 40
0.008
 50
224.9999999991904929
 51
315.0000000008095071
  0
ARC
  5
A519
  8
0
 10
4736.9250208685853067
 20
205.9447449212736956
 30
0.0
 40
0.008
 50
44.9999999991905
 51
90.0
  0
ARC
  5
A51A
  8
0
 10
4736.9636482855848953
 20
205.9447449212736956
 30
0.0
 40
0.008
 50
90.0
 51
135.0000000008093934
  0
ARC
  5
A51B
  8
0
 10
4737.8793345770864107
 20
205.8654068260736949
 30
0.0
 40
0.066
 50
135.0000000003016964
 51
180.0
  0
ARC
  5
A51C
  8
0
 10
4737.9202220826846315
 20
205.9062943316737062
 30
0.0
 40
0.066
 50
90.0
 51
134.9999999997075122
  0
ARC
  5
A51D
  8
0
 10
4738.3953345770851229
 20
206.0382943316737112
 30
0.0
 40
0.066
 50
270.0
 51
0.0
  0
ARC
  5
A51E
  8
0
 10
4737.885222082684777
 20
205.9562943316736892
 30
0.0
 40
0.066
 50
90.0
 51
134.9999999997075122
  0
ARC
  5
A51F
  8
0
 10
4737.9723345770862579
 20
205.9107449212737038
 30
0.0
 40
0.066
 50
111.1448943942988024
 51
180.0
  0
ARC
  5
A520
  8
0
 10
4737.9723345770862579
 20
205.8777449212736883
 30
0.0
 40
0.066
 50
180.0
 51
270.0
  0
ARC
  5
A521
  8
0
 10
4738.5048345770846936
 20
205.894244921273696
 30
0.0
 40
0.0325
 50
270.0
 51
90.0
  0
ARC
  5
A522
  8
0
 10
4737.7473345770849846
 20
205.876744921273712
 30
0.0
 40
0.016
 50
0.0
 51
90.0
  0
ARC
  5
A523
  8
0
 10
4738.005334577085705
 20
205.9882943316736998
 30
0.0
 40
0.016
 50
270.0
 51
0.0
  0
ARC
  5
A524
  8
0
 10
4738.005334577085705
 20
206.0062943316737005
 30
0.0
 40
0.016
 50
0.0
 51
90.0
  0
ARC
  5
A525
  8
0
 10
4738.3623345770847664
 20
206.0062943316737005
 30
0.0
 40
0.016
 50
90.0
 51
180.0
  0
ARC
  5
A526
  8
0
 10
4738.3623345770847664
 20
205.9882943316736998
 30
0.0
 40
0.016
 50
180.0
 51
270.0
  0
ARC
  5
A527
  8
0
 10
4737.7817071600857162
 20
205.9687449212736965
 30
0.0
 40
0.016
 50
270.0
 51
315.0000000009833911
  0
ARC
  5
A528
  8
0
 10
4738.3623345770847664
 20
205.9607449212736867
 30
0.0
 40
0.016
 50
120.5559791405016057
 51
180.0
  0
ARC
  5
A529
  8
0
 10
4738.3623345770847664
 20
205.942744921273686
 30
0.0
 40
0.016
 50
180.0
 51
270.0
  0
ARC
  5
A52A
  8
0
 10
4738.005334577085705
 20
205.942744921273686
 30
0.0
 40
0.016
 50
270.0
 51
0.0
  0
ARC
  5
A52B
  8
0
 10
4738.005334577085705
 20
205.9607449212736867
 30
0.0
 40
0.016
 50
0.0
 51
59.4440157833839322
  0
ARC
  5
A52C
  8
0
 10
4738.1838247041850991
 20
205.7542449212737097
 30
0.0
 40
0.0125
 50
119.9999999999997016
 51
179.9999999998989892
  0
ARC
  5
A52D
  8
0
 10
4738.2099913085849039
 20
205.7693522173736937
 30
0.0
 40
0.0125
 50
90.0
 51
119.9999999999997016
  0
ARC
  5
A52E
  8
0
 10
4738.2517892963851409
 20
205.7943522173736994
 30
0.0
 40
0.0125
 50
270.0
 51
315.0000000006863274
  0
ARC
  5
A52F
  8
0
 10
4738.4063345770846354
 20
205.8002449212737019
 30
0.0
 40
0.01
 50
180.0
 51
0.0
  0
ARC
  5
A530
  8
0
 10
4738.5863345770840169
 20
205.8002449212737019
 30
0.0
 40
0.01
 50
180.0
 51
0.0
  0
ARC
  5
A531
  8
0
 10
4738.4963345770847809
 20
205.8002449212737019
 30
0.0
 40
0.01
 50
180.0
 51
0.0
  0
ARC
  5
A532
  8
0
 10
4737.9643345770846281
 20
206.0302943316737014
 30
0.0
 40
0.008
 50
180.0
 51
270.0
  0
ARC
  5
A533
  8
0
 10
4738.4033345770849337
 20
206.0302943316737014
 30
0.0
 40
0.008
 50
270.0
 51
0.0
  0
ARC
  5
A534
  8
0
 10
4737.8983345770848246
 20
206.0302943316737014
 30
0.0
 40
0.008
 50
270.0
 51
0.0
  0
ARC
  5
A535
  8
0
 10
4738.538334577085152
 20
205.9847449212736876
 30
0.0
 40
0.008
 50
270.0
 51
0.0
  0
ARC
  5
A536
  8
0
 10
4737.9643345770846281
 20
205.869744921273707
 30
0.0
 40
0.008
 50
180.0
 51
270.0
  0
ARC
  5
A537
  8
0
 10
4737.9643345770846281
 20
205.9187449212737135
 30
0.0
 40
0.008
 50
90.0
 51
180.0
  0
ARC
  5
A538
  8
0
 10
4738.0483345770862798
 20
205.8037449212737044
 30
0.0
 40
0.008
 50
0.0
 51
90.0
  0
ARC
  5
A539
  8
0
 10
4738.1143345770851738
 20
205.7922449212736922
 30
0.0
 40
0.008
 50
90.0
 51
180.0
  0
ARC
  5
A53A
  8
0
 10
4738.3953345770851229
 20
206.0712943316736983
 30
0.0
 40
0.066
 50
0.0
 51
90.0
  0
ARC
  5
A53B
  8
0
 10
4737.9723345770862579
 20
206.0712943316736983
 30
0.0
 40
0.066
 50
90.0
 51
180.0
  0
ARC
  5
A53C
  8
0
 10
4737.9643345770846281
 20
206.079294331673708
 30
0.0
 40
0.008
 50
90.0
 51
180.0
  0
ARC
  5
A53D
  8
0
 10
4738.4033345770849337
 20
206.079294331673708
 30
0.0
 40
0.008
 50
0.0
 51
90.0
  0
ARC
  5
A53E
  8
0
 10
4738.6123345770847664
 20
206.4202449212737065
 30
0.0
 40
0.066
 50
90.0
 51
180.0
  0
ARC
  5
A53F
  8
0
 10
4739.1633345770842425
 20
206.4612449212737033
 30
0.0
 40
0.025
 50
270.0
 51
90.0
  0
ARC
  5
A540
  8
0
 10
4738.8843345770847009
 20
206.4409312127737053
 30
0.0
 40
0.008
 50
44.9999999991905
 51
135.0000000008093934
  0
ARC
  5
A541
  8
0
 10
4738.900334577085232
 20
206.4475586297737095
 30
0.0
 40
0.008
 50
224.9999999991904929
 51
315.0000000008095071
  0
ARC
  5
A542
  8
0
 10
4738.9163345770857632
 20
206.4409312127737053
 30
0.0
 40
0.008
 50
44.9999999991905
 51
135.0000000008093934
  0
ARC
  5
A543
  8
0
 10
4738.9323345770853848
 20
206.4475586297737095
 30
0.0
 40
0.008
 50
224.9999999991904929
 51
315.0000000008095071
  0
ARC
  5
A544
  8
0
 10
4738.948334577084097
 20
206.4409312127737053
 30
0.0
 40
0.008
 50
44.9999999991905
 51
135.0000000008093934
  0
ARC
  5
A545
  8
0
 10
4738.9643345770864471
 20
206.4475586297737095
 30
0.0
 40
0.008
 50
224.9999999991904929
 51
315.0000000008095071
  0
ARC
  5
A546
  8
0
 10
4738.9803345770842498
 20
206.4409312127737053
 30
0.0
 40
0.008
 50
44.9999999991905
 51
135.0000000008093934
  0
ARC
  5
A547
  8
0
 10
4738.9963345770856904
 20
206.4475586297737095
 30
0.0
 40
0.008
 50
224.9999999991904929
 51
315.0000000008095071
  0
ARC
  5
A548
  8
0
 10
4739.012334577085312
 20
206.4409312127737053
 30
0.0
 40
0.008
 50
44.9999999991905
 51
135.0000000008093934
  0
ARC
  5
A549
  8
0
 10
4739.0283345770840242
 20
206.4475586297737095
 30
0.0
 40
0.008
 50
224.9999999991904929
 51
315.0000000008095071
  0
ARC
  5
A54A
  8
0
 10
4739.0443345770845553
 20
206.4409312127737053
 30
0.0
 40
0.008
 50
44.9999999991905
 51
135.0000000008093934
  0
ARC
  5
A54B
  8
0
 10
4739.0603345770850865
 20
206.4475586297737095
 30
0.0
 40
0.008
 50
224.9999999991904929
 51
315.0000000008095071
  0
ARC
  5
A54C
  8
0
 10
4739.0763345770847081
 20
206.4409312127737053
 30
0.0
 40
0.008
 50
44.9999999991905
 51
135.0000000008093934
  0
ARC
  5
A54D
  8
0
 10
4739.0923345770852393
 20
206.4475586297737095
 30
0.0
 40
0.008
 50
224.9999999991904929
 51
315.0000000008095071
  0
ARC
  5
A54E
  8
0
 10
4739.1083345770848609
 20
206.4409312127737053
 30
0.0
 40
0.008
 50
44.9999999991905
 51
135.0000000008093934
  0
ARC
  5
A54F
  8
0
 10
4739.1243345770853921
 20
206.4475586297737095
 30
0.0
 40
0.008
 50
224.9999999991904929
 51
315.0000000008095071
  0
ARC
  5
A550
  8
0
 10
4739.1403345770850137
 20
206.4409312127737053
 30
0.0
 40
0.008
 50
44.9999999991905
 51
135.0000000008093934
  0
ARC
  5
A551
  8
0
 10
4739.1596482855857175
 20
206.4442449212737074
 30
0.0
 40
0.008
 50
224.9999999991904929
 51
270.0
  0
ARC
  5
A552
  8
0
 10
4738.8683345770850792
 20
206.4475586297737095
 30
0.0
 40
0.008
 50
224.9999999991904929
 51
315.0000000008095071
  0
ARC
  5
A553
  8
0
 10
4738.8523345770845481
 20
206.4409312127737053
 30
0.0
 40
0.008
 50
44.9999999991905
 51
135.0000000008093934
  0
ARC
  5
A554
  8
0
 10
4738.8363345770849264
 20
206.4475586297737095
 30
0.0
 40
0.008
 50
224.9999999991904929
 51
315.0000000008095071
  0
ARC
  5
A555
  8
0
 10
4738.8203345770853048
 20
206.4409312127737053
 30
0.0
 40
0.008
 50
44.9999999991905
 51
135.0000000008093934
  0
ARC
  5
A556
  8
0
 10
4738.8043345770856831
 20
206.4475586297737095
 30
0.0
 40
0.008
 50
224.9999999991904929
 51
315.0000000008095071
  0
ARC
  5
A557
  8
0
 10
4738.788334577085152
 20
206.4409312127737053
 30
0.0
 40
0.008
 50
44.9999999991905
 51
135.0000000008093934
  0
ARC
  5
A558
  8
0
 10
4738.7723345770864398
 20
206.4475586297737095
 30
0.0
 40
0.008
 50
224.9999999991904929
 51
315.0000000008095071
  0
ARC
  5
A559
  8
0
 10
4738.7563345770849992
 20
206.4409312127737053
 30
0.0
 40
0.008
 50
44.9999999991905
 51
135.0000000008093934
  0
ARC
  5
A55A
  8
0
 10
4738.7403345770853775
 20
206.4475586297737095
 30
0.0
 40
0.008
 50
224.9999999991904929
 51
315.0000000008095071
  0
ARC
  5
A55B
  8
0
 10
4738.7243345770848464
 20
206.4409312127737053
 30
0.0
 40
0.008
 50
44.9999999991905
 51
135.0000000008093934
  0
ARC
  5
A55C
  8
0
 10
4738.7083345770852247
 20
206.4475586297737095
 30
0.0
 40
0.008
 50
224.9999999991904929
 51
315.0000000008095071
  0
ARC
  5
A55D
  8
0
 10
4738.6923345770856031
 20
206.4409312127737053
 30
0.0
 40
0.008
 50
44.9999999991905
 51
135.0000000008093934
  0
ARC
  5
A55E
  8
0
 10
4738.6763345770850719
 20
206.4475586297737095
 30
0.0
 40
0.008
 50
224.9999999991904929
 51
315.0000000008095071
  0
ARC
  5
A55F
  8
0
 10
4738.6603345770863598
 20
206.4409312127737053
 30
0.0
 40
0.008
 50
44.9999999991905
 51
135.0000000008093934
  0
ARC
  5
A560
  8
0
 10
4738.6443345770849191
 20
206.4475586297737095
 30
0.0
 40
0.008
 50
224.9999999991904929
 51
315.0000000008095071
  0
ARC
  5
A561
  8
0
 10
4738.6283345770852975
 20
206.4409312127737053
 30
0.0
 40
0.008
 50
44.9999999993137223
 51
135.0000000008093934
  0
ARC
  5
A562
  8
0
 10
4738.6090208685864127
 20
206.4442449212737074
 30
0.0
 40
0.008
 50
270.0
 51
315.0000000006863274
  0
ARC
  5
A563
  8
0
 10
4738.6043345770849555
 20
206.4282449212736879
 30
0.0
 40
0.008
 50
90.0
 51
180.0
  0
ARC
  5
A564
  8
0
 10
4767.4253345770848682
 20
205.5777449212737054
 30
0.0
 40
0.375
 50
90.0
 51
127.1303107076003016
  0
ARC
  5
A565
  8
0
 10
4768.7328528277848818
 20
205.6104720485737118
 30
0.0
 40
0.25
 50
276.9999999997169766
 51
302.8948419102115963
  0
ARC
  5
A566
  8
0
 10
4768.7328528277848818
 20
205.6104720485737118
 30
0.0
 40
0.19
 50
276.9999999996122142
 51
302.8948419102845833
  0
ARC
  5
A567
  8
0
 10
4768.5752978441851155
 20
205.4057449212737083
 30
0.0
 40
0.066
 50
270.0
 51
277.0000000016071908
  0
ARC
  5
A568
  8
0
 10
4767.5703345770862143
 20
205.3487449212736919
 30
0.0
 40
0.066
 50
180.0
 51
270.0
  0
ARC
  5
A569
  8
0
 10
4766.8313345770848173
 20
205.4202449212737065
 30
0.0
 40
0.066
 50
270.0
 51
0.0
  0
ARC
  5
A56A
  8
0
 10
4768.8523345770845481
 20
205.4257449212736901
 30
0.0
 40
0.03
 50
302.8948419100950105
 51
122.894841909714799
  0
ARC
  5
A56B
  8
0
 10
4767.5293345770851374
 20
205.3537449212736874
 30
0.0
 40
0.025
 50
0.0
 51
180.0
  0
ARC
  5
A56C
  8
0
 10
4766.1973345770857122
 20
205.3792449212737097
 30
0.0
 40
0.025
 50
90.0
 51
270.0
  0
ARC
  5
A56D
  8
0
 10
4768.9523345770849119
 20
205.3027449212736997
 30
0.0
 40
0.02
 50
270.0
 51
90.0
  0
ARC
  5
A56E
  8
0
 10
4767.4301907660847064
 20
205.4157449212736992
 30
0.0
 40
0.016
 50
106.1747244769124023
 51
270.0
  0
ARC
  5
A56F
  8
0
 10
4768.5746862179839809
 20
205.4157449212736992
 30
0.0
 40
0.016
 50
270.0
 51
277.0000000072245143
  0
ARC
  5
A570
  8
0
 10
4767.2086314636853785
 20
205.428526891373707
 30
0.0
 40
0.016
 50
134.9999999991121911
 51
232.8696892923209134
  0
ARC
  5
A571
  8
0
 10
4766.6658444499853431
 20
205.526244921273701
 30
0.0
 40
0.0125
 50
300.0000000001152216
 51
0.0
  0
ARC
  5
A572
  8
0
 10
4766.6387504920840001
 20
205.5106022173737017
 30
0.0
 40
0.0125
 50
270.0
 51
300.0000000001152216
  0
ARC
  5
A573
  8
0
 10
4766.5973444499841207
 20
205.485602217373696
 30
0.0
 40
0.0125
 50
90.0
 51
135.0000000003016964
  0
ARC
  5
A574
  8
0
 10
4766.4433345770848973
 20
205.4802449212737088
 30
0.0
 40
0.01
 50
0.0
 51
180.0
  0
ARC
  5
A575
  8
0
 10
4766.3533345770847518
 20
205.4802449212737088
 30
0.0
 40
0.01
 50
0.0
 51
180.0
  0
ARC
  5
A576
  8
0
 10
4766.2633345770846063
 20
205.4802449212737088
 30
0.0
 40
0.01
 50
0.0
 51
180.0
  0
ARC
  5
A577
  8
0
 10
4768.9403345770851956
 20
205.3307449212736913
 30
0.0
 40
0.008
 50
180.0
 51
270.0
  0
ARC
  5
A578
  8
0
 10
4767.5623345770845845
 20
205.345744921273706
 30
0.0
 40
0.008
 50
180.0
 51
270.0
  0
ARC
  5
A579
  8
0
 10
4768.8743345770853921
 20
205.345744921273706
 30
0.0
 40
0.008
 50
270.0
 51
0.0
  0
ARC
  5
A57A
  8
0
 10
4766.8393345770864471
 20
205.4122449212736967
 30
0.0
 40
0.008
 50
270.0
 51
0.0
  0
ARC
  5
A57B
  8
0
 10
4766.4613345770849264
 20
205.4122449212736967
 30
0.0
 40
0.008
 50
180.0
 51
270.0
  0
ARC
  5
A57C
  8
0
 10
4766.2453345770845772
 20
205.4122449212736967
 30
0.0
 40
0.008
 50
270.0
 51
0.0
  0
ARC
  5
A57D
  8
0
 10
4767.4253345770848682
 20
205.7147449212737058
 30
0.0
 40
0.375
 50
232.8696892923996984
 51
270.0
  0
ARC
  5
A57E
  8
0
 10
4767.3633345770849701
 20
205.6462449212737056
 30
0.0
 40
0.224
 50
286.1747244790852847
 51
73.8252755209146869
  0
CIRCLE
  5
A57F
  8
0
 10
4767.3633345770849701
 20
205.6462449212737056
 30
0.0
 40
0.21875
  0
ARC
  5
A580
  8
0
 10
4767.1404228888850412
 20
205.8182449212737026
 30
0.0
 40
0.066
 50
45.0000000002924807
 51
90.0
  0
ARC
  5
A581
  8
0
 10
4767.2086314636853785
 20
205.8639629510736881
 30
0.0
 40
0.016
 50
127.1303107076791008
 51
225.0000000041096087
  0
ARC
  5
A582
  8
0
 10
4767.4301907660847064
 20
205.876744921273712
 30
0.0
 40
0.016
 50
90.0
 51
253.8252755230876119
  0
ARC
  5
A583
  8
0
 10
4767.5203345770851229
 20
205.9687449212736965
 30
0.0
 40
0.016
 50
180.0
 51
270.0
  0
ARC
  5
A584
  8
0
 10
4767.5203345770851229
 20
205.9967449212736881
 30
0.0
 40
0.016
 50
90.0
 51
180.0
  0
ARC
  5
A585
  8
0
 10
4766.6658444499853431
 20
205.7542449212737097
 30
0.0
 40
0.0125
 50
0.0000000000993351
 51
60.0000000000002771
  0
ARC
  5
A586
  8
0
 10
4766.6396778455846288
 20
205.7693522173736937
 30
0.0
 40
0.0125
 50
60.0000000000002771
 51
90.0
  0
ARC
  5
A587
  8
0
 10
4766.5978798577853013
 20
205.7943522173736994
 30
0.0
 40
0.0125
 50
224.999999999313701
 51
270.0
  0
ARC
  5
A588
  8
0
 10
4766.2633345770846063
 20
205.8002449212737019
 30
0.0
 40
0.01
 50
180.0
 51
0.0
  0
ARC
  5
A589
  8
0
 10
4766.3533345770847518
 20
205.8002449212737019
 30
0.0
 40
0.01
 50
180.0
 51
0.0
  0
ARC
  5
A58A
  8
0
 10
4766.4433345770848973
 20
205.8002449212737019
 30
0.0
 40
0.01
 50
180.0
 51
0.0
  0
ARC
  5
A58B
  8
0
 10
4766.3293345770853193
 20
205.8922449212736865
 30
0.0
 40
0.008
 50
180.0
 51
270.0
  0
ARC
  5
A58C
  8
0
 10
4766.4613345770849264
 20
205.8262449212737124
 30
0.0
 40
0.008
 50
90.0
 51
180.0
  0
ARC
  5
A58D
  8
0
 10
4766.8393345770864471
 20
205.8262449212737124
 30
0.0
 40
0.008
 50
0.0
 51
90.0
  0
ARC
  5
A58E
  8
0
 10
4766.9053345770853412
 20
205.8262449212737124
 30
0.0
 40
0.008
 50
90.0
 51
180.0
  0
ARC
  5
A58F
  8
0
 10
4767.1295944616840643
 20
205.8262449212737124
 30
0.0
 40
0.008
 50
44.9999999991905
 51
90.0
  0
ARC
  5
A590
  8
0
 10
4766.2873345770849483
 20
206.3502449212737133
 30
0.0
 40
0.034
 50
0.0
 51
180.0
  0
ARC
  5
A591
  8
0
 10
4768.8523345770845481
 20
205.9227449212737042
 30
0.0
 40
0.03
 50
270.0
 51
90.0
  0
ARC
  5
A592
  8
0
 10
4768.9523345770849119
 20
205.9927449212736974
 30
0.0
 40
0.02
 50
270.0
 51
90.0
  0
ARC
  5
A593
  8
0
 10
4768.3440208685842663
 20
205.9447449212736956
 30
0.0
 40
0.008
 50
44.9999999991905
 51
90.0
  0
ARC
  5
A594
  8
0
 10
4768.3633345770849701
 20
205.9480586297736977
 30
0.0
 40
0.008
 50
224.999999999313701
 51
315.0000000008095071
  0
ARC
  5
A595
  8
0
 10
4768.3826482855856739
 20
205.9447449212736956
 30
0.0
 40
0.008
 50
90.0
 51
135.0000000008093934
  0
ARC
  5
A596
  8
0
 10
4768.9403345770851956
 20
205.9647449212737058
 30
0.0
 40
0.008
 50
90.0
 51
180.0
  0
ARC
  5
A597
  8
0
 10
4768.8743345770853921
 20
205.9447449212736956
 30
0.0
 40
0.008
 50
0.0
 51
90.0
  0
LINE
  5
A599
  8
0
 10
4766.5115187953251734
 20
205.4192767724736939
 30
0.0
 11
4766.4533345770851156
 21
205.4192767724736939
 31
0.0
  0
ARC
  5
A59A
  8
0
 10
4766.5115187953251734
 20
205.4236767724736978
 30
0.0
 40
0.0044
 50
269.9999999999478746
 51
314.9999997341844846
  0
LINE
  5
A59B
  8
0
 10
4738.171324704185281
 20
205.5272449212737058
 30
0.0
 11
4738.106334577085363
 21
205.5272449212737058
 31
0.0
  0
LINE
  5
A59C
  8
0
 10
4738.1813074357942241
 20
205.7672253323736982
 30
0.0
 11
4738.106334577085363
 21
205.7672253323736982
 31
0.0
  0
ENDSEC
  0
EOF
