  0
SECTION
  2
HEADER
  9
$ACADVER
  1
AC1009
  9
$INSBASE
 10
4659.2309924731289357
 20
218.6980976332748128
 30
0.0
  9
$EXTMIN
 10
4647.6279924731297797
 20
217.8445976332747023
 30
0.0
  9
$EXTMAX
 10
4671.1279924731297797
 20
219.5365976332747948
 30
0.0
  9
$LIMMIN
 10
0.0
 20
0.0
  9
$LIMMAX
 10
11.6929133858000007
 20
8.2677165353999982
  9
$ORTHOMODE
 70
     0
  9
$REGENMODE
 70
     1
  9
$FILLMODE
 70
     1
  9
$QTEXTMODE
 70
     0
  9
$MIRRTEXT
 70
     0
  9
$DRAGMODE
 70
     2
  9
$LTSCALE
 40
0.6431102362
  9
$OSMODE
 70
  4095
  9
$ATTMODE
 70
     1
  9
$TEXTSIZE
 40
0.2
  9
$TRACEWID
 40
0.05
  9
$TEXTSTYLE
  7
STANDARD
  9
$CLAYER
  8
0
  9
$CELTYPE
  6
BYLAYER
  9
$CECOLOR
 62
   256
  9
$DIMSCALE
 40
1.0
  9
$DIMASZ
 40
0.1875
  9
$DIMEXO
 40
0.0625
  9
$DIMDLI
 40
0.4443307087
  9
$DIMRND
 40
0.0
  9
$DIMDLE
 40
0.0
  9
$DIMEXE
 40
0.125
  9
$DIMTP
 40
0.01
  9
$DIMTM
 40
0.01
  9
$DIMTXT
 40
2.0
  9
$DIMCEN
 40
0.1052362205
  9
$DIMTSZ
 40
0.0
  9
$DIMTOL
 70
     1
  9
$DIMLIM
 70
     0
  9
$DIMTIH
 70
     1
  9
$DIMTOH
 70
     1
  9
$DIMSE1
 70
     0
  9
$DIMSE2
 70
     0
  9
$DIMTAD
 70
     0
  9
$DIMZIN
 70
     0
  9
$DIMBLK
  1

  9
$DIMASO
 70
     1
  9
$DIMSHO
 70
     1
  9
$DIMPOST
  1
\X
  9
$DIMAPOST
  1

  9
$DIMALT
 70
     1
  9
$DIMALTD
 70
     2
  9
$DIMALTF
 40
25.3999999999999986
  9
$DIMLFAC
 40
1.0
  9
$DIMTOFL
 70
     0
  9
$DIMTVP
 40
0.0
  9
$DIMTIX
 70
     0
  9
$DIMSOXD
 70
     0
  9
$DIMSAH
 70
     0
  9
$DIMBLK1
  1

  9
$DIMBLK2
  1

  9
$DIMSTYLE
  2
STANDARD
  9
$DIMCLRD
 70
     0
  9
$DIMCLRE
 70
     0
  9
$DIMCLRT
 70
     0
  9
$DIMTFAC
 40
1.0
  9
$DIMGAP
 40
0.09
  9
$LUNITS
 70
     2
  9
$LUPREC
 70
     4
  9
$SKETCHINC
 40
0.1
  9
$FILLETRAD
 40
0.0
  9
$AUNITS
 70
     0
  9
$AUPREC
 70
     0
  9
$MENU
  1
.
  9
$ELEVATION
 40
0.0
  9
$PELEVATION
 40
0.0
  9
$THICKNESS
 40
0.0
  9
$LIMCHECK
 70
     0
  9
$BLIPMODE
 70
     0
  9
$CHAMFERA
 40
0.0
  9
$CHAMFERB
 40
0.0
  9
$SKPOLY
 70
     0
  9
$TDCREATE
 40
2458060.468368056230247
  9
$TDUPDATE
 40
2459437.7534953700378537
  9
$TDINDWG
 40
0.4003658565
  9
$TDUSRTIMER
 40
0.4003658565
  9
$USRTIMER
 70
     1
  9
$ANGBASE
 50
0.0
  9
$ANGDIR
 70
     0
  9
$PDMODE
 70
     0
  9
$PDSIZE
 40
0.3125
  9
$PLINEWID
 40
0.0
  9
$COORDS
 70
     1
  9
$SPLFRAME
 70
     0
  9
$SPLINETYPE
 70
     6
  9
$SPLINESEGS
 70
     8
  9
$ATTDIA
 70
     1
  9
$ATTREQ
 70
     1
  9
$HANDLING
 70
     1
  9
$HANDSEED
  5
A4A0
  9
$SURFTAB1
 70
     6
  9
$SURFTAB2
 70
     6
  9
$SURFTYPE
 70
     6
  9
$SURFU
 70
     6
  9
$SURFV
 70
     6
  9
$UCSNAME
  2

  9
$UCSORG
 10
0.0
 20
0.0
 30
0.0
  9
$UCSXDIR
 10
1.0
 20
0.0
 30
0.0
  9
$UCSYDIR
 10
0.0
 20
1.0
 30
0.0
  9
$PUCSNAME
  2

  9
$PUCSORG
 10
0.0
 20
0.0
 30
0.0
  9
$PUCSXDIR
 10
1.0
 20
0.0
 30
0.0
  9
$PUCSYDIR
 10
0.0
 20
1.0
 30
0.0
  9
$USERI1
 70
     0
  9
$USERI2
 70
     0
  9
$USERI3
 70
     0
  9
$USERI4
 70
     0
  9
$USERI5
 70
     0
  9
$USERR1
 40
0.0
  9
$USERR2
 40
0.0
  9
$USERR3
 40
0.0
  9
$USERR4
 40
0.0
  9
$USERR5
 40
0.0
  9
$WORLDVIEW
 70
     1
  9
$SHADEDGE
 70
     3
  9
$SHADEDIF
 70
    70
  9
$TILEMODE
 70
     1
  9
$MAXACTVP
 70
    64
  9
$PLIMCHECK
 70
     0
  9
$PEXTMIN
 10
1.0000000000000000E+20
 20
1.0000000000000000E+20
 30
1.0000000000000000E+20
  9
$PEXTMAX
 10
-1.0000000000000000E+20
 20
-1.0000000000000000E+20
 30
-1.0000000000000000E+20
  9
$PLIMMIN
 10
0.0
 20
0.0
  9
$PLIMMAX
 10
12.0
 20
9.0
  9
$UNITMODE
 70
     0
  9
$VISRETAIN
 70
     1
  9
$PLINEGEN
 70
     0
  9
$PSLTSCALE
 70
     1
  0
ENDSEC
  0
SECTION
  2
TABLES
  0
TABLE
  2
VPORT
 70
     1
  0
VPORT
  2
*ACTIVE
 70
     0
 10
0.0
 20
0.0
 11
1.0
 21
1.0
 12
855.9043717105687392
 22
92.694617857431993
 13
0.0
 23
0.0
 14
1.0
 24
1.0
 15
0.0
 25
0.0
 16
0.0
 26
0.0
 36
17.1152628219792007
 17
3803.5440673828129547
 27
125.9952621967499056
 37
0.0
 40
8.4608587898429732
 41
2.8440779610194902
 42
50.0
 43
0.0
 44
0.0
 50
0.0
 51
0.0
 71
     0
 72
   100
 73
     1
 74
     1
 75
     0
 76
     0
 77
     0
 78
     0
  0
ENDTAB
  0
TABLE
  2
LTYPE
 70
     2
  0
LTYPE
  2
CONTINUOUS
 70
     0
  3
Solid line
 72
    65
 73
     0
 40
0.0
  0
LTYPE
  2
PHANTOM2
 70
     0
  3
___ _ _ ___ _ _ ___ _ _ ___ _ _
 72
    65
 73
     6
 40
1.25
 49
0.625
 49
-0.125
 49
0.125
 49
-0.125
 49
0.125
 49
-0.125
  0
ENDTAB
  0
TABLE
  2
LAYER
 70
     2
  0
LAYER
  2
0
 70
     0
 62
   255
  6
CONTINUOUS
  0
LAYER
  2
DEFPOINTS
 70
     0
 62
     7
  6
CONTINUOUS
  0
ENDTAB
  0
TABLE
  2
STYLE
 70
     1
  0
STYLE
  2
STANDARD
 70
     0
 40
0.0
 41
0.8
 50
0.0
 71
     0
 42
0.2
  3
txt
  4

  0
ENDTAB
  0
TABLE
  2
VIEW
 70
     0
  0
ENDTAB
  0
TABLE
  2
UCS
 70
     0
  0
ENDTAB
  0
TABLE
  2
APPID
 70
     9
  0
APPID
  2
ACAD
 70
     0
  0
APPID
  2
ACAD_MLEADERVER
 70
     0
  0
APPID
  2
ACAD_EXEMPT_FROM_CAD_STANDARDS
 70
     0
  0
APPID
  2
ACAD_NAV_VCDISPLAY
 70
     0
  0
APPID
  2
ACAECLAYERSTANDARD
 70
     0
  0
APPID
  2
ACCMTRANSPARENCY
 70
     0
  0
APPID
  2
ACAD_DSTYLE_DIMJAG
 70
     0
  0
APPID
  2
ACAD_DSTYLE_DIMTALN
 70
     0
  0
APPID
  2
ACDBATTR
 70
     0
  0
ENDTAB
  0
TABLE
  2
DIMSTYLE
 70
     1
  0
DIMSTYLE
  2
STANDARD
 70
     0
  3

  4

  5

  6

  7

 40
1.0
 41
0.1875
 42
0.0625
 43
0.38
 44
0.125
 45
0.0
 46
0.0
 47
0.01
 48
0.01
140
0.15625
141
0.09
142
0.0
143
25.3999999999999986
144
1.0
145
0.0
146
1.0
147
0.09
 71
     1
 72
     0
 73
     1
 74
     1
 75
     0
 76
     0
 77
     0
 78
     4
170
     0
171
     2
172
     0
173
     0
174
     0
175
     0
176
     0
177
     0
178
     0
  0
ENDTAB
  0
ENDSEC
  0
SECTION
  2
BLOCKS
  0
BLOCK
  8
0
  2
$MODEL_SPACE
 70
     0
 10
0.0
 20
0.0
 30
0.0
  3
$MODEL_SPACE
  1

  0
ENDBLK
  5
21
  8
0
  0
BLOCK
 67
     1
  8
0
  2
$PAPER_SPACE
 70
     0
 10
0.0
 20
0.0
 30
0.0
  3
$PAPER_SPACE
  1

  0
ENDBLK
  5
1D
 67
     1
  8
0
  0
BLOCK
  8
0
  2
_FILLED
 70
     0
 10
0.0
 20
0.0
 30
0.0
  3
_FILLED
  1

  0
SOLID
  5
9FB0
  8
0
  6
BYBLOCK
 62
     0
 10
0.0
 20
0.0
 30
0.0
 11
-1.0
 21
0.1666666667
 31
0.0
 12
-1.0
 22
-0.1666666667
 32
0.0
 13
-1.0
 23
-0.1666666667
 33
0.0
  0
ENDBLK
  5
9FB1
  8
0
  6
BYBLOCK
 62
     0
  0
ENDSEC
  0
SECTION
  2
ENTITIES
  0
ATTDEF
  5
3930
  8
DEFPOINTS
 10
4659.226877662194056
 20
218.6929406297147978
 30
0.0
 40
0.001
  1
K-26926-3G06
  3

  2
MODELNUMBER
 70
     0
1001
ACDBATTR
1070
     0
1070
     1
  0
ATTDEF
  5
3931
  8
DEFPOINTS
 10
4659.226877662194056
 20
218.6912739630481042
 30
0.0
 40
0.001
  1

  3

  2
TRADENAME
 70
     0
1001
ACDBATTR
1070
     0
1070
     1
  0
ATTDEF
  5
3932
  8
DEFPOINTS
 10
4659.226877662194056
 20
218.6896072963814106
 30
0.0
 40
0.001
  1
SHOWER DOOR
  3

  2
PRODUCT
 70
     0
1001
ACDBATTR
1070
     0
1070
     1
  0
LINE
  5
A187
  8
0
 10
4647.6279924731297797
 20
218.2530976332747912
 30
0.0
 11
4647.6279924731297797
 21
219.079097633274813
 31
0.0
  0
LINE
  5
A188
  8
0
 10
4647.6679924731297433
 20
219.0150976332747916
 30
0.0
 11
4647.6679924731297433
 21
218.3810976332746918
 31
0.0
  0
LINE
  5
A189
  8
0
 10
4647.7179924731299252
 20
218.3960976332747919
 30
0.0
 11
4647.7179924731299252
 21
218.9950976332748098
 31
0.0
  0
LINE
  5
A18A
  8
0
 10
4649.0459924731303545
 20
218.404097633274688
 30
0.0
 11
4649.0459924731303545
 21
218.3960976332747919
 31
0.0
  0
LINE
  5
A18B
  8
0
 10
4649.0959924731296269
 20
218.3990976332748062
 30
0.0
 11
4649.0959924731296269
 21
218.404097633274688
 31
0.0
  0
LINE
  5
A18C
  8
0
 10
4649.0959924731296269
 20
219.019097633274697
 30
0.0
 11
4649.0959924731296269
 21
219.0470976332746886
 31
0.0
  0
LINE
  5
A18D
  8
0
 10
4649.1689924731290375
 20
218.4660976332748135
 30
0.0
 11
4649.1689924731290375
 21
218.9270976332747978
 31
0.0
  0
LINE
  5
A18E
  8
0
 10
4649.2189924731292194
 20
218.9157595380748091
 30
0.0
 11
4649.2189924731292194
 21
218.455647043674702
 31
0.0
  0
LINE
  5
A18F
  8
0
 10
4649.3119924731299761
 20
218.9280976332748025
 30
0.0
 11
4649.3119924731299761
 21
218.9610976332747896
 31
0.0
  0
LINE
  5
A190
  8
0
 10
4649.3119924731299761
 20
219.0806470436747873
 30
0.0
 11
4649.3119924731299761
 21
219.1216470436748125
 31
0.0
  0
LINE
  5
A191
  8
0
 10
4649.3619924731310675
 20
219.1296470436747938
 30
0.0
 11
4649.3619924731310675
 21
219.0806470436747873
 31
0.0
  0
LINE
  5
A192
  8
0
 10
4649.3619924731310675
 20
218.9690976332747994
 30
0.0
 11
4649.3619924731310675
 21
218.9200976332747928
 31
0.0
  0
LINE
  5
A193
  8
0
 10
4649.3794924731300853
 20
219.1376470436746899
 30
0.0
 11
4649.3794924731300853
 21
219.0926470436747024
 31
0.0
  0
LINE
  5
A194
  8
0
 10
4649.3794924731300853
 20
218.9570976332747989
 30
0.0
 11
4649.3794924731300853
 21
218.9120976332746977
 31
0.0
  0
LINE
  5
A195
  8
0
 10
4649.4269924731297579
 20
219.0566470436747863
 30
0.0
 11
4649.4269924731297579
 21
219.0386470436747004
 31
0.0
  0
LINE
  5
A196
  8
0
 10
4649.4269924731297579
 20
219.0926470436747024
 30
0.0
 11
4649.4269924731297579
 21
219.0026470436748127
 31
0.0
  0
LINE
  5
A197
  8
0
 10
4649.4269924731297579
 20
219.0026470436748127
 30
0.0
 11
4649.4269924731297579
 21
218.9930976332746866
 31
0.0
  0
LINE
  5
A198
  8
0
 10
4649.4269924731297579
 20
219.0026470436748127
 30
0.0
 11
4649.4269924731297579
 21
218.9570976332747989
 31
0.0
  0
LINE
  5
A199
  8
0
 10
4649.4619924731287028
 20
218.5270976332747921
 30
0.0
 11
4649.4619924731287028
 21
218.8540976332747903
 31
0.0
  0
LINE
  5
A19A
  8
0
 10
4649.5119924731288847
 20
218.8425976332748064
 30
0.0
 11
4649.5119924731288847
 21
218.5385976332748044
 31
0.0
  0
LINE
  5
A19B
  8
0
 10
4649.7019826002288028
 20
218.8045976332747102
 30
0.0
 11
4649.7019826002288028
 21
218.5765976332747016
 31
0.0
  0
LINE
  5
A19C
  8
0
 10
4649.7319924731300489
 20
218.9570976332747989
 30
0.0
 11
4649.7319924731300489
 21
219.0026470436748127
 31
0.0
  0
LINE
  5
A19D
  8
0
 10
4649.7319924731300489
 20
219.0026470436748127
 30
0.0
 11
4649.7319924731300489
 21
219.0926470436747024
 31
0.0
  0
LINE
  5
A19E
  8
0
 10
4649.751992473129576
 20
218.9930976332746866
 30
0.0
 11
4649.751992473129576
 21
219.0110976332746873
 31
0.0
  0
LINE
  5
A19F
  8
0
 10
4649.751992473129576
 20
219.0386470436747004
 30
0.0
 11
4649.751992473129576
 21
219.0566470436747863
 31
0.0
  0
LINE
  5
A1A0
  8
0
 10
4649.779492473128812
 20
218.9120976332746977
 30
0.0
 11
4649.779492473128812
 21
218.9570976332747989
 31
0.0
  0
LINE
  5
A1A1
  8
0
 10
4649.779492473128812
 20
219.0926470436747024
 30
0.0
 11
4649.779492473128812
 21
219.1376470436746899
 31
0.0
  0
LINE
  5
A1A2
  8
0
 10
4649.8169924731291758
 20
219.0806470436747873
 30
0.0
 11
4649.8169924731291758
 21
219.1296470436747938
 31
0.0
  0
LINE
  5
A1A3
  8
0
 10
4649.8669924731302672
 20
219.1216470436748125
 30
0.0
 11
4649.8669924731302672
 21
219.088647043674797
 31
0.0
  0
LINE
  5
A1A4
  8
0
 10
4649.9519924731303036
 20
217.91059763327479
 30
0.0
 11
4649.9519924731303036
 21
218.4610976332747896
 31
0.0
  0
LINE
  5
A1A5
  8
0
 10
4649.9519924731303036
 20
219.0350976332748019
 30
0.0
 11
4649.9519924731303036
 21
219.4705976332747923
 31
0.0
  0
LINE
  5
A1A6
  8
0
 10
4650.0019924731286665
 20
219.4785976332746884
 30
0.0
 11
4650.0019924731286665
 21
218.8505976332747878
 31
0.0
  0
LINE
  5
A1A7
  8
0
 10
4650.0019924731286665
 20
218.8505976332747878
 30
0.0
 11
4650.0019924731286665
 21
218.5019496716747085
 31
0.0
  0
LINE
  5
A1A8
  8
0
 10
4650.0019924731286665
 20
218.5125976332747939
 30
0.0
 11
4650.0019924731286665
 21
217.9025976332748087
 31
0.0
  0
LINE
  5
A1A9
  8
0
 10
4649.488992473129656
 20
219.0176470436747138
 30
0.0
 11
4649.4803322191301049
 21
219.0026470436748127
 31
0.0
  0
LINE
  5
A1AA
  8
0
 10
4648.355649327430001
 20
218.992754487474798
 30
0.0
 11
4648.3636493274289023
 21
219.0007544874748078
 31
0.0
  0
LINE
  5
A1AB
  8
0
 10
4649.4976527271301165
 20
219.0026470436748127
 30
0.0
 11
4649.488992473129656
 21
219.0176470436747138
 31
0.0
  0
LINE
  5
A1AC
  8
0
 10
4649.1986787646301309
 20
219.0077839247747136
 30
0.0
 11
4649.2442109311286913
 21
219.0533160912746951
 31
0.0
  0
LINE
  5
A1AD
  8
0
 10
4649.2792109311303648
 20
219.0033160912747121
 30
0.0
 11
4649.2383234256303695
 21
218.9624285856747861
 31
0.0
  0
LINE
  5
A1AE
  8
0
 10
4650.0283356189293045
 20
219.4969407789747891
 30
0.0
 11
4650.0203356189304031
 21
219.4889407789748077
 31
0.0
  0
LINE
  5
A1AF
  8
0
 10
4650.0603356189303668
 20
219.4969407789747891
 30
0.0
 11
4650.0556493274298191
 21
219.4922544874748098
 31
0.0
  0
LINE
  5
A1B0
  8
0
 10
4650.0923356189287006
 20
219.4969407789747891
 30
0.0
 11
4650.0876493274299719
 21
219.4922544874748098
 31
0.0
  0
LINE
  5
A1B1
  8
0
 10
4650.1243356189288534
 20
219.4969407789747891
 30
0.0
 11
4650.1196493274301247
 21
219.4922544874748098
 31
0.0
  0
LINE
  5
A1B2
  8
0
 10
4650.1563356189290062
 20
219.4969407789747891
 30
0.0
 11
4650.1516493274302775
 21
219.4922544874748098
 31
0.0
  0
LINE
  5
A1B3
  8
0
 10
4650.1883356189300684
 20
219.4969407789747891
 30
0.0
 11
4650.1836493274304303
 21
219.4922544874748098
 31
0.0
  0
LINE
  5
A1B4
  8
0
 10
4650.2203356189302212
 20
219.4969407789747891
 30
0.0
 11
4650.2156493274296736
 21
219.4922544874748098
 31
0.0
  0
LINE
  5
A1B5
  8
0
 10
4650.252335618930374
 20
219.4969407789747891
 30
0.0
 11
4650.2476493274298264
 21
219.4922544874748098
 31
0.0
  0
LINE
  5
A1B6
  8
0
 10
4650.2843356189296173
 20
219.4969407789747891
 30
0.0
 11
4650.2796493274299792
 21
219.4922544874748098
 31
0.0
  0
LINE
  5
A1B7
  8
0
 10
4650.3163356189297701
 20
219.4969407789747891
 30
0.0
 11
4650.311649327430132
 21
219.4922544874748098
 31
0.0
  0
LINE
  5
A1B8
  8
0
 10
4648.3363356189302067
 20
219.0007544874748078
 30
0.0
 11
4648.344335618929108
 21
218.992754487474798
 31
0.0
  0
LINE
  5
A1B9
  8
0
 10
4650.0203356189304031
 20
217.8922544874747871
 30
0.0
 11
4650.0283356189293045
 21
217.884254487474692
 31
0.0
  0
LINE
  5
A1BA
  8
0
 10
4650.0556493274298191
 20
217.8889407789748134
 30
0.0
 11
4650.0603356189303668
 21
217.884254487474692
 31
0.0
  0
LINE
  5
A1BB
  8
0
 10
4650.0876493274299719
 20
217.8889407789748134
 30
0.0
 11
4650.0923356189287006
 21
217.884254487474692
 31
0.0
  0
LINE
  5
A1BC
  8
0
 10
4650.1196493274301247
 20
217.8889407789748134
 30
0.0
 11
4650.1243356189288534
 21
217.884254487474692
 31
0.0
  0
LINE
  5
A1BD
  8
0
 10
4650.1516493274302775
 20
217.8889407789748134
 30
0.0
 11
4650.1563356189290062
 21
217.884254487474692
 31
0.0
  0
LINE
  5
A1BE
  8
0
 10
4650.1836493274304303
 20
217.8889407789748134
 30
0.0
 11
4650.1883356189300684
 21
217.884254487474692
 31
0.0
  0
LINE
  5
A1BF
  8
0
 10
4650.2156493274296736
 20
217.8889407789748134
 30
0.0
 11
4650.2203356189302212
 21
217.884254487474692
 31
0.0
  0
LINE
  5
A1C0
  8
0
 10
4650.2476493274298264
 20
217.8889407789748134
 30
0.0
 11
4650.252335618930374
 21
217.884254487474692
 31
0.0
  0
LINE
  5
A1C1
  8
0
 10
4650.2796493274299792
 20
217.8889407789748134
 30
0.0
 11
4650.2843356189296173
 21
217.884254487474692
 31
0.0
  0
LINE
  5
A1C2
  8
0
 10
4650.311649327430132
 20
217.8889407789748134
 30
0.0
 11
4650.3163356189297701
 21
217.884254487474692
 31
0.0
  0
LINE
  5
A1C3
  8
0
 10
4650.3483356189299229
 20
219.4969407789747891
 30
0.0
 11
4650.3436493274302848
 21
219.4922544874748098
 31
0.0
  0
LINE
  5
A1C4
  8
0
 10
4650.3803356189300757
 20
219.4969407789747891
 30
0.0
 11
4650.3756493274286186
 21
219.4922544874748098
 31
0.0
  0
LINE
  5
A1C5
  8
0
 10
4650.4123356189302285
 20
219.4969407789747891
 30
0.0
 11
4650.4076493274287714
 21
219.4922544874748098
 31
0.0
  0
LINE
  5
A1C6
  8
0
 10
4650.4443356189312908
 20
219.4969407789747891
 30
0.0
 11
4650.4396493274298336
 21
219.4922544874748098
 31
0.0
  0
LINE
  5
A1C7
  8
0
 10
4649.8025997822287536
 20
218.8471798495747009
 30
0.0
 11
4649.7912860271298996
 21
218.8358660945746976
 31
0.0
  0
LINE
  5
A1C8
  8
0
 10
4650.4763356189287151
 20
219.4969407789747891
 30
0.0
 11
4650.4716493274299864
 21
219.4922544874748098
 31
0.0
  0
LINE
  5
A1C9
  8
0
 10
4650.5083356189288679
 20
219.4969407789747891
 30
0.0
 11
4650.5036493274301392
 21
219.4922544874748098
 31
0.0
  0
LINE
  5
A1CA
  8
0
 10
4650.5403356189299302
 20
219.4969407789747891
 30
0.0
 11
4650.535649327430292
 21
219.4922544874748098
 31
0.0
  0
LINE
  5
A1CB
  8
0
 10
4650.3436493274302848
 20
217.8889407789748134
 30
0.0
 11
4650.3483356189299229
 21
217.884254487474692
 31
0.0
  0
LINE
  5
A1CC
  8
0
 10
4650.3756493274286186
 20
217.8889407789748134
 30
0.0
 11
4650.3803356189300757
 21
217.884254487474692
 31
0.0
  0
LINE
  5
A1CD
  8
0
 10
4650.4076493274287714
 20
217.8889407789748134
 30
0.0
 11
4650.4123356189302285
 21
217.884254487474692
 31
0.0
  0
LINE
  5
A1CE
  8
0
 10
4650.4396493274298336
 20
217.8889407789748134
 30
0.0
 11
4650.4443356189312908
 21
217.884254487474692
 31
0.0
  0
LINE
  5
A1CF
  8
0
 10
4649.7918214349301707
 20
218.5447937640747966
 30
0.0
 11
4649.8025998782286479
 21
218.5340153207746994
 31
0.0
  0
LINE
  5
A1D0
  8
0
 10
4650.4716493274299864
 20
217.8889407789748134
 30
0.0
 11
4650.4763356189287151
 21
217.884254487474692
 31
0.0
  0
LINE
  5
A1D1
  8
0
 10
4650.5036493274301392
 20
217.8889407789748134
 30
0.0
 11
4650.5083356189288679
 21
217.884254487474692
 31
0.0
  0
LINE
  5
A1D2
  8
0
 10
4650.535649327430292
 20
217.8889407789748134
 30
0.0
 11
4650.5403356189299302
 21
217.884254487474692
 31
0.0
  0
LINE
  5
A1D3
  8
0
 10
4650.0396493274301974
 20
217.884254487474692
 30
0.0
 11
4650.0443356189298356
 21
217.8889407789748134
 31
0.0
  0
LINE
  5
A1D4
  8
0
 10
4650.0716493274303502
 20
217.884254487474692
 30
0.0
 11
4650.0763356189299884
 21
217.8889407789748134
 31
0.0
  0
LINE
  5
A1D5
  8
0
 10
4650.103649327428684
 20
217.884254487474692
 30
0.0
 11
4650.1083356189301412
 21
217.8889407789748134
 31
0.0
  0
LINE
  5
A1D6
  8
0
 10
4650.1356493274297463
 20
217.884254487474692
 30
0.0
 11
4650.1403356189312035
 21
217.8889407789748134
 31
0.0
  0
LINE
  5
A1D7
  8
0
 10
4650.1676493274298991
 20
217.884254487474692
 30
0.0
 11
4650.1723356189286278
 21
217.8889407789748134
 31
0.0
  0
LINE
  5
A1D8
  8
0
 10
4650.1996493274291424
 20
217.884254487474692
 30
0.0
 11
4650.2043356189287806
 21
217.8889407789748134
 31
0.0
  0
LINE
  5
A1D9
  8
0
 10
4650.2316493274292952
 20
217.884254487474692
 30
0.0
 11
4650.2363356189298429
 21
217.8889407789748134
 31
0.0
  0
LINE
  5
A1DA
  8
0
 10
4650.2636493274303575
 20
217.884254487474692
 30
0.0
 11
4650.2683356189299957
 21
217.8889407789748134
 31
0.0
  0
LINE
  5
A1DB
  8
0
 10
4650.2956493274286913
 20
217.884254487474692
 30
0.0
 11
4650.3003356189301485
 21
217.8889407789748134
 31
0.0
  0
LINE
  5
A1DC
  8
0
 10
4650.3276493274288441
 20
217.884254487474692
 30
0.0
 11
4650.3323356189303013
 21
217.8889407789748134
 31
0.0
  0
LINE
  5
A1DD
  8
0
 10
4650.3596493274289969
 20
217.884254487474692
 30
0.0
 11
4650.3643356189286351
 21
217.8889407789748134
 31
0.0
  0
LINE
  5
A1DE
  8
0
 10
4650.3916493274300592
 20
217.884254487474692
 30
0.0
 11
4650.3963356189287879
 21
217.8889407789748134
 31
0.0
  0
LINE
  5
A1DF
  8
0
 10
4650.423649327430212
 20
217.884254487474692
 30
0.0
 11
4650.4283356189289407
 21
217.8889407789748134
 31
0.0
  0
LINE
  5
A1E0
  8
0
 10
4650.4556493274303648
 20
217.884254487474692
 30
0.0
 11
4650.4603356189290935
 21
217.8889407789748134
 31
0.0
  0
LINE
  5
A1E1
  8
0
 10
4650.4876493274296081
 20
217.884254487474692
 30
0.0
 11
4650.4923356189301558
 21
217.8889407789748134
 31
0.0
  0
LINE
  5
A1E2
  8
0
 10
4650.5196493274297609
 20
217.884254487474692
 30
0.0
 11
4650.5243356189303086
 21
217.8889407789748134
 31
0.0
  0
LINE
  5
A1E3
  8
0
 10
4650.5516493274299137
 20
217.884254487474692
 30
0.0
 11
4650.559649327428815
 21
217.8922544874747871
 31
0.0
  0
LINE
  5
A1E4
  8
0
 10
4650.0443356189298356
 20
219.4922544874748098
 30
0.0
 11
4650.0396493274301974
 21
219.4969407789747891
 31
0.0
  0
LINE
  5
A1E5
  8
0
 10
4650.0763356189299884
 20
219.4922544874748098
 30
0.0
 11
4650.0716493274303502
 21
219.4969407789747891
 31
0.0
  0
LINE
  5
A1E6
  8
0
 10
4650.1083356189301412
 20
219.4922544874748098
 30
0.0
 11
4650.103649327428684
 21
219.4969407789747891
 31
0.0
  0
LINE
  5
A1E7
  8
0
 10
4650.1403356189312035
 20
219.4922544874748098
 30
0.0
 11
4650.1356493274297463
 21
219.4969407789747891
 31
0.0
  0
LINE
  5
A1E8
  8
0
 10
4650.1723356189286278
 20
219.4922544874748098
 30
0.0
 11
4650.1676493274298991
 21
219.4969407789747891
 31
0.0
  0
LINE
  5
A1E9
  8
0
 10
4650.2043356189287806
 20
219.4922544874748098
 30
0.0
 11
4650.1996493274291424
 21
219.4969407789747891
 31
0.0
  0
LINE
  5
A1EA
  8
0
 10
4650.2363356189298429
 20
219.4922544874748098
 30
0.0
 11
4650.2316493274292952
 21
219.4969407789747891
 31
0.0
  0
LINE
  5
A1EB
  8
0
 10
4650.2683356189299957
 20
219.4922544874748098
 30
0.0
 11
4650.2636493274303575
 21
219.4969407789747891
 31
0.0
  0
LINE
  5
A1EC
  8
0
 10
4650.3003356189301485
 20
219.4922544874748098
 30
0.0
 11
4650.2956493274286913
 21
219.4969407789747891
 31
0.0
  0
LINE
  5
A1ED
  8
0
 10
4650.3323356189303013
 20
219.4922544874748098
 30
0.0
 11
4650.3276493274288441
 21
219.4969407789747891
 31
0.0
  0
LINE
  5
A1EE
  8
0
 10
4650.3643356189286351
 20
219.4922544874748098
 30
0.0
 11
4650.3596493274289969
 21
219.4969407789747891
 31
0.0
  0
LINE
  5
A1EF
  8
0
 10
4650.3963356189287879
 20
219.4922544874748098
 30
0.0
 11
4650.3916493274300592
 21
219.4969407789747891
 31
0.0
  0
LINE
  5
A1F0
  8
0
 10
4650.4283356189289407
 20
219.4922544874748098
 30
0.0
 11
4650.423649327430212
 21
219.4969407789747891
 31
0.0
  0
LINE
  5
A1F1
  8
0
 10
4650.4603356189290935
 20
219.4922544874748098
 30
0.0
 11
4650.4556493274303648
 21
219.4969407789747891
 31
0.0
  0
LINE
  5
A1F2
  8
0
 10
4650.4923356189301558
 20
219.4922544874748098
 30
0.0
 11
4650.4876493274296081
 21
219.4969407789747891
 31
0.0
  0
LINE
  5
A1F3
  8
0
 10
4650.5243356189303086
 20
219.4922544874748098
 30
0.0
 11
4650.5196493274297609
 21
219.4969407789747891
 31
0.0
  0
LINE
  5
A1F4
  8
0
 10
4650.559649327428815
 20
219.4889407789748077
 30
0.0
 11
4650.5516493274299137
 21
219.4969407789747891
 31
0.0
  0
LINE
  5
A1F5
  8
0
 10
4649.7343992046289713
 20
218.8305302468747016
 30
0.0
 11
4649.7082326002300761
 21
218.8154229507746891
 31
0.0
  0
LINE
  5
A1F6
  8
0
 10
4649.7082326002300761
 20
218.5657723156747068
 30
0.0
 11
4649.7353265581286905
 21
218.5501296117747927
 31
0.0
  0
LINE
  5
A1F7
  8
0
 10
4670.9189780597298522
 20
218.4126882226748023
 30
0.0
 11
4670.7389991168311099
 21
218.3905895872746896
 31
0.0
  0
LINE
  5
A1F8
  8
0
 10
4670.7322940235299029
 20
218.4502168947747123
 30
0.0
 11
4670.9116658991288205
 21
218.4722409917748109
 31
0.0
  0
LINE
  5
A1F9
  8
0
 10
4648.1299858294296428
 20
218.3901389976747112
 30
0.0
 11
4647.9269924731297579
 21
218.4150634477747133
 31
0.0
  0
LINE
  5
A1FA
  8
0
 10
4647.9343046337298802
 20
218.4746162168746935
 30
0.0
 11
4648.1330211655304083
 21
218.4502168947747123
 31
0.0
  0
LINE
  5
A1FB
  8
0
 10
4650.5689924731295832
 20
217.8445976332747023
 30
0.0
 11
4650.0179924731301071
 21
217.8445976332747023
 31
0.0
  0
LINE
  5
A1FC
  8
0
 10
4650.0099924731302963
 20
217.8945976332747989
 30
0.0
 11
4650.014678764629025
 21
217.8945976332747989
 31
0.0
  0
LINE
  5
A1FD
  8
0
 10
4650.5653061816301488
 20
217.8945976332747989
 30
0.0
 11
4650.5689924731295832
 21
217.8945976332747989
 31
0.0
  0
LINE
  5
A1FE
  8
0
 10
4671.1279924731297797
 20
218.2530976332747912
 30
0.0
 11
4650.0019924731286665
 21
218.2530976332747912
 31
0.0
  0
LINE
  5
A1FF
  8
0
 10
4649.9519924731303036
 20
218.2530976332747912
 30
0.0
 11
4647.6279924731297797
 21
218.2530976332747912
 31
0.0
  0
LINE
  5
A200
  8
0
 10
4671.1079924731302526
 20
218.33309763327469
 30
0.0
 11
4669.725992473129736
 21
218.33309763327469
 31
0.0
  0
LINE
  5
A201
  8
0
 10
4647.6279924731297797
 20
218.33309763327469
 30
0.0
 11
4647.6479924731302162
 21
218.33309763327469
 31
0.0
  0
LINE
  5
A202
  8
0
 10
4647.6479924731302162
 20
218.33309763327469
 30
0.0
 11
4649.0299924731289138
 21
218.33309763327469
 31
0.0
  0
LINE
  5
A203
  8
0
 10
4649.0299924731289138
 20
218.33309763327469
 30
0.0
 11
4649.9519924731303036
 21
218.33309763327469
 31
0.0
  0
LINE
  5
A204
  8
0
 10
4650.0019924731286665
 20
218.33309763327469
 30
0.0
 11
4669.725992473129736
 21
218.33309763327469
 31
0.0
  0
LINE
  5
A205
  8
0
 10
4671.1079924731302526
 20
218.33309763327469
 30
0.0
 11
4671.1279924731297797
 21
218.33309763327469
 31
0.0
  0
LINE
  5
A206
  8
0
 10
4647.6599924731299325
 20
218.3730976332747957
 30
0.0
 11
4647.6479924731302162
 21
218.3730976332747957
 31
0.0
  0
LINE
  5
A207
  8
0
 10
4671.0959924731287174
 20
218.3730976332747957
 30
0.0
 11
4671.1079924731302526
 21
218.3730976332747957
 31
0.0
  0
LINE
  5
A208
  8
0
 10
4649.0379924731296342
 20
218.3880976332748105
 30
0.0
 11
4647.7259924731288265
 21
218.3880976332748105
 31
0.0
  0
LINE
  5
A209
  8
0
 10
4669.7179924731299252
 20
218.3880976332748105
 30
0.0
 11
4671.0299924731298233
 21
218.3880976332748105
 31
0.0
  0
LINE
  5
A20A
  8
0
 10
4649.1529924731303254
 20
218.3896470436748132
 30
0.0
 11
4649.0953123503195457
 21
218.3896470436748132
 31
0.0
  0
LINE
  5
A20B
  8
0
 10
4649.0427242691739593
 20
218.3896470436748132
 30
0.0
 11
4648.1380292060293868
 21
218.3896470436748132
 31
0.0
  0
LINE
  5
A20C
  8
0
 10
4669.580992473130209
 20
218.3900976332747064
 30
0.0
 11
4669.6606089889755822
 21
218.3900976332747064
 31
0.0
  0
LINE
  5
A20D
  8
0
 10
4669.7127009705081946
 20
218.3900976332747064
 30
0.0
 11
4670.7309557402286373
 21
218.3900976332747064
 31
0.0
  0
LINE
  5
A20E
  8
0
 10
4668.986992473130158
 20
218.4045976332747898
 30
0.0
 11
4668.3529924731301435
 21
218.4045976332747898
 31
0.0
  0
LINE
  5
A20F
  8
0
 10
4670.7303441140302311
 20
218.4500976332747939
 30
0.0
 11
4669.5858486621300472
 21
218.4500976332747939
 31
0.0
  0
LINE
  5
A210
  8
0
 10
4648.1349710750291706
 20
218.4500976332747939
 30
0.0
 11
4649.1529924731303254
 21
218.4500976332747939
 31
0.0
  0
LINE
  5
A211
  8
0
 10
4668.3529924731301435
 20
218.4545976332746875
 30
0.0
 11
4650.0019924731286665
 21
218.4545976332746875
 31
0.0
  0
LINE
  5
A212
  8
0
 10
4668.3529924731301435
 20
218.4545976332746875
 30
0.0
 11
4668.4009924731299179
 21
218.4545976332746875
 31
0.0
  0
LINE
  5
A213
  8
0
 10
4668.6169924731302672
 20
218.4545976332746875
 30
0.0
 11
4668.9949924731290594
 21
218.4545976332746875
 31
0.0
  0
LINE
  5
A214
  8
0
 10
4649.9439924731286737
 20
218.4690976332747994
 30
0.0
 11
4649.3719924731303763
 21
218.4690976332747994
 31
0.0
  0
LINE
  5
A215
  8
0
 10
4650.0019924731286665
 20
218.5125976332747939
 30
0.0
 11
4668.4089924731288193
 21
218.5125976332747939
 31
0.0
  0
LINE
  5
A216
  8
0
 10
4649.3719924731303763
 20
218.519097633274697
 30
0.0
 11
4649.453992473128892
 21
218.519097633274697
 31
0.0
  0
LINE
  5
A217
  8
0
 10
4668.6089924731295469
 20
218.5191345569747909
 30
0.0
 11
4668.9499924731289866
 21
218.5191345569747909
 31
0.0
  0
LINE
  5
A218
  8
0
 10
4649.5199924731296051
 20
218.5305976332747946
 30
0.0
 11
4649.8019924731288484
 21
218.5305976332747946
 31
0.0
  0
LINE
  5
A219
  8
0
 10
4649.8219924731301944
 20
218.5305976332747946
 30
0.0
 11
4649.8919924731289939
 21
218.5305976332747946
 31
0.0
  0
LINE
  5
A21A
  8
0
 10
4649.9119924731303399
 20
218.5305976332747946
 30
0.0
 11
4649.9819924731291394
 21
218.5305976332747946
 31
0.0
  0
LINE
  5
A21B
  8
0
 10
4668.4289924731301653
 20
218.5305976332747946
 30
0.0
 11
4668.4989924731289648
 21
218.5305976332747946
 31
0.0
  0
LINE
  5
A21C
  8
0
 10
4668.5189924731303108
 20
218.5305976332747946
 30
0.0
 11
4668.5889924731300198
 21
218.5305976332747946
 31
0.0
  0
LINE
  5
A21D
  8
0
 10
4650.0019924731286665
 20
218.5447937640747966
 30
0.0
 11
4649.7918214349301707
 21
218.5447937640747966
 31
0.0
  0
LINE
  5
A21E
  8
0
 10
4668.6694083881302504
 20
218.5484549293747989
 30
0.0
 11
4668.4089924731288193
 21
218.5484549293747989
 31
0.0
  0
LINE
  5
A21F
  8
0
 10
4650.0019924731286665
 20
218.5484549293747989
 30
0.0
 11
4649.7415765581299638
 21
218.5484549293747989
 31
0.0
  0
LINE
  5
A220
  8
0
 10
4668.7027523460301381
 20
218.5657723156747068
 30
0.0
 11
4668.4089924731288193
 21
218.5657723156747068
 31
0.0
  0
LINE
  5
A221
  8
0
 10
4650.0019924731286665
 20
218.5657723156747068
 30
0.0
 11
4649.7082326002300761
 21
218.5657723156747068
 31
0.0
  0
LINE
  5
A222
  8
0
 10
4668.9499924731289866
 20
218.5710976332746895
 30
0.0
 11
4668.7077265478301342
 21
218.5710976332746895
 31
0.0
  0
LINE
  5
A223
  8
0
 10
4649.7032583613299721
 20
218.5710976332746895
 30
0.0
 11
4649.5119924731288847
 21
218.5710976332746895
 31
0.0
  0
LINE
  5
A224
  8
0
 10
4668.4089924731288193
 20
218.5985976332748066
 30
0.0
 11
4650.0019924731286665
 21
218.5985976332748066
 31
0.0
  0
LINE
  5
A225
  8
0
 10
4650.0019924731286665
 20
218.6145976332747125
 30
0.0
 11
4668.4089924731288193
 21
218.6145976332747125
 31
0.0
  0
LINE
  5
A226
  8
0
 10
4668.4089924731288193
 20
218.7145976332747921
 30
0.0
 11
4650.0019924731286665
 21
218.7145976332747921
 31
0.0
  0
LINE
  5
A227
  8
0
 10
4650.0019924731286665
 20
218.7305976332748116
 30
0.0
 11
4668.4089924731288193
 21
218.7305976332748116
 31
0.0
  0
LINE
  5
A228
  8
0
 10
4668.4089924731288193
 20
218.7465976332746891
 30
0.0
 11
4650.0019924731286665
 21
218.7465976332746891
 31
0.0
  0
LINE
  5
A229
  8
0
 10
4668.709002346028683
 20
218.7580976332747866
 30
0.0
 11
4668.9499924731289866
 21
218.7580976332747866
 31
0.0
  0
LINE
  5
A22A
  8
0
 10
4650.0019924731286665
 20
218.8045976332747102
 30
0.0
 11
4668.4089924731288193
 21
218.8045976332747102
 31
0.0
  0
LINE
  5
A22B
  8
0
 10
4668.9499924731289866
 20
218.8110780443747956
 30
0.0
 11
4668.7071905182301634
 21
218.8110780443747956
 31
0.0
  0
LINE
  5
A22C
  8
0
 10
4649.7037944488301946
 20
218.8110780443747956
 30
0.0
 11
4649.5119924731288847
 21
218.8110780443747956
 31
0.0
  0
LINE
  5
A22D
  8
0
 10
4668.4089924731288193
 20
218.8135976332746964
 30
0.0
 11
4650.0019924731286665
 21
218.8135976332746964
 31
0.0
  0
LINE
  5
A22E
  8
0
 10
4649.7082326002300761
 20
218.8154229507746891
 30
0.0
 11
4650.0019924731286665
 21
218.8154229507746891
 31
0.0
  0
LINE
  5
A22F
  8
0
 10
4668.4089924731288193
 20
218.8154229507746891
 30
0.0
 11
4668.7027523460301381
 21
218.8154229507746891
 31
0.0
  0
LINE
  5
A230
  8
0
 10
4649.7406492046302446
 20
218.8322049293747966
 30
0.0
 11
4650.0019924731286665
 21
218.8322049293747966
 31
0.0
  0
LINE
  5
A231
  8
0
 10
4668.4089924731288193
 20
218.8322049293747966
 30
0.0
 11
4668.6703357416290601
 21
218.8322049293747966
 31
0.0
  0
LINE
  5
A232
  8
0
 10
4649.7912860271298996
 20
218.8358660945746976
 30
0.0
 11
4650.0019924731286665
 21
218.8358660945746976
 31
0.0
  0
LINE
  5
A233
  8
0
 10
4668.5889924731300198
 20
218.8505976332747878
 30
0.0
 11
4668.5189924731303108
 21
218.8505976332747878
 31
0.0
  0
LINE
  5
A234
  8
0
 10
4668.4989924731289648
 20
218.8505976332747878
 30
0.0
 11
4668.4289924731301653
 21
218.8505976332747878
 31
0.0
  0
LINE
  5
A235
  8
0
 10
4649.9819924731291394
 20
218.8505976332747878
 30
0.0
 11
4649.9119924731303399
 21
218.8505976332747878
 31
0.0
  0
LINE
  5
A236
  8
0
 10
4649.8919924731289939
 20
218.8505976332747878
 30
0.0
 11
4649.8219924731301944
 21
218.8505976332747878
 31
0.0
  0
LINE
  5
A237
  8
0
 10
4649.8019924731288484
 20
218.8505976332747878
 30
0.0
 11
4649.5199924731296051
 21
218.8505976332747878
 31
0.0
  0
LINE
  5
A238
  8
0
 10
4649.453992473128892
 20
218.8620976332746864
 30
0.0
 11
4649.3779924731288702
 21
218.8620976332746864
 31
0.0
  0
LINE
  5
A239
  8
0
 10
4669.2852523577303145
 20
218.884597633274808
 30
0.0
 11
4669.0609924731297724
 21
218.884597633274808
 31
0.0
  0
LINE
  5
A23A
  8
0
 10
4668.9949924731290594
 20
218.884597633274808
 30
0.0
 11
4668.6169924731302672
 21
218.884597633274808
 31
0.0
  0
LINE
  5
A23B
  8
0
 10
4668.4089924731288193
 20
218.8960417729747121
 30
0.0
 11
4650.0019924731286665
 21
218.8960417729747121
 31
0.0
  0
LINE
  5
A23C
  8
0
 10
4650.0019924731286665
 20
218.9056576170746951
 30
0.0
 11
4668.4089924731288193
 21
218.9056576170746951
 31
0.0
  0
LINE
  5
A23D
  8
0
 10
4649.3794924731300853
 20
218.9120976332746977
 30
0.0
 11
4649.779492473128812
 21
218.9120976332746977
 31
0.0
  0
LINE
  5
A23E
  8
0
 10
4649.3699924731299689
 20
218.9120976332746977
 30
0.0
 11
4649.9104924731300343
 21
218.9120976332746977
 31
0.0
  0
LINE
  5
A23F
  8
0
 10
4668.4849924731288411
 20
218.934597633274791
 30
0.0
 11
4669.2960807849303819
 21
218.934597633274791
 31
0.0
  0
LINE
  5
A240
  8
0
 10
4649.1529924731303254
 20
218.9430976332747889
 30
0.0
 11
4647.8609924731299543
 21
218.9430976332747889
 31
0.0
  0
LINE
  5
A241
  8
0
 10
4669.5858486621300472
 20
218.9430976332747889
 30
0.0
 11
4671.0079924731289793
 21
218.9430976332747889
 31
0.0
  0
LINE
  5
A242
  8
0
 10
4649.779492473128812
 20
218.9570976332747989
 30
0.0
 11
4649.7319924731300489
 21
218.9570976332747989
 31
0.0
  0
LINE
  5
A243
  8
0
 10
4649.4269924731297579
 20
218.9570976332747989
 30
0.0
 11
4649.3794924731300853
 21
218.9570976332747989
 31
0.0
  0
LINE
  5
A244
  8
0
 10
4649.9104924731300343
 20
218.9770976332748091
 30
0.0
 11
4649.7679924731301071
 21
218.9770976332748091
 31
0.0
  0
LINE
  5
A245
  8
0
 10
4649.4109924731301362
 20
218.9770976332748091
 30
0.0
 11
4649.3699924731299689
 21
218.9770976332748091
 31
0.0
  0
LINE
  5
A246
  8
0
 10
4649.4269924731297579
 20
219.0026470436748127
 30
0.0
 11
4649.4803322191301049
 21
219.0026470436748127
 31
0.0
  0
LINE
  5
A247
  8
0
 10
4649.4976527271301165
 20
219.0026470436748127
 30
0.0
 11
4649.7319924731300489
 21
219.0026470436748127
 31
0.0
  0
LINE
  5
A248
  8
0
 10
4671.0079924731289793
 20
219.0030976332747912
 30
0.0
 11
4670.5383061816291956
 21
219.0030976332747912
 31
0.0
  0
LINE
  5
A249
  8
0
 10
4671.0299924731298233
 20
219.0030976332747912
 30
0.0
 11
4669.6759924731295541
 21
219.0030976332747912
 31
0.0
  0
LINE
  5
A24A
  8
0
 10
4670.4996787646286975
 20
219.0030976332747912
 30
0.0
 11
4669.580992473130209
 21
219.0030976332747912
 31
0.0
  0
LINE
  5
A24B
  8
0
 10
4647.8609924731299543
 20
219.0030976332747912
 30
0.0
 11
4648.3306787646288285
 21
219.0030976332747912
 31
0.0
  0
LINE
  5
A24C
  8
0
 10
4647.7259924731288265
 20
219.0030976332747912
 30
0.0
 11
4649.0799924731290957
 21
219.0030976332747912
 31
0.0
  0
LINE
  5
A24D
  8
0
 10
4648.3693061816302361
 20
219.0030976332747912
 30
0.0
 11
4649.1873650561301474
 21
219.0030976332747912
 31
0.0
  0
LINE
  5
A24E
  8
0
 10
4668.4089924731288193
 20
219.0055222880747863
 30
0.0
 11
4650.0019924731286665
 21
219.0055222880747863
 31
0.0
  0
LINE
  5
A24F
  8
0
 10
4649.8009924731295541
 20
219.0226470436747093
 30
0.0
 11
4649.7679924731301071
 21
219.0226470436747093
 31
0.0
  0
LINE
  5
A250
  8
0
 10
4649.4109924731301362
 20
219.0226470436747093
 30
0.0
 11
4649.3258799787299722
 21
219.0226470436747093
 31
0.0
  0
LINE
  5
A251
  8
0
 10
4671.1079924731302526
 20
219.0230976332748014
 30
0.0
 11
4671.0959924731287174
 21
219.0230976332748014
 31
0.0
  0
LINE
  5
A252
  8
0
 10
4647.6479924731302162
 20
219.0230976332748014
 30
0.0
 11
4647.6599924731299325
 21
219.0230976332748014
 31
0.0
  0
LINE
  5
A253
  8
0
 10
4649.8247983862302135
 20
219.0270976332747068
 30
0.0
 11
4649.9439924731286737
 21
219.0270976332747068
 31
0.0
  0
LINE
  5
A254
  8
0
 10
4650.0019924731286665
 20
219.0418833123746936
 30
0.0
 11
4668.4089924731288193
 21
219.0418833123746936
 31
0.0
  0
LINE
  5
A255
  8
0
 10
4671.1279924731297797
 20
219.0630976332747935
 30
0.0
 11
4671.1079924731302526
 21
219.0630976332747935
 31
0.0
  0
LINE
  5
A256
  8
0
 10
4669.6759924731295541
 20
219.0630976332747935
 30
0.0
 11
4668.4769924731299398
 21
219.0630976332747935
 31
0.0
  0
LINE
  5
A257
  8
0
 10
4649.9519924731303036
 20
219.0630976332747935
 30
0.0
 11
4649.8618397097288835
 21
219.0630976332747935
 31
0.0
  0
LINE
  5
A258
  8
0
 10
4649.7533540473286848
 20
219.0630976332747935
 30
0.0
 11
4649.7319924731300489
 21
219.0630976332747935
 31
0.0
  0
LINE
  5
A259
  8
0
 10
4649.4269924731297579
 20
219.0630976332747935
 30
0.0
 11
4649.4256309023312497
 21
219.0630976332747935
 31
0.0
  0
LINE
  5
A25A
  8
0
 10
4649.25670667032864
 20
219.0630976332747935
 30
0.0
 11
4649.0799924731290957
 21
219.0630976332747935
 31
0.0
  0
LINE
  5
A25B
  8
0
 10
4649.0799924731290957
 20
219.0630976332747935
 30
0.0
 11
4647.6479924731302162
 21
219.0630976332747935
 31
0.0
  0
LINE
  5
A25C
  8
0
 10
4647.6479924731302162
 20
219.0630976332747935
 30
0.0
 11
4647.6279924731297797
 21
219.0630976332747935
 31
0.0
  0
LINE
  5
A25D
  8
0
 10
4669.6759924731295541
 20
219.0630976332747935
 30
0.0
 11
4671.1079924731302526
 21
219.0630976332747935
 31
0.0
  0
LINE
  5
A25E
  8
0
 10
4649.2908799787301177
 20
219.0726470436746922
 30
0.0
 11
4649.3039924731301653
 21
219.0726470436746922
 31
0.0
  0
LINE
  5
A25F
  8
0
 10
4649.3699924731299689
 20
219.0726470436746922
 30
0.0
 11
4649.4109924731301362
 21
219.0726470436746922
 31
0.0
  0
LINE
  5
A260
  8
0
 10
4649.7679924731301071
 20
219.0726470436746922
 30
0.0
 11
4649.8089924731302744
 21
219.0726470436746922
 31
0.0
  0
LINE
  5
A261
  8
0
 10
4647.6279924731297797
 20
219.079097633274813
 30
0.0
 11
4649.3118409970302309
 21
219.079097633274813
 31
0.0
  0
LINE
  5
A262
  8
0
 10
4649.3619924731310675
 20
219.079097633274813
 30
0.0
 11
4649.4269924731297579
 21
219.079097633274813
 31
0.0
  0
LINE
  5
A263
  8
0
 10
4649.7319924731300489
 20
219.079097633274813
 30
0.0
 11
4649.8169924731291758
 21
219.079097633274813
 31
0.0
  0
LINE
  5
A264
  8
0
 10
4649.8662848777303225
 20
219.079097633274813
 30
0.0
 11
4649.9519924731303036
 21
219.079097633274813
 31
0.0
  0
LINE
  5
A265
  8
0
 10
4668.4769924731299398
 20
219.079097633274813
 30
0.0
 11
4671.1279924731297797
 21
219.079097633274813
 31
0.0
  0
LINE
  5
A266
  8
0
 10
4668.4089924731288193
 20
219.0844928602747075
 30
0.0
 11
4650.0019924731286665
 21
219.0844928602747075
 31
0.0
  0
LINE
  5
A267
  8
0
 10
4649.3794924731300853
 20
219.0926470436747024
 30
0.0
 11
4649.4269924731297579
 21
219.0926470436747024
 31
0.0
  0
LINE
  5
A268
  8
0
 10
4649.7319924731300489
 20
219.0926470436747024
 30
0.0
 11
4649.779492473128812
 21
219.0926470436747024
 31
0.0
  0
LINE
  5
A269
  8
0
 10
4649.779492473128812
 20
219.1376470436746899
 30
0.0
 11
4649.3794924731300853
 21
219.1376470436746899
 31
0.0
  0
LINE
  5
A26A
  8
0
 10
4649.8089924731302744
 20
219.1376470436746899
 30
0.0
 11
4649.3699924731299689
 21
219.1376470436746899
 31
0.0
  0
LINE
  5
A26B
  8
0
 10
4668.4089924731288193
 20
219.1725517158747891
 30
0.0
 11
4650.0019924731286665
 21
219.1725517158747891
 31
0.0
  0
LINE
  5
A26C
  8
0
 10
4649.3779924731288702
 20
219.1876470436747013
 30
0.0
 11
4649.8009924731295541
 21
219.1876470436747013
 31
0.0
  0
LINE
  5
A26D
  8
0
 10
4650.0019924731286665
 20
219.2151612638747054
 30
0.0
 11
4668.4089924731288193
 21
219.2151612638747054
 31
0.0
  0
LINE
  5
A26E
  8
0
 10
4650.0019924731286665
 20
219.2625730262747084
 30
0.0
 11
4668.4089924731288193
 21
219.2625730262747084
 31
0.0
  0
LINE
  5
A26F
  8
0
 10
4668.4089924731288193
 20
219.4013768318748134
 30
0.0
 11
4650.0019924731286665
 21
219.4013768318748134
 31
0.0
  0
LINE
  5
A270
  8
0
 10
4650.5689924731295832
 20
219.4865976332748119
 30
0.0
 11
4650.5653061816301488
 21
219.4865976332748119
 31
0.0
  0
LINE
  5
A271
  8
0
 10
4650.014678764629025
 20
219.4865976332748119
 30
0.0
 11
4650.0099924731302963
 21
219.4865976332748119
 31
0.0
  0
LINE
  5
A272
  8
0
 10
4650.0179924731301071
 20
219.5365976332747948
 30
0.0
 11
4650.5689924731295832
 21
219.5365976332747948
 31
0.0
  0
LINE
  5
A273
  8
0
 10
4668.7027523460301381
 20
218.5657723156747068
 30
0.0
 11
4668.6756583881297047
 21
218.5501296117747927
 31
0.0
  0
LINE
  5
A274
  8
0
 10
4668.6765857416303334
 20
218.8305302468747016
 30
0.0
 11
4668.7027523460301381
 21
218.8154229507746891
 31
0.0
  0
LINE
  5
A275
  8
0
 10
4668.6191635113300435
 20
218.5447937640747966
 30
0.0
 11
4668.6083851641287765
 21
218.5340154169747109
 31
0.0
  0
LINE
  5
A276
  8
0
 10
4668.6083850681297918
 20
218.8471799455747089
 30
0.0
 11
4668.6196989191303146
 21
218.8358660945746976
 31
0.0
  0
LINE
  5
A277
  8
0
 10
4669.34472167533022
 20
218.8284420241747057
 30
0.0
 11
4669.2909092120298737
 21
218.8822544874747962
 31
0.0
  0
LINE
  5
A278
  8
0
 10
4669.3529756512289168
 20
218.4901933118748047
 30
0.0
 11
4669.3859838030311948
 21
218.5232014637747113
 31
0.0
  0
LINE
  5
A279
  8
0
 10
4670.52464932742987
 20
218.992754487474798
 30
0.0
 11
4670.5326493274287714
 21
219.0007544874748078
 31
0.0
  0
LINE
  5
A27A
  8
0
 10
4669.3859826113302915
 20
218.8699949944746947
 30
0.0
 11
4669.3529756512289168
 21
218.9030019545747052
 31
0.0
  0
LINE
  5
A27B
  8
0
 10
4669.3427498324299449
 20
218.9152666807748062
 30
0.0
 11
4669.3493131604300288
 21
218.9087033527746939
 31
0.0
  0
LINE
  5
A27C
  8
0
 10
4667.4769924731299398
 20
219.1725517158747891
 30
0.0
 11
4667.4769924731299398
 21
219.0844928602747075
 31
0.0
  0
LINE
  5
A27D
  8
0
 10
4667.486992473130158
 20
219.1725517158747891
 30
0.0
 11
4667.486992473130158
 21
219.0844928602747075
 31
0.0
  0
LINE
  5
A27E
  8
0
 10
4667.6994924731288847
 20
219.0844928602747075
 30
0.0
 11
4667.6994924731288847
 21
219.1725517158747891
 31
0.0
  0
LINE
  5
A27F
  8
0
 10
4667.7269924731299398
 20
219.1725517158747891
 30
0.0
 11
4667.7269924731299398
 21
219.0844928602747075
 31
0.0
  0
LINE
  5
A280
  8
0
 10
4670.5053356189300757
 20
219.0007544874748078
 30
0.0
 11
4670.5133356189298866
 21
218.992754487474798
 31
0.0
  0
LINE
  5
A281
  8
0
 10
4668.4089924731288193
 20
218.462597633274811
 30
0.0
 11
4668.4089924731288193
 21
218.5125976332747939
 31
0.0
  0
LINE
  5
A282
  8
0
 10
4668.4089924731288193
 20
218.5019496481747865
 30
0.0
 11
4668.4089924731288193
 21
218.8045976332747102
 31
0.0
  0
LINE
  5
A283
  8
0
 10
4668.4089924731288193
 20
218.8064649251747085
 30
0.0
 11
4668.4089924731288193
 21
218.8505976332747878
 31
0.0
  0
LINE
  5
A284
  8
0
 10
4668.4089924731288193
 20
218.8505976332747878
 30
0.0
 11
4668.4089924731288193
 21
219.4005976332747139
 31
0.0
  0
LINE
  5
A285
  8
0
 10
4668.4769924731299398
 20
219.4005976332747139
 30
0.0
 11
4668.4769924731299398
 21
218.942597633274687
 31
0.0
  0
LINE
  5
A286
  8
0
 10
4668.6089924731295469
 20
218.8765976332747982
 30
0.0
 11
4668.6089924731295469
 21
218.8505976332747878
 31
0.0
  0
LINE
  5
A287
  8
0
 10
4668.6089924731295469
 20
218.5305976332747946
 30
0.0
 11
4668.6089924731295469
 21
218.462597633274811
 31
0.0
  0
LINE
  5
A288
  8
0
 10
4668.709002346028683
 20
218.8045976332747102
 30
0.0
 11
4668.709002346028683
 21
218.5765976332747016
 31
0.0
  0
LINE
  5
A289
  8
0
 10
4668.9499924731289866
 20
218.5191345569747909
 30
0.0
 11
4668.9499924731289866
 21
218.8110780443747956
 31
0.0
  0
LINE
  5
A28A
  8
0
 10
4669.0029924731297797
 20
218.462597633274811
 30
0.0
 11
4669.0029924731297797
 21
218.8765976332747982
 31
0.0
  0
LINE
  5
A28B
  8
0
 10
4669.0529924731299616
 20
218.8765976332747982
 30
0.0
 11
4669.0529924731299616
 21
218.4705976332747923
 31
0.0
  0
LINE
  5
A28C
  8
0
 10
4669.6599924731299325
 20
218.3990976332748062
 30
0.0
 11
4669.6599924731299325
 21
218.404097633274688
 31
0.0
  0
LINE
  5
A28D
  8
0
 10
4669.6599924731299325
 20
219.019097633274697
 30
0.0
 11
4669.6599924731299325
 21
219.0470976332746886
 31
0.0
  0
LINE
  5
A28E
  8
0
 10
4669.7099924731301144
 20
218.404097633274688
 30
0.0
 11
4669.7099924731301144
 21
218.3960976332747919
 31
0.0
  0
LINE
  5
A28F
  8
0
 10
4671.0379924731296342
 20
218.3960976332747919
 30
0.0
 11
4671.0379924731296342
 21
218.9950976332748098
 31
0.0
  0
LINE
  5
A290
  8
0
 10
4671.0879924731298161
 20
219.0150976332747916
 30
0.0
 11
4671.0879924731298161
 21
218.3810976332746918
 31
0.0
  0
LINE
  5
A291
  8
0
 10
4671.1279924731297797
 20
218.2530976332747912
 30
0.0
 11
4671.1279924731297797
 21
219.079097633274813
 31
0.0
  0
ARC
  5
A292
  8
0
 10
4647.9466515910298767
 20
218.575174114274688
 30
0.0
 40
0.1613130696
 50
229.2826887808984964
 51
262.9999999994952873
  0
ARC
  5
A293
  8
0
 10
4647.9466515910298767
 20
218.575174114274688
 30
0.0
 40
0.1013130696
 50
229.2826887797990878
 51
263.000000000124885
  0
ARC
  5
A294
  8
0
 10
4649.0299924731289138
 20
218.3990976332748062
 30
0.0
 40
0.066
 50
270.0
 51
0.0
  0
ARC
  5
A295
  8
0
 10
4648.1380292060293868
 20
218.455647043674702
 30
0.0
 40
0.066
 50
263.0000000004928893
 51
270.0
  0
ARC
  5
A296
  8
0
 10
4647.8609924731299543
 20
218.4756470436747975
 30
0.0
 40
0.03
 50
49.2826887841166368
 51
229.2826887815089094
  0
ARC
  5
A297
  8
0
 10
4649.0709924731299907
 20
218.404097633274688
 30
0.0
 40
0.025
 50
0.0
 51
180.0
  0
ARC
  5
A298
  8
0
 10
4647.6479924731302162
 20
218.3530976332748139
 30
0.0
 40
0.02
 50
90.0
 51
270.0
  0
ARC
  5
A299
  8
0
 10
4648.1349710750291706
 20
218.4660976332748135
 30
0.0
 40
0.016
 50
262.9999999927754857
 51
270.0
  0
ARC
  5
A29A
  8
0
 10
4647.7259924731288265
 20
218.3960976332747919
 30
0.0
 40
0.008
 50
180.0
 51
270.0
  0
ARC
  5
A29B
  8
0
 10
4649.0379924731296342
 20
218.3960976332747919
 30
0.0
 40
0.008
 50
270.0
 51
0.0
  0
ARC
  5
A29C
  8
0
 10
4647.6599924731299325
 20
218.3810976332746918
 30
0.0
 40
0.008
 50
270.0
 51
0.0
  0
ARC
  5
A29D
  8
0
 10
4650.0179924731301071
 20
217.91059763327479
 30
0.0
 40
0.066
 50
180.0
 51
270.0
  0
ARC
  5
A29E
  8
0
 10
4650.5689924731295832
 20
217.869597633274708
 30
0.0
 40
0.025
 50
270.0
 51
90.0
  0
ARC
  5
A29F
  8
0
 10
4650.5653061816301488
 20
217.8865976332747891
 30
0.0
 40
0.008
 50
90.0
 51
135.0000000008093934
  0
ARC
  5
A2A0
  8
0
 10
4650.5459924731303545
 20
217.8899113417747913
 30
0.0
 40
0.008
 50
224.9999999991904929
 51
315.0000000008095071
  0
ARC
  5
A2A1
  8
0
 10
4650.5299924731298233
 20
217.883283924774787
 30
0.0
 40
0.008
 50
44.9999999991905
 51
135.0000000008093934
  0
ARC
  5
A2A2
  8
0
 10
4650.5139924731302017
 20
217.8899113417747913
 30
0.0
 40
0.008
 50
224.9999999991904929
 51
315.0000000008095071
  0
ARC
  5
A2A3
  8
0
 10
4650.4979924731296705
 20
217.883283924774787
 30
0.0
 40
0.008
 50
44.9999999991905
 51
135.0000000008093934
  0
ARC
  5
A2A4
  8
0
 10
4650.4819924731300489
 20
217.8899113417747913
 30
0.0
 40
0.008
 50
224.9999999991904929
 51
315.0000000008095071
  0
ARC
  5
A2A5
  8
0
 10
4650.4659924731286083
 20
217.883283924774787
 30
0.0
 40
0.008
 50
44.9999999991905
 51
135.0000000008093934
  0
ARC
  5
A2A6
  8
0
 10
4650.4499924731298961
 20
217.8899113417747913
 30
0.0
 40
0.008
 50
224.9999999991904929
 51
315.0000000008095071
  0
ARC
  5
A2A7
  8
0
 10
4650.4339924731302744
 20
217.883283924774787
 30
0.0
 40
0.008
 50
44.9999999991905
 51
135.0000000008093934
  0
ARC
  5
A2A8
  8
0
 10
4650.4179924731288338
 20
217.8899113417747913
 30
0.0
 40
0.008
 50
224.9999999991904929
 51
315.0000000008095071
  0
ARC
  5
A2A9
  8
0
 10
4650.4019924731301217
 20
217.883283924774787
 30
0.0
 40
0.008
 50
44.9999999991905
 51
135.0000000008093934
  0
ARC
  5
A2AA
  8
0
 10
4650.385992473128681
 20
217.8899113417747913
 30
0.0
 40
0.008
 50
224.9999999991904929
 51
315.0000000008095071
  0
ARC
  5
A2AB
  8
0
 10
4650.3699924731290594
 20
217.883283924774787
 30
0.0
 40
0.008
 50
44.9999999991905
 51
135.0000000008093934
  0
ARC
  5
A2AC
  8
0
 10
4650.3539924731312567
 20
217.8899113417747913
 30
0.0
 40
0.008
 50
224.9999999991904929
 51
315.0000000008095071
  0
ARC
  5
A2AD
  8
0
 10
4650.3379924731289066
 20
217.883283924774787
 30
0.0
 40
0.008
 50
44.9999999991905
 51
135.0000000008093934
  0
ARC
  5
A2AE
  8
0
 10
4650.3219924731301944
 20
217.8899113417747913
 30
0.0
 40
0.008
 50
224.9999999991904929
 51
315.0000000008095071
  0
ARC
  5
A2AF
  8
0
 10
4650.3059924731287538
 20
217.883283924774787
 30
0.0
 40
0.008
 50
44.9999999991905
 51
135.0000000008093934
  0
ARC
  5
A2B0
  8
0
 10
4650.2899924731300416
 20
217.8899113417747913
 30
0.0
 40
0.008
 50
224.9999999991904929
 51
315.0000000008095071
  0
ARC
  5
A2B1
  8
0
 10
4650.27399247313042
 20
217.883283924774787
 30
0.0
 40
0.008
 50
44.9999999991905
 51
135.0000000008093934
  0
ARC
  5
A2B2
  8
0
 10
4650.2579924731298888
 20
217.8899113417747913
 30
0.0
 40
0.008
 50
224.9999999991904929
 51
315.0000000008095071
  0
ARC
  5
A2B3
  8
0
 10
4650.2419924731302672
 20
217.883283924774787
 30
0.0
 40
0.008
 50
44.9999999991905
 51
135.0000000008093934
  0
ARC
  5
A2B4
  8
0
 10
4650.225992473129736
 20
217.8899113417747913
 30
0.0
 40
0.008
 50
224.9999999991904929
 51
315.0000000008095071
  0
ARC
  5
A2B5
  8
0
 10
4650.2099924731301144
 20
217.883283924774787
 30
0.0
 40
0.008
 50
44.9999999991905
 51
135.0000000008093934
  0
ARC
  5
A2B6
  8
0
 10
4650.1939924731295832
 20
217.8899113417747913
 30
0.0
 40
0.008
 50
224.9999999991904929
 51
315.0000000008095071
  0
ARC
  5
A2B7
  8
0
 10
4650.1779924731299616
 20
217.883283924774787
 30
0.0
 40
0.008
 50
44.9999999991905
 51
135.0000000008093934
  0
ARC
  5
A2B8
  8
0
 10
4650.1619924731303399
 20
217.8899113417747913
 30
0.0
 40
0.008
 50
224.9999999991904929
 51
315.0000000008095071
  0
ARC
  5
A2B9
  8
0
 10
4650.1459924731298088
 20
217.883283924774787
 30
0.0
 40
0.008
 50
44.9999999991905
 51
135.0000000008093934
  0
ARC
  5
A2BA
  8
0
 10
4650.1299924731301871
 20
217.8899113417747913
 30
0.0
 40
0.008
 50
224.9999999991904929
 51
315.0000000008095071
  0
ARC
  5
A2BB
  8
0
 10
4650.1139924731287465
 20
217.883283924774787
 30
0.0
 40
0.008
 50
44.9999999991905
 51
135.0000000008093934
  0
ARC
  5
A2BC
  8
0
 10
4650.0979924731300343
 20
217.8899113417747913
 30
0.0
 40
0.008
 50
224.9999999991904929
 51
315.0000000008095071
  0
ARC
  5
A2BD
  8
0
 10
4650.0819924731285937
 20
217.883283924774787
 30
0.0
 40
0.008
 50
44.9999999991905
 51
135.0000000008093934
  0
ARC
  5
A2BE
  8
0
 10
4650.0659924731298815
 20
217.8899113417747913
 30
0.0
 40
0.008
 50
224.9999999991904929
 51
315.0000000008095071
  0
ARC
  5
A2BF
  8
0
 10
4650.0499924731302599
 20
217.883283924774787
 30
0.0
 40
0.008
 50
44.9999999991905
 51
135.0000000008093934
  0
ARC
  5
A2C0
  8
0
 10
4650.0339924731288193
 20
217.8899113417747913
 30
0.0
 40
0.008
 50
224.9999999991904929
 51
315.0000000008095071
  0
ARC
  5
A2C1
  8
0
 10
4650.014678764629025
 20
217.8865976332747891
 30
0.0
 40
0.008
 50
44.9999999991029966
 51
90.0
  0
ARC
  5
A2C2
  8
0
 10
4650.0099924731302963
 20
217.9025976332748087
 30
0.0
 40
0.008
 50
180.0
 51
270.0
  0
ARC
  5
A2C3
  8
0
 10
4649.1529924731303254
 20
218.455647043674702
 30
0.0
 40
0.066
 50
270.0
 51
0.0
  0
ARC
  5
A2C4
  8
0
 10
4649.3719924731303763
 20
218.494097633274805
 30
0.0
 40
0.025
 50
90.0
 51
270.0
  0
ARC
  5
A2C5
  8
0
 10
4649.1529924731303254
 20
218.4660976332748135
 30
0.0
 40
0.016
 50
270.0
 51
0.0
  0
ARC
  5
A2C6
  8
0
 10
4649.7144826002304399
 20
218.5765976332747016
 30
0.0
 40
0.0125
 50
179.9999999998989892
 51
239.9999999998848068
  0
ARC
  5
A2C7
  8
0
 10
4649.7415765581299638
 20
218.5609549293747875
 30
0.0
 40
0.0125
 50
239.9999999998848068
 51
270.0
  0
ARC
  5
A2C8
  8
0
 10
4649.7829826002298432
 20
218.5359549293746966
 30
0.0
 40
0.0125
 50
44.9999999996983107
 51
90.0
  0
ARC
  5
A2C9
  8
0
 10
4649.9919924731302672
 20
218.5305976332747946
 30
0.0
 40
0.01
 50
0.0
 51
180.0
  0
ARC
  5
A2CA
  8
0
 10
4649.9019924731301217
 20
218.5305976332747946
 30
0.0
 40
0.01
 50
0.0
 51
180.0
  0
ARC
  5
A2CB
  8
0
 10
4649.8119924731299761
 20
218.5305976332747946
 30
0.0
 40
0.01
 50
0.0
 51
180.0
  0
ARC
  5
A2CC
  8
0
 10
4649.453992473128892
 20
218.5270976332747921
 30
0.0
 40
0.008
 50
270.0
 51
0.0
  0
ARC
  5
A2CD
  8
0
 10
4649.9439924731286737
 20
218.4610976332747896
 30
0.0
 40
0.008
 50
0.0
 51
90.0
  0
ARC
  5
A2CE
  8
0
 10
4649.5199924731296051
 20
218.5385976332748044
 30
0.0
 40
0.008
 50
180.0
 51
270.0
  0
ARC
  5
A2CF
  8
0
 10
4647.8609924731299543
 20
218.9730976332747048
 30
0.0
 40
0.03
 50
90.0
 51
270.0
  0
ARC
  5
A2D0
  8
0
 10
4647.6479924731302162
 20
219.0430976332748116
 30
0.0
 40
0.02
 50
90.0
 51
270.0
  0
ARC
  5
A2D1
  8
0
 10
4649.0799924731290957
 20
219.0470976332746886
 30
0.0
 40
0.016
 50
0.0
 51
90.0
  0
ARC
  5
A2D2
  8
0
 10
4649.0799924731290957
 20
219.019097633274697
 30
0.0
 40
0.016
 50
270.0
 51
0.0
  0
ARC
  5
A2D3
  8
0
 10
4647.6599924731299325
 20
219.0150976332747916
 30
0.0
 40
0.008
 50
0.0
 51
90.0
  0
ARC
  5
A2D4
  8
0
 10
4647.7259924731288265
 20
218.9950976332748098
 30
0.0
 40
0.008
 50
90.0
 51
180.0
  0
ARC
  5
A2D5
  8
0
 10
4648.3499924731286228
 20
218.9984113417748119
 30
0.0
 40
0.008
 50
224.9999999991904929
 51
315.0000000008095071
  0
ARC
  5
A2D6
  8
0
 10
4648.3306787646288285
 20
218.9950976332748098
 30
0.0
 40
0.008
 50
44.9999999991905
 51
90.0
  0
ARC
  5
A2D7
  8
0
 10
4648.3693061816302361
 20
218.9950976332748098
 30
0.0
 40
0.008
 50
90.0
 51
135.0000000008093934
  0
ARC
  5
A2D8
  8
0
 10
4649.2849924731299325
 20
218.9157595380748091
 30
0.0
 40
0.066
 50
135.0000000003016964
 51
180.0
  0
ARC
  5
A2D9
  8
0
 10
4649.3258799787299722
 20
218.956647043674792
 30
0.0
 40
0.066
 50
90.0
 51
134.9999999997075122
  0
ARC
  5
A2DA
  8
0
 10
4649.8009924731295541
 20
219.088647043674797
 30
0.0
 40
0.066
 50
270.0
 51
0.0
  0
ARC
  5
A2DB
  8
0
 10
4649.2908799787301177
 20
219.0066470436748034
 30
0.0
 40
0.066
 50
90.0
 51
134.9999999997075122
  0
ARC
  5
A2DC
  8
0
 10
4649.3779924731288702
 20
218.9610976332747896
 30
0.0
 40
0.066
 50
111.1448943942988024
 51
180.0
  0
ARC
  5
A2DD
  8
0
 10
4649.3779924731288702
 20
218.9280976332748025
 30
0.0
 40
0.066
 50
180.0
 51
270.0
  0
ARC
  5
A2DE
  8
0
 10
4649.9104924731300343
 20
218.9445976332748103
 30
0.0
 40
0.0325
 50
270.0
 51
90.0
  0
ARC
  5
A2DF
  8
0
 10
4649.1529924731303254
 20
218.9270976332747978
 30
0.0
 40
0.016
 50
0.0
 51
90.0
  0
ARC
  5
A2E0
  8
0
 10
4649.4109924731301362
 20
219.0386470436747004
 30
0.0
 40
0.016
 50
270.0
 51
0.0
  0
ARC
  5
A2E1
  8
0
 10
4649.4109924731301362
 20
219.0566470436747863
 30
0.0
 40
0.016
 50
0.0
 51
90.0
  0
ARC
  5
A2E2
  8
0
 10
4649.7679924731301071
 20
219.0566470436747863
 30
0.0
 40
0.016
 50
90.0
 51
180.0
  0
ARC
  5
A2E3
  8
0
 10
4649.7679924731301071
 20
219.0386470436747004
 30
0.0
 40
0.016
 50
180.0
 51
270.0
  0
ARC
  5
A2E4
  8
0
 10
4649.1873650561301474
 20
219.019097633274697
 30
0.0
 40
0.016
 50
270.0
 51
315.0000000009833911
  0
ARC
  5
A2E5
  8
0
 10
4649.7679924731301071
 20
219.0110976332746873
 30
0.0
 40
0.016
 50
120.5559791405016057
 51
180.0
  0
ARC
  5
A2E6
  8
0
 10
4649.7679924731301071
 20
218.9930976332746866
 30
0.0
 40
0.016
 50
180.0
 51
270.0
  0
ARC
  5
A2E7
  8
0
 10
4649.4109924731301362
 20
218.9930976332746866
 30
0.0
 40
0.016
 50
270.0
 51
0.0
  0
ARC
  5
A2E8
  8
0
 10
4649.4109924731301362
 20
219.0110976332746873
 30
0.0
 40
0.016
 50
0.0
 51
59.4440157833839322
  0
ARC
  5
A2E9
  8
0
 10
4649.7144826002304399
 20
218.8045976332747102
 30
0.0
 40
0.0125
 50
119.9999999999997016
 51
179.9999999998989892
  0
ARC
  5
A2EA
  8
0
 10
4649.7406492046302446
 20
218.8197049293746943
 30
0.0
 40
0.0125
 50
90.0
 51
119.9999999999997016
  0
ARC
  5
A2EB
  8
0
 10
4649.7824471924286627
 20
218.8447049293748137
 30
0.0
 40
0.0125
 50
270.0
 51
315.0000000006863274
  0
ARC
  5
A2EC
  8
0
 10
4649.8119924731299761
 20
218.8505976332747878
 30
0.0
 40
0.01
 50
180.0
 51
0.0
  0
ARC
  5
A2ED
  8
0
 10
4649.9919924731302672
 20
218.8505976332747878
 30
0.0
 40
0.01
 50
180.0
 51
0.0
  0
ARC
  5
A2EE
  8
0
 10
4649.9019924731301217
 20
218.8505976332747878
 30
0.0
 40
0.01
 50
180.0
 51
0.0
  0
ARC
  5
A2EF
  8
0
 10
4649.3699924731299689
 20
219.0806470436747873
 30
0.0
 40
0.008
 50
180.0
 51
270.0
  0
ARC
  5
A2F0
  8
0
 10
4649.8089924731302744
 20
219.0806470436747873
 30
0.0
 40
0.008
 50
270.0
 51
0.0
  0
ARC
  5
A2F1
  8
0
 10
4649.3039924731301653
 20
219.0806470436747873
 30
0.0
 40
0.008
 50
270.0
 51
0.0
  0
ARC
  5
A2F2
  8
0
 10
4649.9439924731286737
 20
219.0350976332748019
 30
0.0
 40
0.008
 50
270.0
 51
0.0
  0
ARC
  5
A2F3
  8
0
 10
4649.3699924731299689
 20
218.9200976332747928
 30
0.0
 40
0.008
 50
180.0
 51
270.0
  0
ARC
  5
A2F4
  8
0
 10
4649.3699924731299689
 20
218.9690976332747994
 30
0.0
 40
0.008
 50
90.0
 51
180.0
  0
ARC
  5
A2F5
  8
0
 10
4649.453992473128892
 20
218.8540976332747903
 30
0.0
 40
0.008
 50
0.0
 51
90.0
  0
ARC
  5
A2F6
  8
0
 10
4649.5199924731296051
 20
218.8425976332748064
 30
0.0
 40
0.008
 50
90.0
 51
180.0
  0
ARC
  5
A2F7
  8
0
 10
4649.8009924731295541
 20
219.1216470436748125
 30
0.0
 40
0.066
 50
0.0
 51
90.0
  0
ARC
  5
A2F8
  8
0
 10
4649.3779924731288702
 20
219.1216470436748125
 30
0.0
 40
0.066
 50
90.0
 51
180.0
  0
ARC
  5
A2F9
  8
0
 10
4649.3699924731299689
 20
219.1296470436747938
 30
0.0
 40
0.008
 50
90.0
 51
180.0
  0
ARC
  5
A2FA
  8
0
 10
4649.8089924731302744
 20
219.1296470436747938
 30
0.0
 40
0.008
 50
0.0
 51
90.0
  0
ARC
  5
A2FB
  8
0
 10
4650.0179924731301071
 20
219.4705976332747923
 30
0.0
 40
0.066
 50
90.0
 51
180.0
  0
ARC
  5
A2FC
  8
0
 10
4650.5689924731295832
 20
219.5115976332747039
 30
0.0
 40
0.025
 50
270.0
 51
90.0
  0
ARC
  5
A2FD
  8
0
 10
4650.2899924731300416
 20
219.4912839247747058
 30
0.0
 40
0.008
 50
44.9999999991905
 51
135.0000000008093934
  0
ARC
  5
A2FE
  8
0
 10
4650.3059924731287538
 20
219.4979113417747953
 30
0.0
 40
0.008
 50
224.9999999991904929
 51
315.0000000008095071
  0
ARC
  5
A2FF
  8
0
 10
4650.3219924731301944
 20
219.4912839247747058
 30
0.0
 40
0.008
 50
44.9999999991905
 51
135.0000000008093934
  0
ARC
  5
A300
  8
0
 10
4650.3379924731289066
 20
219.4979113417747953
 30
0.0
 40
0.008
 50
224.9999999991904929
 51
315.0000000008095071
  0
ARC
  5
A301
  8
0
 10
4650.3539924731312567
 20
219.4912839247747058
 30
0.0
 40
0.008
 50
44.9999999991905
 51
135.0000000008093934
  0
ARC
  5
A302
  8
0
 10
4650.3699924731290594
 20
219.4979113417747953
 30
0.0
 40
0.008
 50
224.9999999991904929
 51
315.0000000008095071
  0
ARC
  5
A303
  8
0
 10
4650.385992473128681
 20
219.4912839247747058
 30
0.0
 40
0.008
 50
44.9999999991905
 51
135.0000000008093934
  0
ARC
  5
A304
  8
0
 10
4650.4019924731301217
 20
219.4979113417747953
 30
0.0
 40
0.008
 50
224.9999999991904929
 51
315.0000000008095071
  0
ARC
  5
A305
  8
0
 10
4650.4179924731288338
 20
219.4912839247747058
 30
0.0
 40
0.008
 50
44.9999999991905
 51
135.0000000008093934
  0
ARC
  5
A306
  8
0
 10
4650.4339924731302744
 20
219.4979113417747953
 30
0.0
 40
0.008
 50
224.9999999991904929
 51
315.0000000008095071
  0
ARC
  5
A307
  8
0
 10
4650.4499924731298961
 20
219.4912839247747058
 30
0.0
 40
0.008
 50
44.9999999991905
 51
135.0000000008093934
  0
ARC
  5
A308
  8
0
 10
4650.4659924731286083
 20
219.4979113417747953
 30
0.0
 40
0.008
 50
224.9999999991904929
 51
315.0000000008095071
  0
ARC
  5
A309
  8
0
 10
4650.4819924731300489
 20
219.4912839247747058
 30
0.0
 40
0.008
 50
44.9999999991905
 51
135.0000000008093934
  0
ARC
  5
A30A
  8
0
 10
4650.4979924731296705
 20
219.4979113417747953
 30
0.0
 40
0.008
 50
224.9999999991904929
 51
315.0000000008095071
  0
ARC
  5
A30B
  8
0
 10
4650.5139924731302017
 20
219.4912839247747058
 30
0.0
 40
0.008
 50
44.9999999991905
 51
135.0000000008093934
  0
ARC
  5
A30C
  8
0
 10
4650.5299924731298233
 20
219.4979113417747953
 30
0.0
 40
0.008
 50
224.9999999991904929
 51
315.0000000008095071
  0
ARC
  5
A30D
  8
0
 10
4650.5459924731303545
 20
219.4912839247747058
 30
0.0
 40
0.008
 50
44.9999999991905
 51
135.0000000008093934
  0
ARC
  5
A30E
  8
0
 10
4650.5653061816301488
 20
219.494597633274708
 30
0.0
 40
0.008
 50
224.9999999991904929
 51
270.0
  0
ARC
  5
A30F
  8
0
 10
4650.27399247313042
 20
219.4979113417747953
 30
0.0
 40
0.008
 50
224.9999999991904929
 51
315.0000000008095071
  0
ARC
  5
A310
  8
0
 10
4650.2579924731298888
 20
219.4912839247747058
 30
0.0
 40
0.008
 50
44.9999999991905
 51
135.0000000008093934
  0
ARC
  5
A311
  8
0
 10
4650.2419924731302672
 20
219.4979113417747953
 30
0.0
 40
0.008
 50
224.9999999991904929
 51
315.0000000008095071
  0
ARC
  5
A312
  8
0
 10
4650.225992473129736
 20
219.4912839247747058
 30
0.0
 40
0.008
 50
44.9999999991905
 51
135.0000000008093934
  0
ARC
  5
A313
  8
0
 10
4650.2099924731301144
 20
219.4979113417747953
 30
0.0
 40
0.008
 50
224.9999999991904929
 51
315.0000000008095071
  0
ARC
  5
A314
  8
0
 10
4650.1939924731295832
 20
219.4912839247747058
 30
0.0
 40
0.008
 50
44.9999999991905
 51
135.0000000008093934
  0
ARC
  5
A315
  8
0
 10
4650.1779924731299616
 20
219.4979113417747953
 30
0.0
 40
0.008
 50
224.9999999991904929
 51
315.0000000008095071
  0
ARC
  5
A316
  8
0
 10
4650.1619924731303399
 20
219.4912839247747058
 30
0.0
 40
0.008
 50
44.9999999991905
 51
135.0000000008093934
  0
ARC
  5
A317
  8
0
 10
4650.1459924731298088
 20
219.4979113417747953
 30
0.0
 40
0.008
 50
224.9999999991904929
 51
315.0000000008095071
  0
ARC
  5
A318
  8
0
 10
4650.1299924731301871
 20
219.4912839247747058
 30
0.0
 40
0.008
 50
44.9999999991905
 51
135.0000000008093934
  0
ARC
  5
A319
  8
0
 10
4650.1139924731287465
 20
219.4979113417747953
 30
0.0
 40
0.008
 50
224.9999999991904929
 51
315.0000000008095071
  0
ARC
  5
A31A
  8
0
 10
4650.0979924731300343
 20
219.4912839247747058
 30
0.0
 40
0.008
 50
44.9999999991905
 51
135.0000000008093934
  0
ARC
  5
A31B
  8
0
 10
4650.0819924731285937
 20
219.4979113417747953
 30
0.0
 40
0.008
 50
224.9999999991904929
 51
315.0000000008095071
  0
ARC
  5
A31C
  8
0
 10
4650.0659924731298815
 20
219.4912839247747058
 30
0.0
 40
0.008
 50
44.9999999991905
 51
135.0000000008093934
  0
ARC
  5
A31D
  8
0
 10
4650.0499924731302599
 20
219.4979113417747953
 30
0.0
 40
0.008
 50
224.9999999991904929
 51
315.0000000008095071
  0
ARC
  5
A31E
  8
0
 10
4650.0339924731288193
 20
219.4912839247747058
 30
0.0
 40
0.008
 50
44.9999999993137223
 51
135.0000000008093934
  0
ARC
  5
A31F
  8
0
 10
4650.014678764629025
 20
219.494597633274708
 30
0.0
 40
0.008
 50
270.0
 51
315.0000000006863274
  0
ARC
  5
A320
  8
0
 10
4650.0099924731302963
 20
219.4785976332746884
 30
0.0
 40
0.008
 50
90.0
 51
180.0
  0
ARC
  5
A321
  8
0
 10
4669.580992473130209
 20
218.6280976332747059
 30
0.0
 40
0.375
 50
90.0
 51
127.1303107076003016
  0
ARC
  5
A322
  8
0
 10
4670.8885107238302226
 20
218.6608247605747977
 30
0.0
 40
0.25
 50
276.9999999997169766
 51
302.8948419102115963
  0
ARC
  5
A323
  8
0
 10
4670.8885107238302226
 20
218.6608247605747977
 30
0.0
 40
0.19
 50
276.9999999996122142
 51
302.8948419102845833
  0
ARC
  5
A324
  8
0
 10
4670.7309557402286373
 20
218.4560976332747089
 30
0.0
 40
0.066
 50
270.0
 51
277.0000000016071908
  0
ARC
  5
A325
  8
0
 10
4669.725992473129736
 20
218.3990976332748062
 30
0.0
 40
0.066
 50
180.0
 51
270.0
  0
ARC
  5
A326
  8
0
 10
4668.986992473130158
 20
218.4705976332747923
 30
0.0
 40
0.066
 50
270.0
 51
0.0
  0
ARC
  5
A327
  8
0
 10
4671.0079924731289793
 20
218.4760976332746907
 30
0.0
 40
0.03
 50
302.8948419100950105
 51
122.894841909714799
  0
ARC
  5
A328
  8
0
 10
4669.6849924731286592
 20
218.404097633274688
 30
0.0
 40
0.025
 50
0.0
 51
180.0
  0
ARC
  5
A329
  8
0
 10
4668.3529924731301435
 20
218.4295976332747955
 30
0.0
 40
0.025
 50
90.0
 51
270.0
  0
ARC
  5
A32A
  8
0
 10
4671.1079924731302526
 20
218.3530976332748139
 30
0.0
 40
0.02
 50
270.0
 51
90.0
  0
ARC
  5
A32B
  8
0
 10
4669.5858486621300472
 20
218.4660976332748135
 30
0.0
 40
0.016
 50
106.1747244769124023
 51
270.0
  0
ARC
  5
A32C
  8
0
 10
4670.7303441140302311
 20
218.4660976332748135
 30
0.0
 40
0.016
 50
270.0
 51
277.0000000072245143
  0
ARC
  5
A32D
  8
0
 10
4669.3642893597289003
 20
218.4788796033747076
 30
0.0
 40
0.016
 50
134.9999999991121911
 51
232.869689292279304
  0
ARC
  5
A32E
  8
0
 10
4668.6965023460288648
 20
218.5765976332747016
 30
0.0
 40
0.0125
 50
300.0000000001152216
 51
0.0
  0
ARC
  5
A32F
  8
0
 10
4668.6694083881302504
 20
218.5609549293747875
 30
0.0
 40
0.0125
 50
270.0
 51
300.0000000001152216
  0
ARC
  5
A330
  8
0
 10
4668.628002346030371
 20
218.5359549293746966
 30
0.0
 40
0.0125
 50
90.0
 51
135.0000000003016964
  0
ARC
  5
A331
  8
0
 10
4668.5989924731302381
 20
218.5305976332747946
 30
0.0
 40
0.01
 50
0.0
 51
180.0
  0
ARC
  5
A332
  8
0
 10
4668.5089924731300925
 20
218.5305976332747946
 30
0.0
 40
0.01
 50
0.0
 51
180.0
  0
ARC
  5
A333
  8
0
 10
4668.418992473129947
 20
218.5305976332747946
 30
0.0
 40
0.01
 50
0.0
 51
180.0
  0
ARC
  5
A334
  8
0
 10
4671.0959924731287174
 20
218.3810976332746918
 30
0.0
 40
0.008
 50
180.0
 51
270.0
  0
ARC
  5
A335
  8
0
 10
4669.7179924731299252
 20
218.3960976332747919
 30
0.0
 40
0.008
 50
180.0
 51
270.0
  0
ARC
  5
A336
  8
0
 10
4671.0299924731298233
 20
218.3960976332747919
 30
0.0
 40
0.008
 50
270.0
 51
0.0
  0
ARC
  5
A337
  8
0
 10
4668.9949924731290594
 20
218.462597633274811
 30
0.0
 40
0.008
 50
270.0
 51
0.0
  0
ARC
  5
A338
  8
0
 10
4668.6169924731302672
 20
218.462597633274811
 30
0.0
 40
0.008
 50
180.0
 51
270.0
  0
ARC
  5
A339
  8
0
 10
4668.4009924731299179
 20
218.462597633274811
 30
0.0
 40
0.008
 50
270.0
 51
0.0
  0
ARC
  5
A33A
  8
0
 10
4669.580992473130209
 20
218.7650976332747916
 30
0.0
 40
0.375
 50
232.8696892923987036
 51
270.0
  0
ARC
  5
A33B
  8
0
 10
4669.5189924731303108
 20
218.6965976332747914
 30
0.0
 40
0.224
 50
286.1747244790852847
 51
73.8252755209146869
  0
CIRCLE
  5
A33C
  8
0
 10
4669.5189924731303108
 20
218.6965976332747914
 30
0.0
 40
0.21875
  0
ARC
  5
A33D
  8
0
 10
4669.2960807849303819
 20
218.8685976332747032
 30
0.0
 40
0.066
 50
45.0000000002924807
 51
90.0
  0
ARC
  5
A33E
  8
0
 10
4669.3642893597289003
 20
218.9143156630746887
 30
0.0
 40
0.016
 50
127.1303107076791008
 51
225.0000000041085002
  0
ARC
  5
A33F
  8
0
 10
4669.5858486621300472
 20
218.9270976332747978
 30
0.0
 40
0.016
 50
90.0
 51
253.8252755230876119
  0
ARC
  5
A340
  8
0
 10
4669.6759924731295541
 20
219.019097633274697
 30
0.0
 40
0.016
 50
180.0
 51
270.0
  0
ARC
  5
A341
  8
0
 10
4669.6759924731295541
 20
219.0470976332746886
 30
0.0
 40
0.016
 50
90.0
 51
180.0
  0
ARC
  5
A342
  8
0
 10
4668.6965023460288648
 20
218.8045976332747102
 30
0.0
 40
0.0125
 50
0.0000000001009635
 51
60.0000000000002771
  0
ARC
  5
A343
  8
0
 10
4668.6703357416290601
 20
218.8197049293746943
 30
0.0
 40
0.0125
 50
60.0000000000002771
 51
90.0
  0
ARC
  5
A344
  8
0
 10
4668.628537753828823
 20
218.8447049293748137
 30
0.0
 40
0.0125
 50
224.999999999313701
 51
270.0
  0
ARC
  5
A345
  8
0
 10
4668.418992473129947
 20
218.8505976332747878
 30
0.0
 40
0.01
 50
180.0
 51
0.0
  0
ARC
  5
A346
  8
0
 10
4668.5089924731300925
 20
218.8505976332747878
 30
0.0
 40
0.01
 50
180.0
 51
0.0
  0
ARC
  5
A347
  8
0
 10
4668.5989924731302381
 20
218.8505976332747878
 30
0.0
 40
0.01
 50
180.0
 51
0.0
  0
ARC
  5
A348
  8
0
 10
4668.4849924731288411
 20
218.942597633274687
 30
0.0
 40
0.008
 50
180.0
 51
270.0
  0
ARC
  5
A349
  8
0
 10
4668.6169924731302672
 20
218.8765976332747982
 30
0.0
 40
0.008
 50
90.0
 51
180.0
  0
ARC
  5
A34A
  8
0
 10
4668.9949924731290594
 20
218.8765976332747982
 30
0.0
 40
0.008
 50
0.0
 51
90.0
  0
ARC
  5
A34B
  8
0
 10
4669.0609924731297724
 20
218.8765976332747982
 30
0.0
 40
0.008
 50
90.0
 51
180.0
  0
ARC
  5
A34C
  8
0
 10
4669.2852523577303145
 20
218.8765976332747982
 30
0.0
 40
0.008
 50
44.9999999991905
 51
90.0
  0
ARC
  5
A34D
  8
0
 10
4668.442992473130289
 20
219.4005976332747139
 30
0.0
 40
0.034
 50
0.0
 51
180.0
  0
ARC
  5
A34E
  8
0
 10
4671.0079924731289793
 20
218.9730976332747048
 30
0.0
 40
0.03
 50
270.0
 51
90.0
  0
ARC
  5
A34F
  8
0
 10
4671.1079924731302526
 20
219.0430976332748116
 30
0.0
 40
0.02
 50
270.0
 51
90.0
  0
ARC
  5
A350
  8
0
 10
4670.4996787646286975
 20
218.9950976332748098
 30
0.0
 40
0.008
 50
44.9999999991905
 51
90.0
  0
ARC
  5
A351
  8
0
 10
4670.5189924731303108
 20
218.9984113417748119
 30
0.0
 40
0.008
 50
224.999999999313701
 51
315.0000000008095071
  0
ARC
  5
A352
  8
0
 10
4670.5383061816291956
 20
218.9950976332748098
 30
0.0
 40
0.008
 50
90.0
 51
135.0000000008093934
  0
ARC
  5
A353
  8
0
 10
4671.0959924731287174
 20
219.0150976332747916
 30
0.0
 40
0.008
 50
90.0
 51
180.0
  0
ARC
  5
A354
  8
0
 10
4671.0299924731298233
 20
218.9950976332748098
 30
0.0
 40
0.008
 50
0.0
 51
90.0
  0
ENDSEC
  0
EOF
