  0
SECTION
  2
HEADER
  9
$ACADVER
  1
AC1009
  9
$INSBASE
 10
2391.8941031709341587
 20
132.1595011287413115
 30
0.0
  9
$EXTMIN
 10
2387.2246710496078776
 20
132.1540400248294134
 30
0.0
  9
$EXTMAX
 10
2396.563535292259985
 20
136.0062314499020033
 30
0.0
  9
$LIMMIN
 10
0.0
 20
0.0
  9
$LIMMAX
 10
11.6929133858000007
 20
8.2677165353999982
  9
$ORTHOMODE
 70
     0
  9
$REGENMODE
 70
     1
  9
$FILLMODE
 70
     1
  9
$QTEXTMODE
 70
     0
  9
$MIRRTEXT
 70
     0
  9
$DRAGMODE
 70
     2
  9
$LTSCALE
 40
0.6431102362
  9
$OSMODE
 70
  4095
  9
$ATTMODE
 70
     1
  9
$TEXTSIZE
 40
0.2
  9
$TRACEWID
 40
0.05
  9
$TEXTSTYLE
  7
STANDARD
  9
$CLAYER
  8
0
  9
$CELTYPE
  6
BYLAYER
  9
$CECOLOR
 62
   256
  9
$DIMSCALE
 40
1.0
  9
$DIMASZ
 40
0.1875
  9
$DIMEXO
 40
0.0625
  9
$DIMDLI
 40
0.4443307087
  9
$DIMRND
 40
0.0
  9
$DIMDLE
 40
0.0
  9
$DIMEXE
 40
0.125
  9
$DIMTP
 40
0.01
  9
$DIMTM
 40
0.01
  9
$DIMTXT
 40
2.0
  9
$DIMCEN
 40
0.1052362205
  9
$DIMTSZ
 40
0.0
  9
$DIMTOL
 70
     1
  9
$DIMLIM
 70
     0
  9
$DIMTIH
 70
     1
  9
$DIMTOH
 70
     1
  9
$DIMSE1
 70
     0
  9
$DIMSE2
 70
     0
  9
$DIMTAD
 70
     0
  9
$DIMZIN
 70
     0
  9
$DIMBLK
  1

  9
$DIMASO
 70
     1
  9
$DIMSHO
 70
     1
  9
$DIMPOST
  1
\X
  9
$DIMAPOST
  1

  9
$DIMALT
 70
     1
  9
$DIMALTD
 70
     2
  9
$DIMALTF
 40
25.3999999999999986
  9
$DIMLFAC
 40
1.0
  9
$DIMTOFL
 70
     0
  9
$DIMTVP
 40
0.0
  9
$DIMTIX
 70
     0
  9
$DIMSOXD
 70
     0
  9
$DIMSAH
 70
     0
  9
$DIMBLK1
  1

  9
$DIMBLK2
  1

  9
$DIMSTYLE
  2
STANDARD
  9
$DIMCLRD
 70
     0
  9
$DIMCLRE
 70
     0
  9
$DIMCLRT
 70
     0
  9
$DIMTFAC
 40
1.0
  9
$DIMGAP
 40
0.09
  9
$LUNITS
 70
     2
  9
$LUPREC
 70
     4
  9
$SKETCHINC
 40
0.1
  9
$FILLETRAD
 40
0.0
  9
$AUNITS
 70
     0
  9
$AUPREC
 70
     0
  9
$MENU
  1
.
  9
$ELEVATION
 40
0.0
  9
$PELEVATION
 40
0.0
  9
$THICKNESS
 40
0.0
  9
$LIMCHECK
 70
     0
  9
$BLIPMODE
 70
     0
  9
$CHAMFERA
 40
0.0
  9
$CHAMFERB
 40
0.0
  9
$SKPOLY
 70
     0
  9
$TDCREATE
 40
2458060.468368056230247
  9
$TDUPDATE
 40
2459576.8887037038803101
  9
$TDINDWG
 40
0.3297640046
  9
$TDUSRTIMER
 40
0.3297640046
  9
$USRTIMER
 70
     1
  9
$ANGBASE
 50
0.0
  9
$ANGDIR
 70
     0
  9
$PDMODE
 70
     0
  9
$PDSIZE
 40
0.3125
  9
$PLINEWID
 40
0.0
  9
$COORDS
 70
     1
  9
$SPLFRAME
 70
     0
  9
$SPLINETYPE
 70
     6
  9
$SPLINESEGS
 70
     8
  9
$ATTDIA
 70
     1
  9
$ATTREQ
 70
     1
  9
$HANDLING
 70
     1
  9
$HANDSEED
  5
8F0E
  9
$SURFTAB1
 70
     6
  9
$SURFTAB2
 70
     6
  9
$SURFTYPE
 70
     6
  9
$SURFU
 70
     6
  9
$SURFV
 70
     6
  9
$UCSNAME
  2

  9
$UCSORG
 10
0.0
 20
0.0
 30
0.0
  9
$UCSXDIR
 10
1.0
 20
0.0
 30
0.0
  9
$UCSYDIR
 10
0.0
 20
1.0
 30
0.0
  9
$PUCSNAME
  2

  9
$PUCSORG
 10
0.0
 20
0.0
 30
0.0
  9
$PUCSXDIR
 10
1.0
 20
0.0
 30
0.0
  9
$PUCSYDIR
 10
0.0
 20
1.0
 30
0.0
  9
$USERI1
 70
     0
  9
$USERI2
 70
     0
  9
$USERI3
 70
     0
  9
$USERI4
 70
     0
  9
$USERI5
 70
     0
  9
$USERR1
 40
0.0
  9
$USERR2
 40
0.0
  9
$USERR3
 40
0.0
  9
$USERR4
 40
0.0
  9
$USERR5
 40
0.0
  9
$WORLDVIEW
 70
     1
  9
$SHADEDGE
 70
     3
  9
$SHADEDIF
 70
    70
  9
$TILEMODE
 70
     1
  9
$MAXACTVP
 70
    64
  9
$PLIMCHECK
 70
     0
  9
$PEXTMIN
 10
1.0000000000000000E+20
 20
1.0000000000000000E+20
 30
1.0000000000000000E+20
  9
$PEXTMAX
 10
-1.0000000000000000E+20
 20
-1.0000000000000000E+20
 30
-1.0000000000000000E+20
  9
$PLIMMIN
 10
0.0
 20
0.0
  9
$PLIMMAX
 10
12.0
 20
9.0
  9
$UNITMODE
 70
     0
  9
$VISRETAIN
 70
     1
  9
$PLINEGEN
 70
     0
  9
$PSLTSCALE
 70
     1
  0
ENDSEC
  0
SECTION
  2
TABLES
  0
TABLE
  2
VPORT
 70
     1
  0
VPORT
  2
*ACTIVE
 70
     0
 10
0.0
 20
0.0
 11
1.0
 21
1.0
 12
49.9809006291702573
 22
-2.2542314892302211
 13
0.0
 23
0.0
 14
1.0
 24
1.0
 15
0.0
 25
0.0
 16
0.0
 26
0.0
 36
48.1717359839548322
 17
2341.974853515625
 27
136.3334975801919029
 37
0.0
 40
5.7183337040075317
 41
1.67063492063492
 42
50.0
 43
0.0
 44
0.0
 50
0.0
 51
0.0
 71
     0
 72
   100
 73
     1
 74
     1
 75
     0
 76
     0
 77
     0
 78
     0
  0
ENDTAB
  0
TABLE
  2
LTYPE
 70
     2
  0
LTYPE
  2
CONTINUOUS
 70
     0
  3
Solid line
 72
    65
 73
     0
 40
0.0
  0
LTYPE
  2
PHANTOM2
 70
     0
  3
___ _ _ ___ _ _ ___ _ _ ___ _ _
 72
    65
 73
     6
 40
1.25
 49
0.625
 49
-0.125
 49
0.125
 49
-0.125
 49
0.125
 49
-0.125
  0
ENDTAB
  0
TABLE
  2
LAYER
 70
     2
  0
LAYER
  2
0
 70
     0
 62
   255
  6
CONTINUOUS
  0
LAYER
  2
DEFPOINTS
 70
     0
 62
     7
  6
CONTINUOUS
  0
ENDTAB
  0
TABLE
  2
STYLE
 70
     1
  0
STYLE
  2
STANDARD
 70
     0
 40
0.0
 41
0.8
 50
0.0
 71
     0
 42
0.2
  3
txt
  4

  0
ENDTAB
  0
TABLE
  2
VIEW
 70
     0
  0
ENDTAB
  0
TABLE
  2
UCS
 70
     0
  0
ENDTAB
  0
TABLE
  2
APPID
 70
     9
  0
APPID
  2
ACAD
 70
     0
  0
APPID
  2
ACAD_MLEADERVER
 70
     0
  0
APPID
  2
ACAD_EXEMPT_FROM_CAD_STANDARDS
 70
     0
  0
APPID
  2
ACAD_NAV_VCDISPLAY
 70
     0
  0
APPID
  2
ACAECLAYERSTANDARD
 70
     0
  0
APPID
  2
ACCMTRANSPARENCY
 70
     0
  0
APPID
  2
ACAD_DSTYLE_DIMJAG
 70
     0
  0
APPID
  2
ACAD_DSTYLE_DIMTALN
 70
     0
  0
APPID
  2
ACDBATTR
 70
     0
  0
ENDTAB
  0
TABLE
  2
DIMSTYLE
 70
     1
  0
DIMSTYLE
  2
STANDARD
 70
     0
  3

  4

  5

  6

  7

 40
1.0
 41
0.1875
 42
0.0625
 43
0.38
 44
0.125
 45
0.0
 46
0.0
 47
0.01
 48
0.01
140
0.15625
141
0.09
142
0.0
143
25.3999999999999986
144
1.0
145
0.0
146
1.0
147
0.09
 71
     1
 72
     0
 73
     1
 74
     1
 75
     0
 76
     0
 77
     0
 78
     4
170
     0
171
     2
172
     0
173
     0
174
     0
175
     0
176
     0
177
     0
178
     0
  0
ENDTAB
  0
ENDSEC
  0
SECTION
  2
BLOCKS
  0
BLOCK
  8
0
  2
$MODEL_SPACE
 70
     0
 10
0.0
 20
0.0
 30
0.0
  3
$MODEL_SPACE
  1

  0
ENDBLK
  5
21
  8
0
  0
BLOCK
 67
     1
  8
0
  2
$PAPER_SPACE
 70
     0
 10
0.0
 20
0.0
 30
0.0
  3
$PAPER_SPACE
  1

  0
ENDBLK
  5
1D
 67
     1
  8
0
  0
ENDSEC
  0
SECTION
  2
ENTITIES
  0
ATTDEF
  5
3930
  8
DEFPOINTS
 10
2391.8876709516780465
 20
132.1573733581626868
 30
0.0
 40
0.001
  1
K-24818-4N
  3

  2
MODELNUMBER
 70
     0
1001
ACDBATTR
1070
     0
1070
     1
  0
ATTDEF
  5
3931
  8
DEFPOINTS
 10
2391.8876709516780465
 20
132.1557066914959933
 30
0.0
 40
0.001
  1
VALTON
  3

  2
TRADENAME
 70
     0
1001
ACDBATTR
1070
     0
1070
     1
  0
ATTDEF
  5
3932
  8
DEFPOINTS
 10
2391.8876709516780465
 20
132.1540400248294134
 30
0.0
 40
0.001
  1
BATHROOM SINK FAUCET
  3

  2
PRODUCT
 70
     0
1001
ACDBATTR
1070
     0
1070
     1
  0
LINE
  5
8D3E
  8
0
 10
2394.9152309030550896
 20
132.1595011287413115
 30
0.0
 11
2388.8729754387991306
 21
132.1595011287413115
 31
0.0
  0
LINE
  5
8D3F
  8
0
 10
2390.3470522018437805
 20
134.3407924673412879
 30
0.0
 11
2389.4411476753762145
 21
134.3407924673412879
 31
0.0
  0
LINE
  5
8D40
  8
0
 10
2390.3579622404631664
 20
134.3209184516412904
 30
0.0
 11
2389.4302425208738896
 21
134.3209184516412904
 31
0.0
  0
LINE
  5
8D41
  8
0
 10
2390.6298155892959585
 20
133.1398160894412968
 30
0.0
 11
2389.1684158408152143
 21
133.1398160894412968
 31
0.0
  0
LINE
  5
8D42
  8
0
 10
2391.2284027664341011
 20
134.8342390200373018
 30
0.0
 11
2391.1903391851451488
 21
134.8342390200373018
 31
0.0
  0
LINE
  5
8D43
  8
0
 10
2390.869603643283881
 20
132.1595011287413115
 30
0.0
 11
2394.9152309030550896
 21
132.1595011287413115
 31
0.0
  0
LINE
  5
8D44
  8
0
 10
2388.872907797075186
 20
132.234304277622698
 30
0.0
 11
2394.9152985447931314
 21
132.234304277622698
 31
0.0
  0
LINE
  5
8D45
  8
0
 10
2388.8650072953341805
 20
132.2264039837226903
 30
0.0
 11
2388.8650072953341805
 21
132.1674008348412883
 31
0.0
  0
ARC
  5
8D46
  8
0
 10
2388.872907797075186
 20
132.2264037758947097
 30
0.0
 40
0.0079005017439524
 50
90.0
 51
179.9984927959154959
  0
ARC
  5
8D47
  8
0
 10
2388.8729072953337891
 20
132.1674008348412883
 30
0.0
 40
0.0079
 50
180.0
 51
270.4942254881574968
  0
ARC
  5
8D48
  8
0
 10
2395.5162412529730318
 20
130.7670014903621905
 30
0.0
 40
6.7913989728669089
 50
163.196835525077887
 51
167.5226824227653992
  0
ARC
  5
8D49
  8
0
 10
2402.9043429910520899
 20
128.5359568132707864
 30
0.0
 40
14.5090156803339099
 50
161.6682787379616002
 51
163.196835525077887
  0
ARC
  5
8D4A
  8
0
 10
2389.18773895468712
 20
133.0807160894412959
 30
0.0
 40
0.0591
 50
90.0
 51
161.6682787379585022
  0
ARC
  5
8D4B
  8
0
 10
2396.3886832218067866
 20
132.0694810040926086
 30
0.0
 40
7.3217844654312332
 50
162.1587231991541103
 51
171.4149555507522109
  0
ARC
  5
8D4C
  8
0
 10
2387.2640716779319519
 20
135.303819453684099
 30
0.0
 40
0.0394006293722632
 50
123.5019964037941946
 51
179.9867805399983922
  0
ARC
  5
8D4D
  8
0
 10
2387.2640922130390209
 20
135.3038439362792928
 30
0.0
 40
0.0394211664363961
 50
180.0223710874155927
 51
212.607790654602411
  0
ARC
  5
8D4E
  8
0
 10
2387.3365055485660378
 20
135.1943745840181919
 30
0.0
 40
0.17064408669327
 50
113.0220107215642997
 51
123.4987506992302002
  0
ARC
  5
8D4F
  8
0
 10
2387.4808225954548107
 20
134.8213588546805113
 30
0.0
 40
0.5705404982978032
 50
98.0258203542248054
 51
111.7105755453465008
  0
ARC
  5
8D50
  8
0
 10
2387.6490683030729087
 20
133.8153180284928965
 30
0.0
 40
1.5904325106986379
 50
94.3462538777099837
 51
98.9673840294412628
  0
ARC
  5
8D51
  8
0
 10
2387.7456614358761726
 20
132.6369412789869955
 30
0.0
 40
2.7727496346826022
 50
92.1147487802484619
 51
94.4911821176203262
  0
ARC
  5
8D52
  8
0
 10
2387.8110816421649361
 20
130.811531686239789
 30
0.0
 40
4.5993304876429111
 50
90.4607882045058744
 51
92.0900370434102769
  0
ARC
  5
8D53
  8
0
 10
2387.9995328230252198
 20
136.7255982376856878
 30
0.0
 40
1.317550838507322
 50
266.3544729705071177
 51
269.2453372031092727
  0
ARC
  5
8D54
  8
0
 10
2387.844900387809048
 20
129.8343096555103955
 30
0.0
 40
5.5755423029704128
 50
82.6540874624864728
 51
88.5891411878526185
  0
ARC
  5
8D55
  8
0
 10
2387.8569502832870057
 20
130.3462718445252051
 30
0.0
 40
5.0665240126723123
 50
66.0889317141088242
 51
82.0489684368145333
  0
ARC
  5
8D56
  8
0
 10
2388.9311813023477953
 20
132.9148718560657016
 30
0.0
 40
2.2837309148906502
 50
55.0470338511721593
 51
64.606917764306516
  0
ARC
  5
8D57
  8
0
 10
2390.2172535490899463
 20
134.7542557111823101
 30
0.0
 40
0.0393358006676607
 50
11.0634339480551898
 51
55.4896759906004533
  0
ARC
  5
8D58
  8
0
 10
2394.7835085950969187
 20
135.6924139501948048
 30
0.0
 40
4.6222994127011239
 50
191.6147740569226983
 51
196.8020869627227114
  0
ARC
  5
8D59
  8
0
 10
2390.3470516975057762
 20
134.3527936849204139
 30
0.0
 40
0.0120012175897125
 50
270.0024077912394205
 51
359.9941870777602162
  0
ARC
  5
8D5A
  8
0
 10
2383.7344075690111822
 20
132.1480984516470869
 30
0.0
 40
6.9789718743025171
 50
8.3566110367296371
 51
18.0695821718141509
  0
ARC
  5
8D5B
  8
0
 10
2390.6197905926660496
 20
133.159516089441297
 30
0.0
 40
0.0197
 50
270.0
 51
8.3566110367280277
  0
ARC
  5
8D5C
  8
0
 10
2390.3579622404631664
 20
134.3091184516412966
 30
0.0
 40
0.0118
 50
18.0695821718156893
 51
90.0
  0
ARC
  5
8D5D
  8
0
 10
2370.4930924109130501
 20
137.7260375471541067
 30
0.0
 40
20.9626755075826416
 50
349.8375882802428123
 51
352.0197007954043897
  0
ARC
  5
8D5E
  8
0
 10
2370.9330616267347978
 20
138.1428264758444868
 30
0.0
 40
20.6089221629264117
 50
346.5398664322531772
 51
348.4810905280613724
  0
ARC
  5
8D5F
  8
0
 10
2390.4907461816369505
 20
133.4740477175159867
 30
0.0
 40
0.5018407394554532
 50
327.8712284173618059
 51
345.1833686800757732
  0
ARC
  5
8D60
  8
0
 10
2390.7051849774338734
 20
133.4543943325018915
 30
0.0
 40
0.3247408973012656
 50
284.3718229405217812
 51
310.4177236086184166
  0
LINE
  5
8D61
  8
0
 10
2390.76926689403399
 20
132.2539893177412864
 30
0.0
 11
2393.0189394478338727
 21
132.2539893177412864
 31
0.0
  0
ARC
  5
8D62
  8
0
 10
2389.5134036220028975
 20
132.8138540885323948
 30
0.0
 40
1.375005861663628
 50
335.9726520348351073
 51
340.8138043188100141
  0
ARC
  5
8D63
  8
0
 10
2330.989823537348002
 20
149.1685270374669869
 30
0.0
 40
62.1382112615432334
 50
344.3077331922914937
 51
344.6374768533058841
  0
ARC
  5
8D64
  8
0
 10
2384.1128215112930775
 20
134.5587891366342888
 30
0.0
 40
7.0428792835848419
 50
344.7520349697060169
 51
349.1459627469646989
  0
ARC
  5
8D65
  8
0
 10
2323.2723481936218377
 20
146.2242092411005956
 30
0.0
 40
68.9916098575997978
 50
349.1459627469646989
 51
350.0649067676110917
  0
ARC
  5
8D66
  8
0
 10
2379.9147057640680032
 20
136.3027817280772069
 30
0.0
 40
11.4869022674005095
 50
350.0649067676110917
 51
352.5022761989441165
  0
ARC
  5
8D67
  8
0
 10
2391.5885391614037871
 20
136.1514917197065131
 30
0.0
 40
1.3773134094883579
 50
255.8896018656010085
 51
263.0299034046212796
  0
ARC
  5
8D68
  8
0
 10
2391.3055858090119727
 20
135.0395968473004018
 30
0.0
 40
0.2299766010095171
 50
248.552542034245505
 51
256.722357256285477
  0
ARC
  5
8D69
  8
0
 10
2391.2431885266742029
 20
134.8807651339863014
 30
0.0
 40
0.059328032314728
 50
231.7144995511960133
 51
248.552542034245505
  0
LINE
  5
8D6A
  8
0
 10
2391.4180477424338278
 20
134.8442530055413044
 30
0.0
 11
2391.4403241341337889
 21
134.4462792407412906
 31
0.0
  0
ARC
  5
8D6B
  8
0
 10
2391.4720388072241803
 20
134.4496397932186085
 30
0.0
 40
0.0318922216565125
 50
186.048609057455991
 51
235.235905919688804
  0
ARC
  5
8D6C
  8
0
 10
2391.5060771604062211
 20
134.4986801143145101
 30
0.0
 40
0.0915878042444828
 50
235.235905919688804
 51
254.2901707808858021
  0
ARC
  5
8D6D
  8
0
 10
2391.64549386159797
 20
134.9943443957986062
 30
0.0
 40
0.6064859461233705
 50
254.2901707808858021
 51
263.5018552216153012
  0
ARC
  5
8D6E
  8
0
 10
2391.7910005786029615
 20
136.1052284443219946
 30
0.0
 40
1.7268031992634909
 50
262.8763283087877767
 51
265.920492782900908
  0
ARC
  5
8D6F
  8
0
 10
2391.8301229034827884
 20
136.3507416323436132
 30
0.0
 40
1.974595194239074
 50
265.294965870084809
 51
269.1128445913331007
  0
ARC
  5
8D70
  8
0
 10
2392.1416931993521757
 20
156.4714962903067885
 30
0.0
 40
22.0977620437986886
 50
269.1128445913331007
 51
269.3580272756219074
  0
ARC
  5
8D71
  8
0
 10
2391.9201574218727728
 20
130.2399674168271986
 30
0.0
 40
4.2621157359156987
 50
90.350250440647315
 51
93.4092258820763846
  0
ARC
  5
8D72
  8
0
 10
2391.763805330123887
 20
133.0293685790819893
 30
0.0
 40
1.4683859841779281
 50
93.791707829725425
 51
100.5968198472160964
  0
ARC
  5
8D73
  8
0
 10
2391.5233599752118607
 20
134.3145714864990907
 30
0.0
 40
0.1608843658492151
 50
100.5968198472160964
 51
118.1802343482458042
  0
ARC
  5
8D74
  8
0
 10
2391.4538191910119167
 20
134.4443720014932069
 30
0.0
 40
0.0136291643792289
 50
118.1802343482466
 51
171.9557361300140883
  0
ARC
  5
8D75
  8
0
 10
2391.8747879858838132
 20
133.5488489383859019
 30
0.0
 40
0.8959894136492355
 50
88.7647573720807941
 51
100.5895843804783993
  0
ARC
  5
8D76
  8
0
 10
2391.7157714067789129
 20
134.4004366427481898
 30
0.0
 40
0.0296830021762074
 50
100.9567378198726999
 51
130.9215896784077984
  0
ARC
  5
8D77
  8
0
 10
2391.6985014261349534
 20
134.4203584801466036
 30
0.0
 40
0.0033176492143209
 50
130.9215896784066899
 51
232.9250862250443106
  0
ARC
  5
8D78
  8
0
 10
2391.719732385001862
 20
134.4484564020978041
 30
0.0
 40
0.03853478754811
 50
232.9250862250443106
 51
257.3538747146296828
  0
ARC
  5
8D79
  8
0
 10
2391.8255181049421481
 20
134.9199313135407863
 30
0.0
 40
0.5217316528766121
 50
257.3538747146296828
 51
268.2532473136120075
  0
ARC
  5
8D7A
  8
0
 10
2391.8926599059750515
 20
135.8975656954102931
 30
0.0
 40
1.5014220110239129
 50
266.8292950008155913
 51
270.0550764561750157
  0
LINE
  5
8D7B
  8
0
 10
2391.5692992713338754
 20
134.4575097467412945
 30
0.0
 11
2391.5692992713338754
 21
134.4321101483413088
 31
0.0
  0
ARC
  5
8D7C
  8
0
 10
2391.7775725450119353
 20
133.0610043244248004
 30
0.0
 40
1.413807875075098
 50
93.6708882925967998
 51
98.4761987398568976
  0
ARC
  5
8D7D
  8
0
 10
2391.9023472037602005
 20
131.9679975126730085
 30
0.0
 40
2.5131527193752699
 50
90.1879508279081961
 51
94.9143771027775358
  0
ARC
  5
8D7E
  8
0
 10
2391.5876590359698639
 20
134.4323782161337988
 30
0.0
 40
0.0183617215372687
 50
180.8365064658678989
 51
225.6670484232924991
  0
ARC
  5
8D7F
  8
0
 10
2391.6013139379551831
 20
134.446354823975895
 30
0.0
 40
0.0379014737106361
 50
225.6670484232924991
 51
251.9962431063553083
  0
ARC
  5
8D80
  8
0
 10
2391.6770184841511764
 20
134.6558303159494017
 30
0.0
 40
0.2606199231388905
 50
250.4014592531391088
 51
261.8190000909297055
  0
ARC
  5
8D81
  8
0
 10
2391.8071409950230191
 20
135.481707017152587
 30
0.0
 40
1.09666655998236
 50
261.229897713140474
 51
266.9073594952553776
  0
ARC
  5
8D82
  8
0
 10
2391.8741363844569605
 20
136.2824293537780136
 30
0.0
 40
1.899984969795488
 50
266.1926939489569008
 51
269.3120279313191077
  0
ARC
  5
8D83
  8
0
 10
2391.8905269805982243
 20
136.0881337863694114
 30
0.0
 40
1.706002948258077
 50
268.6832291767323113
 51
270.1201057496814997
  0
ARC
  5
8D84
  8
0
 10
2391.5838590010371263
 20
134.4272645677648086
 30
0.0
 40
0.0153448812357876
 50
106.0771256442409936
 51
161.592194299006394
  0
ARC
  5
8D85
  8
0
 10
2391.7066467067561462
 20
134.0606980100841099
 30
0.0
 40
0.4019163477640555
 50
94.430719573297722
 51
108.4259436816438011
  0
ARC
  5
8D86
  8
0
 10
2391.8524003506208828
 20
132.7945940590282987
 30
0.0
 40
1.6761698792548301
 50
92.3650368255303533
 51
96.0548471202486809
  0
ARC
  5
8D87
  8
0
 10
2391.8929199075651013
 20
131.9417838782264027
 30
0.0
 40
2.5299312495244362
 50
89.9732024340412977
 51
92.4849086608143693
  0
ARC
  5
8D88
  8
0
 10
2391.7418868070940334
 20
133.2017178699308033
 30
0.0
 40
1.674154536330108
 50
91.4971479089307564
 51
101.1532796188236034
  0
ARC
  5
8D89
  8
0
 10
2391.8917101445149456
 20
130.4657075278834952
 30
0.0
 40
4.413839688280909
 50
89.9689362708011515
 51
92.5134520745561701
  0
ARC
  5
8D8A
  8
0
 10
2391.9070007940249525
 20
135.4128011376668042
 30
0.0
 40
0.593570454252032
 50
91.2450712915233879
 51
111.6651405673386961
  0
ARC
  5
8D8B
  8
0
 10
2392.038513865637924
 20
135.2553076799162
 30
0.0
 40
0.7910898357255648
 50
116.3112402193332002
 51
165.1921859434164048
  0
ARC
  5
8D8C
  8
0
 10
2394.1229713931138576
 20
134.6989657731423051
 30
0.0
 40
2.9485124776498481
 50
165.0926099283132089
 51
177.1121495423610952
  0
ARC
  5
8D8D
  8
0
 10
2391.1901837217269531
 20
134.8462817330278938
 30
0.0
 40
0.0120437164133112
 50
174.1214366228857955
 51
270.7396093371598909
  0
ARC
  5
8D8E
  8
0
 10
2391.2503151576461278
 20
134.81767309828561
 30
0.0
 40
0.027469667856445
 50
113.2752108878653985
 51
142.9104632385869138
  0
ARC
  5
8D8F
  8
0
 10
2391.5272928970289286
 20
133.938550663544703
 30
0.0
 40
0.9490564884995601
 50
98.109959521722871
 51
107.6548712507316026
  0
ARC
  5
8D90
  8
0
 10
2391.5798887272749198
 20
133.6405525746652927
 30
0.0
 40
1.2515344054608151
 50
91.882858919664983
 51
98.5691534227704125
  0
LINE
  5
8D91
  8
0
 10
2391.5387680962107879
 20
134.8914112644272905
 30
0.0
 11
2391.8941031709341587
 21
134.9000393632622092
 31
0.0
  0
ARC
  5
8D92
  8
0
 10
2389.7907546268379519
 20
132.6889083264395879
 30
0.0
 40
1.116512351995661
 50
335.9731716863013276
 51
337.0746223853009269
  0
ARC
  5
8D93
  8
0
 10
2391.2901076906441631
 20
132.2442767311279965
 30
0.0
 40
0.342330663533506
 50
178.374189148550812
 51
180.3742194394928902
  0
ARC
  5
8D94
  8
0
 10
2390.9397771145090701
 20
132.2423160209488913
 30
0.0
 40
0.0080119406404556
 50
270.4029469909946783
 51
358.0318674773232033
  0
ARC
  5
8D95
  8
0
 10
2389.1684158408152143
 20
133.159516089441297
 30
0.0
 40
0.0197
 50
171.4149555507553941
 51
270.0
  0
ARC
  5
8D96
  8
0
 10
2389.4302425208738896
 20
134.3091184516412966
 30
0.0
 40
0.0118
 50
89.9999999999739515
 51
162.1587564256109033
  0
ARC
  5
8D97
  8
0
 10
2389.4732031886219374
 20
134.3409184516661981
 30
0.0
 40
0.0200000000248787
 50
270.0000000357214844
 51
346.9999998856255843
  0
LINE
  5
8D98
  8
0
 10
2389.4937001850339584
 20
134.3407924673412879
 30
0.0
 11
2389.4926905899369558
 21
134.3364194305557078
 31
0.0
  0
ARC
  5
8D99
  8
0
 10
2388.7773560591322166
 20
134.53459486295489
 30
0.0
 40
0.6762379100618042
 50
344.6831725965603823
 51
12.36273459848878
  0
ARC
  5
8D9A
  8
0
 10
2388.9926256538878988
 20
134.5463525620374128
 30
0.0
 40
0.4647328296581944
 50
16.6329509617287208
 51
63.9555526152814409
  0
ARC
  5
8D9B
  8
0
 10
2388.0941376936821143
 20
132.5952285708918055
 30
0.0
 40
2.612692525462692
 50
65.0395356264429978
 51
85.7900844376162155
  0
ARC
  5
8D9C
  8
0
 10
2387.91114600600622
 20
132.313617305712711
 30
0.0
 40
2.9114782231937242
 50
82.6038510855416206
 51
94.9102312633846736
  0
ARC
  5
8D9D
  8
0
 10
2387.4791986417840235
 20
136.8759661254075866
 30
0.0
 40
1.671574409107301
 50
267.8884591767507004
 51
276.2762332813833268
  0
ARC
  5
8D9E
  8
0
 10
2387.4199858263600618
 20
135.5215883153416883
 30
0.0
 40
0.3160705207868526
 50
243.6213383929517988
 51
269.5692241120237895
  0
ARC
  5
8D9F
  8
0
 10
2387.3330240153709383
 20
135.346240942682698
 30
0.0
 40
0.1203435229841038
 50
211.9260044291430916
 51
243.6213383929517988
  0
ARC
  5
8DA0
  8
0
 10
2389.4411476753762145
 20
134.3527924673412883
 30
0.0
 40
0.012
 50
164.6831725965807038
 51
270.0
  0
LINE
  5
8DA1
  8
0
 10
2390.2945046568338512
 20
134.3407924673412879
 30
0.0
 11
2390.2955142519381297
 21
134.3364194305542867
 31
0.0
  0
ARC
  5
8DA2
  8
0
 10
2390.3150016532417794
 20
134.3409184516602863
 30
0.0
 40
0.0200000000189728
 50
193.000000100926286
 51
269.9999999777489279
  0
ARC
  5
8DA3
  8
0
 10
2388.7714577582069069
 20
133.1010142700976928
 30
0.0
 40
2.1209451304916072
 50
335.8803281987359242
 51
347.0461074176134275
  0
ARC
  5
8DA4
  8
0
 10
2379.4967074015121398
 20
135.5388347779048956
 30
0.0
 40
11.7098980044054493
 50
345.5942766791931149
 51
348.4379243493322065
  0
ARC
  5
8DA5
  8
0
 10
2367.863821549055956
 20
137.9909320549849099
 30
0.0
 40
23.5983095601218302
 50
348.2661064106558229
 51
350.3308766305225959
  0
ARC
  5
8DA6
  8
0
 10
2390.7003652240077827
 20
133.2769235445215088
 30
0.0
 40
0.1491185731918331
 50
250.7498448745951976
 51
269.848388282259009
  0
ARC
  5
8DA7
  8
0
 10
2390.700782490794154
 20
133.4346130050307124
 30
0.0
 40
0.3068085857711388
 50
269.848388282259009
 51
286.0854329781278125
  0
ARC
  5
8DA8
  8
0
 10
2390.6302509310648929
 20
133.0782628011378961
 30
0.0
 40
0.0615548277832143
 50
70.1010804185154512
 51
90.4052233678661707
  0
LINE
  5
8DA9
  8
0
 10
2387.9157582920879577
 20
135.4107134366412879
 30
0.0
 11
2387.7740929772089657
 21
135.4107134366412879
 31
0.0
  0
ARC
  5
8DAA
  8
0
 10
2391.5550493624928095
 20
134.4575242702167941
 30
0.0
 40
0.0142499162425839
 50
359.9416042889769187
 51
7.4398714043709067
  0
LINE
  5
8DAB
  8
0
 10
2393.4411541400240822
 20
134.3407924673412879
 30
0.0
 11
2394.3470586664911934
 21
134.3407924673412879
 31
0.0
  0
LINE
  5
8DAC
  8
0
 10
2393.430244101405151
 20
134.3209184516412904
 30
0.0
 11
2394.3579638209930636
 21
134.3209184516412904
 31
0.0
  0
LINE
  5
8DAD
  8
0
 10
2393.1583907525728137
 20
133.1398160894412968
 30
0.0
 11
2394.6197905010531031
 21
133.1398160894412968
 31
0.0
  0
LINE
  5
8DAE
  8
0
 10
2392.5598035754342163
 20
134.8342390200373018
 30
0.0
 11
2392.5978671567231686
 21
134.8342390200373018
 31
0.0
  0
LINE
  5
8DAF
  8
0
 10
2394.9231990465341369
 20
132.2264039837226903
 30
0.0
 11
2394.9231990465341369
 21
132.1674008348412883
 31
0.0
  0
ARC
  5
8DB0
  8
0
 10
2394.9152985447931314
 20
132.2264037758947097
 30
0.0
 40
0.0079005017439524
 50
0.00150720408449
 51
90.0
  0
ARC
  5
8DB1
  8
0
 10
2394.9152990465340736
 20
132.1674008348412883
 30
0.0
 40
0.0079
 50
269.5057745118425032
 51
0.0
  0
ARC
  5
8DB2
  8
0
 10
2388.2719650888948308
 20
130.7670014903621905
 30
0.0
 40
6.7913989728669089
 50
12.4773175772345404
 51
16.803164474922081
  0
ARC
  5
8DB3
  8
0
 10
2380.8838633508157727
 20
128.5359568132707864
 30
0.0
 40
14.5090156803339099
 50
16.80316447492363
 51
18.3317212620383501
  0
ARC
  5
8DB4
  8
0
 10
2394.6004673871811974
 20
133.0807160894412959
 30
0.0
 40
0.0591
 50
18.3317212620414409
 51
90.0
  0
ARC
  5
8DB5
  8
0
 10
2387.3995231200619855
 20
132.0694810040926086
 30
0.0
 40
7.3217844654312332
 50
8.5850444492477962
 51
17.84127680084584
  0
ARC
  5
8DB6
  8
0
 10
2396.5241011956518378
 20
135.3038477219002118
 30
0.0
 40
0.0394341012710585
 50
327.3977023261192016
 51
359.9721359318745044
  0
ARC
  5
8DB7
  8
0
 10
2396.5241315716871213
 20
135.3038177917682958
 30
0.0
 40
0.0394037220398297
 50
0.0156349647449151
 51
56.4955880914749216
  0
ARC
  5
8DB8
  8
0
 10
2396.4517007933031891
 20
135.1943745840181919
 30
0.0
 40
0.17064408669327
 50
56.5012493007697714
 51
66.9779892784356718
  0
ARC
  5
8DB9
  8
0
 10
2396.307383746413052
 20
134.8213588546805113
 30
0.0
 40
0.5705404982978032
 50
68.2894244546534992
 51
81.9741796457751661
  0
ARC
  5
8DBA
  8
0
 10
2396.1391380387940444
 20
133.8153180284928965
 30
0.0
 40
1.5904325106986379
 50
81.0326159705587372
 51
85.6537461222900305
  0
ARC
  5
8DBB
  8
0
 10
2396.0425449059921448
 20
132.6369412789869955
 30
0.0
 40
2.7727496346826022
 50
85.5088178823797165
 51
87.8852512197515239
  0
ARC
  5
8DBC
  8
0
 10
2395.9771246997029266
 20
130.811531686239789
 30
0.0
 40
4.5993304876429111
 50
87.9099629565897658
 51
89.5392117954941256
  0
ARC
  5
8DBD
  8
0
 10
2395.7886735188430976
 20
136.7255982376856878
 30
0.0
 40
1.317550838507322
 50
270.7546627968907273
 51
273.6455270294928823
  0
ARC
  5
8DBE
  8
0
 10
2395.9433059540588147
 20
129.8343096555103955
 30
0.0
 40
5.5755423029704128
 50
91.4108588121473531
 51
97.3459125375135415
  0
ARC
  5
8DBF
  8
0
 10
2395.9312560585808569
 20
130.3462718445252051
 30
0.0
 40
5.0665240126723123
 50
97.9510315631854809
 51
113.9110682858912043
  0
ARC
  5
8DC0
  8
0
 10
2394.8570250395200674
 20
132.9148718560657016
 30
0.0
 40
2.2837309148906502
 50
115.3930822356934982
 51
124.9529661488277981
  0
ARC
  5
8DC1
  8
0
 10
2393.5709527927770068
 20
134.7542557111823101
 30
0.0
 40
0.0393358006676607
 50
124.510324009399497
 51
168.9365660519447943
  0
ARC
  5
8DC2
  8
0
 10
2389.0046977467700344
 20
135.6924139501948048
 30
0.0
 40
4.6222994127011239
 50
343.197913037277317
 51
348.3852259430772733
  0
ARC
  5
8DC3
  8
0
 10
2393.4411541400240822
 20
134.3527924673412883
 30
0.0
 40
0.0120000000000022
 50
180.0
 51
270.0
  0
ARC
  5
8DC4
  8
0
 10
2400.0537987728562257
 20
132.1480984516470869
 30
0.0
 40
6.9789718743025171
 50
161.9304178281857958
 51
171.6433889632704108
  0
ARC
  5
8DC5
  8
0
 10
2393.168415749201813
 20
133.159516089441297
 30
0.0
 40
0.0197
 50
171.6433889632718888
 51
270.0
  0
ARC
  5
8DC6
  8
0
 10
2393.430244101405151
 20
134.3091184516412966
 30
0.0
 40
0.0118
 50
90.0
 51
161.9304178281842894
  0
ARC
  5
8DC7
  8
0
 10
2413.2951139309548125
 20
137.7260375471541067
 30
0.0
 40
20.9626755075826416
 50
187.9802992045956103
 51
190.1624117197571877
  0
ARC
  5
8DC8
  8
0
 10
2412.8551447151330649
 20
138.1428264758444868
 30
0.0
 40
20.6089221629264117
 50
191.5189094719385139
 51
193.4601335677469081
  0
ARC
  5
8DC9
  8
0
 10
2393.2974601602309122
 20
133.4740477175159867
 30
0.0
 40
0.5018407394554532
 50
194.8166313199241984
 51
212.1287715826381088
  0
ARC
  5
8DCA
  8
0
 10
2393.0830213644339892
 20
133.4543943325018915
 30
0.0
 40
0.3247408973012656
 50
229.5822763913816118
 51
255.6281770594781904
  0
ARC
  5
8DCB
  8
0
 10
2394.2748027198649652
 20
132.8138540885323948
 30
0.0
 40
1.375005861663628
 50
199.1861956811899859
 51
204.0273479651648074
  0
ARC
  5
8DCC
  8
0
 10
2452.7983828045212249
 20
149.1685270374669869
 30
0.0
 40
62.1382112615432334
 50
195.3625231466940875
 51
195.6922668077083927
  0
ARC
  5
8DCD
  8
0
 10
2399.6753848305747852
 20
134.5587891366342888
 30
0.0
 40
7.0428792835848419
 50
190.8540372530353011
 51
195.2479650302940115
  0
ARC
  5
8DCE
  8
0
 10
2460.5158581482460249
 20
146.2242092411005956
 30
0.0
 40
68.9916098575997978
 50
189.9350932323889083
 51
190.8540372530353011
  0
ARC
  5
8DCF
  8
0
 10
2403.8735005777998595
 20
136.3027817280772069
 30
0.0
 40
11.4869022674005095
 50
187.497723801055912
 51
189.9350932323889083
  0
ARC
  5
8DD0
  8
0
 10
2392.199667180464985
 20
136.1514917197065131
 30
0.0
 40
1.3773134094883579
 50
276.9700965953787204
 51
284.1103981343737246
  0
ARC
  5
8DD1
  8
0
 10
2392.4826205328549804
 20
135.0395968473004018
 30
0.0
 40
0.2299766010095171
 50
283.277642743714523
 51
291.4474579657546087
  0
ARC
  5
8DD2
  8
0
 10
2392.5450178151941145
 20
134.8807651339863014
 30
0.0
 40
0.059328032314728
 50
291.4474579657546087
 51
308.2855004488039867
  0
LINE
  5
8DD3
  8
0
 10
2392.3701585994340348
 20
134.8442530055413044
 30
0.0
 11
2392.3478822077340737
 21
134.4462792407412906
 31
0.0
  0
ARC
  5
8DD4
  8
0
 10
2392.3161675346427728
 20
134.4496397932186085
 30
0.0
 40
0.0318922216565125
 50
304.7640940803112244
 51
353.9513909425439806
  0
ARC
  5
8DD5
  8
0
 10
2392.2821291814620963
 20
134.4986801143145101
 30
0.0
 40
0.0915878042444828
 50
285.7098292191142264
 51
304.7640940803112244
  0
ARC
  5
8DD6
  8
0
 10
2392.1427124802698927
 20
134.9943443957986062
 30
0.0
 40
0.6064859461233705
 50
276.4981447783846988
 51
285.7098292191142264
  0
ARC
  5
8DD7
  8
0
 10
2391.9972057632649012
 20
136.1052284443219946
 30
0.0
 40
1.7268031992634909
 50
274.079507217099092
 51
277.1236716912122233
  0
ARC
  5
8DD8
  8
0
 10
2391.9580834383850743
 20
136.3507416323436132
 30
0.0
 40
1.974595194239074
 50
270.887155408667013
 51
274.7050341299153047
  0
ARC
  5
8DD9
  8
0
 10
2391.6465131425147774
 20
156.4714962903067885
 30
0.0
 40
22.0977620437986886
 50
270.6419727243780926
 51
270.887155408667013
  0
ARC
  5
8DDA
  8
0
 10
2392.8389868193221446
 20
159.8242384342092919
 30
0.0
 40
25.3398576612512905
 50
267.8630346091708248
 51
268.3774890681045235
  0
ARC
  5
8DDB
  8
0
 10
2392.0244010117430662
 20
133.0293685790819893
 30
0.0
 40
1.4683859841779281
 50
79.4031801527839178
 51
86.208292170274575
  0
ARC
  5
8DDC
  8
0
 10
2392.2648463666550924
 20
134.3145714864990907
 30
0.0
 40
0.1608843658492151
 50
61.8197656517541887
 51
79.4031801527839178
  0
ARC
  5
8DDD
  8
0
 10
2392.3343871508568554
 20
134.4443720014932069
 30
0.0
 40
0.0136291643792289
 50
8.0442638699858744
 51
61.8197656517534284
  0
ARC
  5
8DDE
  8
0
 10
2391.9134183559840494
 20
133.5488489383859019
 30
0.0
 40
0.8959894136492355
 50
79.4104156195216291
 51
91.2352426279192343
  0
ARC
  5
8DDF
  8
0
 10
2392.0724349350889497
 20
134.4004366427481898
 30
0.0
 40
0.0296830021762074
 50
49.0784103215922016
 51
79.0432621801272717
  0
ARC
  5
8DE0
  8
0
 10
2392.0897049157329093
 20
134.4203584801466036
 30
0.0
 40
0.0033176492143209
 50
307.0749137749558031
 51
49.0784103215932674
  0
ARC
  5
8DE1
  8
0
 10
2392.0684739568660007
 20
134.4484564020978041
 30
0.0
 40
0.03853478754811
 50
282.6461252853703172
 51
307.0749137749558031
  0
ARC
  5
8DE2
  8
0
 10
2391.9626882369261693
 20
134.9199313135407863
 30
0.0
 40
0.5217316528766121
 50
271.7467526863881062
 51
282.6461252853703172
  0
ARC
  5
8DE3
  8
0
 10
2391.8955464358928111
 20
135.8975656954102078
 30
0.0
 40
1.5014220110238921
 50
269.944923543825098
 51
273.1707049991844087
  0
LINE
  5
8DE4
  8
0
 10
2392.2189070705339873
 20
134.4575097467412945
 30
0.0
 11
2392.2189070705339873
 21
134.4321101483413088
 31
0.0
  0
ARC
  5
8DE5
  8
0
 10
2392.0106337968568369
 20
133.0610043244248004
 30
0.0
 40
1.413807875075098
 50
81.5238012601431024
 51
86.329111707403186
  0
ARC
  5
8DE6
  8
0
 10
2391.8455653608330067
 20
131.0636505157146985
 30
0.0
 40
3.4178308631982182
 50
85.711376803001869
 51
89.1862952663168755
  0
ARC
  5
8DE7
  8
0
 10
2392.2005473058989082
 20
134.4323782161337988
 30
0.0
 40
0.0183617215372687
 50
314.3329515767073872
 51
359.1634935341319874
  0
ARC
  5
8DE8
  8
0
 10
2392.1868924039131343
 20
134.446354823975895
 30
0.0
 40
0.0379014737106361
 50
288.0037568936447201
 51
314.3329515767073872
  0
ARC
  5
8DE9
  8
0
 10
2392.111187857717141
 20
134.6558303159494017
 30
0.0
 40
0.2606199231388905
 50
278.1809999090702945
 51
289.5985407468609196
  0
ARC
  5
8DEA
  8
0
 10
2391.9810653468448436
 20
135.481707017152587
 30
0.0
 40
1.09666655998236
 50
273.0926405047445087
 51
278.770102286859526
  0
ARC
  5
8DEB
  8
0
 10
2391.9140699574118116
 20
136.2824293537780136
 30
0.0
 40
1.899984969795488
 50
270.6879720686808923
 51
273.8073060510430992
  0
ARC
  5
8DEC
  8
0
 10
2391.8976793612700931
 20
136.0881337863694114
 30
0.0
 40
1.706002948258077
 50
269.8798942503183866
 51
271.316770823267575
  0
ARC
  5
8DED
  8
0
 10
2392.2043473408311911
 20
134.4272645677648086
 30
0.0
 40
0.0153448812357876
 50
18.4078057009936202
 51
73.9228743557589354
  0
ARC
  5
8DEE
  8
0
 10
2392.0815596351121712
 20
134.0606980100841099
 30
0.0
 40
0.4019163477640555
 50
71.5740563183562131
 51
85.5692804267022922
  0
ARC
  5
8DEF
  8
0
 10
2391.9358059912478893
 20
132.7945940590282987
 30
0.0
 40
1.6761698792548301
 50
83.9451528797513475
 51
87.6349631744696467
  0
ARC
  5
8DF0
  8
0
 10
2391.8952864343032161
 20
131.9417838782266017
 30
0.0
 40
2.5299312495242501
 50
87.5150913391856307
 51
90.0267975659586881
  0
ARC
  5
8DF1
  8
0
 10
2392.0463195347738292
 20
133.2017178699308033
 30
0.0
 40
1.674154536330108
 50
78.8467203811763255
 51
88.5028520910692293
  0
ARC
  5
8DF2
  8
0
 10
2391.8964961973529171
 20
130.4657075278838079
 30
0.0
 40
4.4138396882805893
 50
87.4865479254438441
 51
90.0310637291988485
  0
ARC
  5
8DF3
  8
0
 10
2391.8812055478429102
 20
135.4128011376668042
 30
0.0
 40
0.5935704542520245
 50
68.3348594326612471
 51
88.7549287084766263
  0
ARC
  5
8DF4
  8
0
 10
2391.7496924762299386
 20
135.2553076799162
 30
0.0
 40
0.7910898357255648
 50
14.8078140565835596
 51
63.6887597806667785
  0
ARC
  5
8DF5
  8
0
 10
2389.6652349487549145
 20
134.6989657731423051
 30
0.0
 40
2.9485124776498481
 50
2.887850457638848
 51
14.9073900716868106
  0
ARC
  5
8DF6
  8
0
 10
2392.5980226201409096
 20
134.8462817330278938
 30
0.0
 40
0.0120437164133112
 50
269.2603906628402228
 51
5.8785633771142081
  0
ARC
  5
8DF7
  8
0
 10
2392.5378911842208254
 20
134.81767309828561
 30
0.0
 40
0.027469667856441
 50
37.0895367614222025
 51
66.7247891121371453
  0
ARC
  5
8DF8
  8
0
 10
2393.9974517150299107
 20
132.6889083264395879
 30
0.0
 40
1.116512351995661
 50
202.9253776146991015
 51
204.0268283136987009
  0
ARC
  5
8DF9
  8
0
 10
2392.4980986512241543
 20
132.2442767311279965
 30
0.0
 40
0.342330663533506
 50
359.6257805605071098
 51
1.625810851449192
  0
ARC
  5
8DFA
  8
0
 10
2392.8484292273578831
 20
132.2423160209488913
 30
0.0
 40
0.0080119406404556
 50
181.9681325226767967
 51
269.5970530090053217
  0
ARC
  5
8DFB
  8
0
 10
2394.6197905010531031
 20
133.159516089441297
 30
0.0
 40
0.0197
 50
270.0
 51
8.5850444492445774
  0
ARC
  5
8DFC
  8
0
 10
2394.3579638209930636
 20
134.3091184516412966
 30
0.0
 40
0.0118
 50
17.8412435743891002
 51
90.0000000000260485
  0
ARC
  5
8DFD
  8
0
 10
2394.3150031532468347
 20
134.3409184516661981
 30
0.0
 40
0.0200000000248787
 50
193.0000001143743873
 51
269.9999999642785156
  0
LINE
  5
8DFE
  8
0
 10
2394.2945061568339042
 20
134.3407924673412879
 30
0.0
 11
2394.2955157519309068
 21
134.3364194305557078
 31
0.0
  0
ARC
  5
8DFF
  8
0
 10
2395.0108502827361008
 20
134.53459486295489
 30
0.0
 40
0.6762379100618042
 50
167.6372654015112005
 51
195.3168274034395893
  0
ARC
  5
8E00
  8
0
 10
2394.7955806879799638
 20
134.5463525620374128
 30
0.0
 40
0.4647328296581944
 50
116.0444473847184952
 51
163.3670490382712899
  0
ARC
  5
8E01
  8
0
 10
2395.6940686481862031
 20
132.5952285708918055
 30
0.0
 40
2.612692525462692
 50
94.2099155623837845
 51
114.9604643735570022
  0
ARC
  5
8E02
  8
0
 10
2395.8770603358620974
 20
132.313617305712711
 30
0.0
 40
2.9114782231937242
 50
85.0897687366153122
 51
97.3961489144583936
  0
ARC
  5
8E03
  8
0
 10
2396.3090077000838392
 20
136.8759661254075866
 30
0.0
 40
1.671574409107301
 50
263.7237667186167869
 51
272.1115408232492996
  0
ARC
  5
8E04
  8
0
 10
2396.3682205155078009
 20
135.5215883153416883
 30
0.0
 40
0.3160705207868526
 50
270.4307758879762105
 51
296.3786616070481728
  0
ARC
  5
8E05
  8
0
 10
2396.4551823264969244
 20
135.346240942682698
 30
0.0
 40
0.1203435229841038
 50
296.3786616070481728
 51
328.07399557085688
  0
ARC
  5
8E06
  8
0
 10
2394.3470586664911934
 20
134.3527924673412883
 30
0.0
 40
0.012
 50
270.0
 51
15.3168274034192304
  0
LINE
  5
8E07
  8
0
 10
2393.4937016850340115
 20
134.3407924673412879
 30
0.0
 11
2393.4926920899301876
 21
134.3364194305542867
 31
0.0
  0
ARC
  5
8E08
  8
0
 10
2393.4732046886260832
 20
134.3409184516602863
 30
0.0
 40
0.0200000000189728
 50
270.0000000222510721
 51
346.999999899073714
  0
ARC
  5
8E09
  8
0
 10
2395.0167485836600463
 20
133.1010142700978918
 30
0.0
 40
2.120945130491906
 50
192.9538925823866009
 51
204.1196718012519966
  0
ARC
  5
8E0A
  8
0
 10
2404.2914989403548134
 20
135.5388347779048956
 30
0.0
 40
11.7098980044054493
 50
191.5620756506677935
 51
194.4057233208069135
  0
ARC
  5
8E0B
  8
0
 10
2415.9243847928119067
 20
137.9909320549849099
 30
0.0
 40
23.5983095601218302
 50
189.6691233694774041
 51
191.7338935893442056
  0
ARC
  5
8E0C
  8
0
 10
2393.08784111786008
 20
133.2769235445215088
 30
0.0
 40
0.1491185731918331
 50
270.1516117177408773
 51
289.250155125404774
  0
ARC
  5
8E0D
  8
0
 10
2393.0874238510741634
 20
133.4346130050307124
 30
0.0
 40
0.3068085857711388
 50
253.9145670218721875
 51
270.1516117177408773
  0
ARC
  5
8E0E
  8
0
 10
2393.1579554108029697
 20
133.0782628011378961
 30
0.0
 40
0.0615548277832143
 50
89.594776632133815
 51
109.8989195814845061
  0
LINE
  5
8E0F
  8
0
 10
2395.8724480497808145
 20
135.4107134366412879
 30
0.0
 11
2396.0141133646588969
 21
135.4107134366412879
 31
0.0
  0
ARC
  5
8E10
  8
0
 10
2392.2331569793759627
 20
134.4575242702167941
 30
0.0
 40
0.0142499162425839
 50
172.5601285956290951
 51
180.0583957110231097
  0
ARC
  5
8E12
  8
0
 10
2391.7222834086001058
 20
134.3626326549182863
 30
0.0
 40
0.0852620685100927
 50
75.9841185833687831
 51
104.1152738784550991
  0
ARC
  5
8E13
  8
0
 10
2391.7221382999468915
 20
134.5299312840060111
 30
0.0
 40
0.0870938707852061
 50
256.285844988897793
 51
283.8135474729239718
  0
ARC
  5
8E14
  8
0
 10
2391.8026143894749111
 20
134.3676604084706128
 30
0.0
 40
0.0858994088296611
 50
76.0378749881548401
 51
103.9269923923499022
  0
ARC
  5
8E15
  8
0
 10
2391.8026655089929591
 20
134.5343961978119864
 30
0.0
 40
0.0858994088297099
 50
256.0378749881547833
 51
283.9269923923495753
  0
ARC
  5
8E16
  8
0
 10
2391.8941157577642116
 20
134.3698508317368123
 30
0.0
 40
0.0856765985935156
 50
76.034063755024917
 51
103.9842694892731032
  0
ARC
  5
8E17
  8
0
 10
2391.8940891189231479
 20
134.5363563456292013
 30
0.0
 40
0.0858942217018124
 50
256.0701877770434862
 51
283.9481454675830037
  0
ARC
  5
8E18
  8
0
 10
2391.6625211806308471
 20
134.3530634753994946
 30
0.0
 40
0.0861528997936048
 50
76.0695063930299114
 51
103.943494972510095
  0
ARC
  5
8E19
  8
0
 10
2391.6625021220179406
 20
134.5210424580033077
 30
0.0
 40
0.0868767990437712
 50
256.1879517901211898
 51
283.82504957543091
  0
ARC
  5
8E1A
  8
0
 10
2391.6307330849272148
 20
134.3418417132899947
 30
0.0
 40
0.0867310130739711
 50
76.1363210785536637
 51
103.8451109436895052
  0
ARC
  5
8E1B
  8
0
 10
2391.6307603743398431
 20
134.5102572733925967
 30
0.0
 40
0.0867310130739716
 50
256.1363210785532942
 51
283.8451109436891215
  0
ARC
  5
8E1C
  8
0
 10
2391.6311779600528098
 20
134.330502606621593
 30
0.0
 40
0.0867310130739711
 50
76.1363210785536637
 51
103.8451109436895052
  0
ARC
  5
8E1D
  8
0
 10
2391.6312052494658928
 20
134.4989181667243088
 30
0.0
 40
0.0867310130739716
 50
256.1363210785532942
 51
283.8451109436891215
  0
ARC
  5
8E1E
  8
0
 10
2391.6630323367207893
 20
134.3198041102077127
 30
0.0
 40
0.0867310130739711
 50
76.1363210785536637
 51
103.8451109436895052
  0
ARC
  5
8E1F
  8
0
 10
2391.6630596261338724
 20
134.4882196703104
 30
0.0
 40
0.0867310130739716
 50
256.1363210785532942
 51
283.8451109436891215
  0
ARC
  5
8E20
  8
0
 10
2391.7219684082187996
 20
134.3111728905498978
 30
0.0
 40
0.0867310130739711
 50
76.1363210785536637
 51
103.8451109436895052
  0
ARC
  5
8E21
  8
0
 10
2391.7219956976318826
 20
134.4795884506524999
 30
0.0
 40
0.0867310130739716
 50
256.1363210785532942
 51
283.8451109436891215
  0
ARC
  5
8E22
  8
0
 10
2391.8029249356582113
 20
134.3055070696096038
 30
0.0
 40
0.0867310130739711
 50
76.1363210785536637
 51
103.8451109436895052
  0
ARC
  5
8E23
  8
0
 10
2391.8029522250722039
 20
134.4739226297122912
 30
0.0
 40
0.0867310130739716
 50
256.1363210785532942
 51
283.8451109436891215
  0
ARC
  5
8E24
  8
0
 10
2391.8941157577642116
 20
134.3049308862019018
 30
0.0
 40
0.0856765985935156
 50
76.034063755024917
 51
103.9842694892731032
  0
ARC
  5
8E25
  8
0
 10
2391.8940891189231479
 20
134.4714364000942055
 30
0.0
 40
0.0858942217018124
 50
256.0701877770434862
 51
283.9481454675830037
  0
ARC
  5
8E26
  8
0
 10
2392.2609134448389341
 20
133.938550663544703
 30
0.0
 40
0.9490564884995601
 50
72.3451287492683832
 51
81.890040478277129
  0
ARC
  5
8E27
  8
0
 10
2392.2083176145920334
 20
133.6405525746652927
 30
0.0
 40
1.2515344054608151
 50
81.4308465772296159
 51
88.1171410803350454
  0
LINE
  5
8E28
  8
0
 10
2392.2494382456570747
 20
134.8914112644272905
 30
0.0
 11
2391.8941031709341587
 21
134.9000393632622092
 31
0.0
  0
ARC
  5
8E29
  8
0
 10
2393.4425966586541108
 20
134.3525794184232041
 30
0.0
 40
0.0134442068174049
 50
164.1051758427290963
 51
179.0920018588836058
  0
ARC
  5
8E2A
  8
0
 10
2390.3336648783429155
 20
134.3508102180960861
 30
0.0
 40
0.0254653042214777
 50
4.4644872339550687
 51
12.3599219487452903
  0
ARC
  5
8E2B
  8
0
 10
2392.0688094631859713
 20
134.3626326549182863
 30
0.0
 40
0.0852620685100927
 50
75.8847261215449009
 51
104.0158814166312027
  0
ARC
  5
8E2C
  8
0
 10
2392.0689545718378213
 20
134.5299312840060111
 30
0.0
 40
0.0870938707852061
 50
256.1864525270760282
 51
283.714155011102207
  0
ARC
  5
8E2D
  8
0
 10
2391.9884784823111659
 20
134.3676604084706128
 30
0.0
 40
0.0858994088296611
 50
76.0730076076500552
 51
103.9621250118452025
  0
ARC
  5
8E2E
  8
0
 10
2391.9884273627931179
 20
134.5343961978119864
 30
0.0
 40
0.0858994088297099
 50
256.0730076076504247
 51
283.962125011845103
  0
ARC
  5
8E2F
  8
0
 10
2392.1285716911538657
 20
134.3530634753994946
 30
0.0
 40
0.0861528997936048
 50
76.0565050274898766
 51
103.9304936069701029
  0
ARC
  5
8E30
  8
0
 10
2392.128590749767227
 20
134.5210424580033077
 30
0.0
 40
0.0868767990437712
 50
256.17495042456909
 51
283.8120482098786965
  0
ARC
  5
8E31
  8
0
 10
2392.1603597868579527
 20
134.3418417132899947
 30
0.0
 40
0.0867310130739711
 50
76.1548890563105516
 51
103.8636789214462937
  0
ARC
  5
8E32
  8
0
 10
2392.1603324974448697
 20
134.5102572733925967
 30
0.0
 40
0.0867310130739716
 50
256.1548890563108785
 51
283.8636789214467058
  0
ARC
  5
8E33
  8
0
 10
2392.159914911731903
 20
134.330502606621593
 30
0.0
 40
0.0867310130739711
 50
76.1548890563105516
 51
103.8636789214462937
  0
ARC
  5
8E34
  8
0
 10
2392.1598876223201842
 20
134.4989181667243088
 30
0.0
 40
0.0867310130739716
 50
256.1548890563108785
 51
283.8636789214467058
  0
ARC
  5
8E35
  8
0
 10
2392.1280605350639235
 20
134.3198041102077127
 30
0.0
 40
0.0867310130739711
 50
76.1548890563105516
 51
103.8636789214462937
  0
ARC
  5
8E36
  8
0
 10
2392.1280332456522046
 20
134.4882196703104
 30
0.0
 40
0.0867310130739716
 50
256.1548890563108785
 51
283.8636789214467058
  0
ARC
  5
8E37
  8
0
 10
2392.0691244635659132
 20
134.3111728905498978
 30
0.0
 40
0.0867310130739711
 50
76.1548890563105516
 51
103.8636789214462937
  0
ARC
  5
8E38
  8
0
 10
2392.0690971741528301
 20
134.4795884506524999
 30
0.0
 40
0.0867310130739716
 50
256.1548890563108785
 51
283.8636789214467058
  0
ARC
  5
8E39
  8
0
 10
2391.9881679361260467
 20
134.3055070696096038
 30
0.0
 40
0.0867310130739711
 50
76.1548890563105516
 51
103.8636789214462937
  0
ARC
  5
8E3A
  8
0
 10
2391.9881406467129636
 20
134.4739226297122912
 30
0.0
 40
0.0867310130739716
 50
256.1548890563108785
 51
283.8636789214467058
  0
ENDSEC
  0
EOF
