  0
SECTION
  2
HEADER
  9
$ACADVER
  1
AC1009
  9
$INSBASE
 10
136.18949330278039
 20
10.5284668607
 30
0.0
  9
$EXTMIN
 10
127.12449330278039
 20
4.5917828105999989
 30
0.0
  9
$EXTMAX
 10
145.25449330278039
 20
10.5399068152573
 30
0.0
  9
$LIMMIN
 10
0.0
 20
0.0
  9
$LIMMAX
 10
11.692913385800001
 20
8.2677165353999982
  9
$ORTHOMODE
 70
     0
  9
$REGENMODE
 70
     1
  9
$FILLMODE
 70
     1
  9
$QTEXTMODE
 70
     0
  9
$MIRRTEXT
 70
     0
  9
$DRAGMODE
 70
     2
  9
$LTSCALE
 40
0.6431102362
  9
$OSMODE
 70
  3071
  9
$ATTMODE
 70
     1
  9
$TEXTSIZE
 40
0.2
  9
$TRACEWID
 40
0.05
  9
$TEXTSTYLE
  7
STANDARD
  9
$CLAYER
  8
0
  9
$CELTYPE
  6
BYLAYER
  9
$CECOLOR
 62
   256
  9
$DIMSCALE
 40
1.0
  9
$DIMASZ
 40
0.1875
  9
$DIMEXO
 40
0.0625
  9
$DIMDLI
 40
0.4443307087
  9
$DIMRND
 40
0.0
  9
$DIMDLE
 40
0.0
  9
$DIMEXE
 40
0.125
  9
$DIMTP
 40
0.01
  9
$DIMTM
 40
0.01
  9
$DIMTXT
 40
1.0
  9
$DIMCEN
 40
0.1052362205
  9
$DIMTSZ
 40
0.0
  9
$DIMTOL
 70
     1
  9
$DIMLIM
 70
     0
  9
$DIMTIH
 70
     1
  9
$DIMTOH
 70
     1
  9
$DIMSE1
 70
     0
  9
$DIMSE2
 70
     0
  9
$DIMTAD
 70
     0
  9
$DIMZIN
 70
     0
  9
$DIMBLK
  1

  9
$DIMASO
 70
     1
  9
$DIMSHO
 70
     1
  9
$DIMPOST
  1
\X
  9
$DIMAPOST
  1

  9
$DIMALT
 70
     1
  9
$DIMALTD
 70
     2
  9
$DIMALTF
 40
25.399999999999999
  9
$DIMLFAC
 40
1.0
  9
$DIMTOFL
 70
     0
  9
$DIMTVP
 40
0.0
  9
$DIMTIX
 70
     0
  9
$DIMSOXD
 70
     0
  9
$DIMSAH
 70
     0
  9
$DIMBLK1
  1

  9
$DIMBLK2
  1

  9
$DIMSTYLE
  2
STANDARD
  9
$DIMCLRD
 70
     0
  9
$DIMCLRE
 70
     0
  9
$DIMCLRT
 70
     0
  9
$DIMTFAC
 40
1.0
  9
$DIMGAP
 40
0.09
  9
$LUNITS
 70
     2
  9
$LUPREC
 70
     4
  9
$SKETCHINC
 40
0.1
  9
$FILLETRAD
 40
0.0
  9
$AUNITS
 70
     0
  9
$AUPREC
 70
     0
  9
$MENU
  1
.
  9
$ELEVATION
 40
0.0
  9
$PELEVATION
 40
0.0
  9
$THICKNESS
 40
0.0
  9
$LIMCHECK
 70
     0
  9
$BLIPMODE
 70
     0
  9
$CHAMFERA
 40
0.0
  9
$CHAMFERB
 40
0.0
  9
$SKPOLY
 70
     0
  9
$TDCREATE
 40
2458110.5070831482
  9
$TDUPDATE
 40
2458110.601057454
  9
$TDINDWG
 40
0.0336604167
  9
$TDUSRTIMER
 40
0.0336604167
  9
$USRTIMER
 70
     1
  9
$ANGBASE
 50
0.0
  9
$ANGDIR
 70
     0
  9
$PDMODE
 70
     0
  9
$PDSIZE
 40
0.3125
  9
$PLINEWID
 40
0.0
  9
$COORDS
 70
     1
  9
$SPLFRAME
 70
     0
  9
$SPLINETYPE
 70
     6
  9
$SPLINESEGS
 70
     8
  9
$ATTDIA
 70
     1
  9
$ATTREQ
 70
     1
  9
$HANDLING
 70
     1
  9
$HANDSEED
  5
13D6
  9
$SURFTAB1
 70
     6
  9
$SURFTAB2
 70
     6
  9
$SURFTYPE
 70
     6
  9
$SURFU
 70
     6
  9
$SURFV
 70
     6
  9
$UCSNAME
  2

  9
$UCSORG
 10
0.0
 20
0.0
 30
0.0
  9
$UCSXDIR
 10
1.0
 20
0.0
 30
0.0
  9
$UCSYDIR
 10
0.0
 20
1.0
 30
0.0
  9
$PUCSNAME
  2

  9
$PUCSORG
 10
0.0
 20
0.0
 30
0.0
  9
$PUCSXDIR
 10
1.0
 20
0.0
 30
0.0
  9
$PUCSYDIR
 10
0.0
 20
1.0
 30
0.0
  9
$USERI1
 70
     0
  9
$USERI2
 70
     0
  9
$USERI3
 70
     0
  9
$USERI4
 70
     0
  9
$USERI5
 70
     0
  9
$USERR1
 40
0.0
  9
$USERR2
 40
0.0
  9
$USERR3
 40
0.0
  9
$USERR4
 40
0.0
  9
$USERR5
 40
0.0
  9
$WORLDVIEW
 70
     1
  9
$SHADEDGE
 70
     3
  9
$SHADEDIF
 70
    70
  9
$TILEMODE
 70
     1
  9
$MAXACTVP
 70
    64
  9
$PLIMCHECK
 70
     0
  9
$PEXTMIN
 10
1.0000000000000000E+020
 20
1.0000000000000000E+020
 30
1.0000000000000000E+020
  9
$PEXTMAX
 10
-1.0000000000000000E+020
 20
-1.0000000000000000E+020
 30
-1.0000000000000000E+020
  9
$PLIMMIN
 10
0.0
 20
0.0
  9
$PLIMMAX
 10
12.0
 20
9.0
  9
$UNITMODE
 70
     0
  9
$VISRETAIN
 70
     1
  9
$PLINEGEN
 70
     0
  9
$PSLTSCALE
 70
     1
  0
ENDSEC
  0
SECTION
  2
TABLES
  0
TABLE
  2
VPORT
 70
     1
  0
VPORT
  2
*ACTIVE
 70
     0
 10
0.0
 20
0.0
 11
1.0
 21
1.0
 12
0.0
 22
0.0
 13
0.0
 23
0.0
 14
1.0
 24
1.0
 15
0.0
 25
0.0
 16
0.0
 26
0.0
 36
53.654940734130101
 17
136.18949330278039
 27
7.5658448129286491
 37
0.0
 40
19.082322186181202
 41
2.0983240223463682
 42
50.0
 43
0.0
 44
0.0
 50
0.0
 51
0.0
 71
     0
 72
   100
 73
     1
 74
     1
 75
     0
 76
     0
 77
     0
 78
     0
  0
ENDTAB
  0
TABLE
  2
LTYPE
 70
     2
  0
LTYPE
  2
CONTINUOUS
 70
     0
  3
Solid line
 72
    65
 73
     0
 40
0.0
  0
LTYPE
  2
PHANTOM2
 70
     0
  3
___ _ _ ___ _ _ ___ _ _ ___ _ _
 72
    65
 73
     6
 40
1.25
 49
0.625
 49
-0.125
 49
0.125
 49
-0.125
 49
0.125
 49
-0.125
  0
ENDTAB
  0
TABLE
  2
LAYER
 70
     2
  0
LAYER
  2
0
 70
     0
 62
   255
  6
CONTINUOUS
  0
LAYER
  2
DEFPOINTS
 70
     0
 62
     7
  6
CONTINUOUS
  0
ENDTAB
  0
TABLE
  2
STYLE
 70
     1
  0
STYLE
  2
STANDARD
 70
     0
 40
0.0
 41
0.8
 50
0.0
 71
     0
 42
0.2
  3
txt
  4

  0
ENDTAB
  0
TABLE
  2
VIEW
 70
     0
  0
ENDTAB
  0
TABLE
  2
UCS
 70
     0
  0
ENDTAB
  0
TABLE
  2
APPID
 70
     9
  0
APPID
  2
ACAD
 70
     0
  0
APPID
  2
ACAD_MLEADERVER
 70
     0
  0
APPID
  2
ACAD_EXEMPT_FROM_CAD_STANDARDS
 70
     0
  0
APPID
  2
ACAD_DSTYLE_DIMJAG
 70
     0
  0
APPID
  2
ACAD_DSTYLE_DIMTALN
 70
     0
  0
APPID
  2
ACAD_NAV_VCDISPLAY
 70
     0
  0
APPID
  2
ACAECLAYERSTANDARD
 70
     0
  0
APPID
  2
ACCMTRANSPARENCY
 70
     0
  0
APPID
  2
AcDbAttr
 70
     0
  0
ENDTAB
  0
TABLE
  2
DIMSTYLE
 70
     1
  0
DIMSTYLE
  2
STANDARD
 70
     0
  3

  4

  5

  6

  7

 40
1.0
 41
0.1875
 42
0.0625
 43
0.38
 44
0.125
 45
0.0
 46
0.0
 47
0.01
 48
0.01
140
0.15625
141
0.09
142
0.0
143
25.399999999999999
144
1.0
145
0.0
146
1.0
147
0.09
 71
     1
 72
     0
 73
     1
 74
     1
 75
     0
 76
     0
 77
     0
 78
     4
170
     0
171
     2
172
     0
173
     0
174
     0
175
     0
176
     0
177
     0
178
     0
  0
ENDTAB
  0
ENDSEC
  0
SECTION
  2
BLOCKS
  0
BLOCK
  8
0
  2
$MODEL_SPACE
 70
     0
 10
0.0
 20
0.0
 30
0.0
  3
$MODEL_SPACE
  1

  0
ENDBLK
  5
21
  8
0
  0
BLOCK
 67
     1
  8
0
  2
$PAPER_SPACE
 70
     0
 10
0.0
 20
0.0
 30
0.0
  3
$PAPER_SPACE
  1

  0
ENDBLK
  5
1D
 67
     1
  8
0
  0
ENDSEC
  0
SECTION
  2
ENTITIES
  0
LINE
  5
EF4
  8
0
 10
127.12449330278039
 20
10.4804668607
 30
0.0
 11
127.12449330278039
 21
10.5284668607
 31
0.0
  0
LINE
  5
EF5
  8
0
 10
127.12449330278039
 20
10.5284668607
 30
0.0
 11
145.25449330278039
 21
10.5284668607
 31
0.0
  0
LINE
  5
EF6
  8
0
 10
145.25449330278039
 20
10.5284668607
 30
0.0
 11
145.25449330278039
 21
10.4804668607
 31
0.0
  0
LINE
  5
EF7
  8
0
 10
145.25449330278039
 20
10.4804668607
 30
0.0
 11
127.12449330278039
 21
10.4804668607
 31
0.0
  0
ARC
  5
EF8
  8
0
 10
128.0375746140848
 20
10.230466860708921
 30
0.0
 40
0.2499999999910798
 50
4.2000000022571689
 51
90.000000000802018
  0
LINE
  5
EF9
  8
0
 10
128.28690323338279
 20
10.24877640997901
 30
0.0
 11
128.55213866808131
 21
6.6369570409999961
 31
0.0
  0
ARC
  5
EFA
  8
0
 10
130.3471683113533
 20
6.7821310445997272
 30
0.0
 40
1.8008905884440649
 50
184.62376388937909
 51
267.79130957681781
  0
LINE
  5
EFB
  8
0
 10
130.27776311661171
 20
4.9825783694914678
 30
0.0
 11
133.80886235705
 21
4.8519646476847438
 31
0.0
  0
ARC
  5
EFC
  8
0
 10
133.80726621591529
 20
4.81925640788993
 30
0.0
 40
0.0327471619853077
 50
37.232761752865102
 51
87.206218912590046
  0
LINE
  5
EFD
  8
0
 10
133.83333898488041
 20
4.8390702247000004
 30
0.0
 11
133.8849453732804
 21
4.7681114406000003
 31
0.0
  0
ARC
  5
EFE
  8
0
 10
133.9480267884461
 20
4.8139888339561656
 30
0.0
 40
0.0780000010286059
 50
216.02737368712201
 51
251.99999977864951
  0
LINE
  5
EFF
  8
0
 10
133.9239234624084
 20
4.7398064248000003
 30
0.0
 11
134.37949330278039
 21
4.5917828105999989
 31
0.0
  0
LINE
  5
F00
  8
0
 10
142.1012234889491
 20
4.9825783694914669
 30
0.0
 11
138.57012424851081
 21
4.8519646476847438
 31
0.0
  0
ARC
  5
F01
  8
0
 10
138.57172038964561
 20
4.81925640788993
 30
0.0
 40
0.0327471619853077
 50
92.79378108740994
 51
142.7672382471348
  0
LINE
  5
F02
  8
0
 10
138.5456476206804
 20
4.8390702247000004
 30
0.0
 11
138.49404123228041
 21
4.7681114406000003
 31
0.0
  0
ARC
  5
F03
  8
0
 10
138.43095981711471
 20
4.8139888339561656
 30
0.0
 40
0.0780000010286059
 50
288.0000002213506
 51
323.97262631287799
  0
LINE
  5
F04
  8
0
 10
138.4550631431525
 20
4.7398064248000003
 30
0.0
 11
137.99949330278039
 21
4.5917828105999989
 31
0.0
  0
LINE
  5
F05
  8
0
 10
134.37949330278039
 20
4.5917828105999989
 30
0.0
 11
137.99949330278039
 21
4.5917828105999989
 31
0.0
  0
LINE
  5
F06
  8
0
 10
133.80886235705
 20
4.8519646476847429
 30
0.0
 11
138.57012424851081
 21
4.8519646476847429
 31
0.0
  0
ARC
  5
F07
  8
0
 10
144.34141199147601
 20
10.230466860708921
 30
0.0
 40
0.2499999999910798
 50
89.999999999197996
 51
175.79999999774279
  0
LINE
  5
F08
  8
0
 10
144.092083372178
 20
10.24877640997901
 30
0.0
 11
143.8268479374795
 21
6.6369570409999961
 31
0.0
  0
ARC
  5
F09
  8
0
 10
142.03181829420751
 20
6.7821310445997272
 30
0.0
 40
1.8008905884440649
 50
272.20869042318219
 51
355.37623611062088
  0
ATTDEF
  5
1286
  8
DEFPOINTS
 10
136.1857110460997
 20
10.5339068152573
 30
0.0
 40
0.001
  1
STAINLESS STEEL
  3

  2
MATERIAL
 70
     0
1001
AcDbAttr
1070
     0
1070
     1
  0
ATTDEF
  5
1287
  8
DEFPOINTS
 10
136.1857110460997
 20
10.53557348192397
 30
0.0
 40
0.001
  1
KITCHEN SINK
  3

  2
PRODUCT
 70
     0
1001
AcDbAttr
1070
     0
1070
     1
  0
ATTDEF
  5
1288
  8
DEFPOINTS
 10
136.1857110460997
 20
10.53724014859063
 30
0.0
 40
0.001
  1
MCALLISTER
  3

  2
TRADENAME
 70
     0
1001
AcDbAttr
1070
     0
1070
     1
  0
ATTDEF
  5
1289
  8
DEFPOINTS
 10
136.1857110460997
 20
10.538906815257301
 30
0.0
 40
0.001
  1
24765
  3

  2
MODELNUMBER
 70
     0
1001
AcDbAttr
1070
     0
1070
     1
  0
ENDSEC
  0
EOF
