  0
SECTION
  2
HEADER
  9
$ACADVER
  1
AC1009
  9
$INSBASE
 10
91.930601423180434
 20
29.210671665500001
 30
0.0
  9
$EXTMIN
 10
75.960601423180435
 20
20.1456716655
 30
0.0
  9
$EXTMAX
 10
107.9006014231804
 20
38.275671665499999
 30
0.0
  9
$LIMMIN
 10
0.0
 20
0.0
  9
$LIMMAX
 10
11.692913385800001
 20
8.2677165353999982
  9
$ORTHOMODE
 70
     0
  9
$REGENMODE
 70
     1
  9
$FILLMODE
 70
     1
  9
$QTEXTMODE
 70
     0
  9
$MIRRTEXT
 70
     0
  9
$DRAGMODE
 70
     2
  9
$LTSCALE
 40
0.6431102362
  9
$OSMODE
 70
  3071
  9
$ATTMODE
 70
     1
  9
$TEXTSIZE
 40
0.2
  9
$TRACEWID
 40
0.05
  9
$TEXTSTYLE
  7
STANDARD
  9
$CLAYER
  8
0
  9
$CELTYPE
  6
BYLAYER
  9
$CECOLOR
 62
   256
  9
$DIMSCALE
 40
1.0
  9
$DIMASZ
 40
0.1875
  9
$DIMEXO
 40
0.0625
  9
$DIMDLI
 40
0.4443307087
  9
$DIMRND
 40
0.0
  9
$DIMDLE
 40
0.0
  9
$DIMEXE
 40
0.125
  9
$DIMTP
 40
0.01
  9
$DIMTM
 40
0.01
  9
$DIMTXT
 40
1.0
  9
$DIMCEN
 40
0.1052362205
  9
$DIMTSZ
 40
0.0
  9
$DIMTOL
 70
     1
  9
$DIMLIM
 70
     0
  9
$DIMTIH
 70
     1
  9
$DIMTOH
 70
     1
  9
$DIMSE1
 70
     0
  9
$DIMSE2
 70
     0
  9
$DIMTAD
 70
     0
  9
$DIMZIN
 70
     0
  9
$DIMBLK
  1

  9
$DIMASO
 70
     1
  9
$DIMSHO
 70
     1
  9
$DIMPOST
  1
\X
  9
$DIMAPOST
  1

  9
$DIMALT
 70
     1
  9
$DIMALTD
 70
     2
  9
$DIMALTF
 40
25.399999999999999
  9
$DIMLFAC
 40
1.0
  9
$DIMTOFL
 70
     0
  9
$DIMTVP
 40
0.0
  9
$DIMTIX
 70
     0
  9
$DIMSOXD
 70
     0
  9
$DIMSAH
 70
     0
  9
$DIMBLK1
  1

  9
$DIMBLK2
  1

  9
$DIMSTYLE
  2
STANDARD
  9
$DIMCLRD
 70
     0
  9
$DIMCLRE
 70
     0
  9
$DIMCLRT
 70
     0
  9
$DIMTFAC
 40
1.0
  9
$DIMGAP
 40
0.09
  9
$LUNITS
 70
     2
  9
$LUPREC
 70
     4
  9
$SKETCHINC
 40
0.1
  9
$FILLETRAD
 40
0.0
  9
$AUNITS
 70
     0
  9
$AUPREC
 70
     0
  9
$MENU
  1
.
  9
$ELEVATION
 40
0.0
  9
$PELEVATION
 40
0.0
  9
$THICKNESS
 40
0.0
  9
$LIMCHECK
 70
     0
  9
$BLIPMODE
 70
     0
  9
$CHAMFERA
 40
0.0
  9
$CHAMFERB
 40
0.0
  9
$SKPOLY
 70
     0
  9
$TDCREATE
 40
2458110.5070831482
  9
$TDUPDATE
 40
2458110.6009328589
  9
$TDINDWG
 40
0.0335429977
  9
$TDUSRTIMER
 40
0.0335429977
  9
$USRTIMER
 70
     1
  9
$ANGBASE
 50
0.0
  9
$ANGDIR
 70
     0
  9
$PDMODE
 70
     0
  9
$PDSIZE
 40
0.3125
  9
$PLINEWID
 40
0.0
  9
$COORDS
 70
     1
  9
$SPLFRAME
 70
     0
  9
$SPLINETYPE
 70
     6
  9
$SPLINESEGS
 70
     8
  9
$ATTDIA
 70
     1
  9
$ATTREQ
 70
     1
  9
$HANDLING
 70
     1
  9
$HANDSEED
  5
1353
  9
$SURFTAB1
 70
     6
  9
$SURFTAB2
 70
     6
  9
$SURFTYPE
 70
     6
  9
$SURFU
 70
     6
  9
$SURFV
 70
     6
  9
$UCSNAME
  2

  9
$UCSORG
 10
0.0
 20
0.0
 30
0.0
  9
$UCSXDIR
 10
1.0
 20
0.0
 30
0.0
  9
$UCSYDIR
 10
0.0
 20
1.0
 30
0.0
  9
$PUCSNAME
  2

  9
$PUCSORG
 10
0.0
 20
0.0
 30
0.0
  9
$PUCSXDIR
 10
1.0
 20
0.0
 30
0.0
  9
$PUCSYDIR
 10
0.0
 20
1.0
 30
0.0
  9
$USERI1
 70
     0
  9
$USERI2
 70
     0
  9
$USERI3
 70
     0
  9
$USERI4
 70
     0
  9
$USERI5
 70
     0
  9
$USERR1
 40
0.0
  9
$USERR2
 40
0.0
  9
$USERR3
 40
0.0
  9
$USERR4
 40
0.0
  9
$USERR5
 40
0.0
  9
$WORLDVIEW
 70
     1
  9
$SHADEDGE
 70
     3
  9
$SHADEDIF
 70
    70
  9
$TILEMODE
 70
     1
  9
$MAXACTVP
 70
    64
  9
$PLIMCHECK
 70
     0
  9
$PEXTMIN
 10
1.0000000000000000E+020
 20
1.0000000000000000E+020
 30
1.0000000000000000E+020
  9
$PEXTMAX
 10
-1.0000000000000000E+020
 20
-1.0000000000000000E+020
 30
-1.0000000000000000E+020
  9
$PLIMMIN
 10
0.0
 20
0.0
  9
$PLIMMAX
 10
12.0
 20
9.0
  9
$UNITMODE
 70
     0
  9
$VISRETAIN
 70
     1
  9
$PLINEGEN
 70
     0
  9
$PSLTSCALE
 70
     1
  0
ENDSEC
  0
SECTION
  2
TABLES
  0
TABLE
  2
VPORT
 70
     1
  0
VPORT
  2
*ACTIVE
 70
     0
 10
0.0
 20
0.0
 11
1.0
 21
1.0
 12
0.0
 22
0.0
 13
0.0
 23
0.0
 14
1.0
 24
1.0
 15
0.0
 25
0.0
 16
-0.0000000000000284
 26
0.0
 36
103.27532463401501
 17
91.930601423180434
 27
29.210671665500001
 37
0.0
 40
36.728804084592149
 41
2.0983240223463682
 42
50.0
 43
0.0
 44
0.0
 50
0.0
 51
0.0
 71
     0
 72
   100
 73
     1
 74
     1
 75
     0
 76
     0
 77
     0
 78
     0
  0
ENDTAB
  0
TABLE
  2
LTYPE
 70
     2
  0
LTYPE
  2
CONTINUOUS
 70
     0
  3
Solid line
 72
    65
 73
     0
 40
0.0
  0
LTYPE
  2
PHANTOM2
 70
     0
  3
___ _ _ ___ _ _ ___ _ _ ___ _ _
 72
    65
 73
     6
 40
1.25
 49
0.625
 49
-0.125
 49
0.125
 49
-0.125
 49
0.125
 49
-0.125
  0
ENDTAB
  0
TABLE
  2
LAYER
 70
     2
  0
LAYER
  2
0
 70
     0
 62
   255
  6
CONTINUOUS
  0
LAYER
  2
DEFPOINTS
 70
     0
 62
     7
  6
CONTINUOUS
  0
ENDTAB
  0
TABLE
  2
STYLE
 70
     1
  0
STYLE
  2
STANDARD
 70
     0
 40
0.0
 41
0.8
 50
0.0
 71
     0
 42
0.2
  3
txt
  4

  0
ENDTAB
  0
TABLE
  2
VIEW
 70
     0
  0
ENDTAB
  0
TABLE
  2
UCS
 70
     0
  0
ENDTAB
  0
TABLE
  2
APPID
 70
     9
  0
APPID
  2
ACAD
 70
     0
  0
APPID
  2
ACAD_MLEADERVER
 70
     0
  0
APPID
  2
ACAD_EXEMPT_FROM_CAD_STANDARDS
 70
     0
  0
APPID
  2
ACAD_DSTYLE_DIMJAG
 70
     0
  0
APPID
  2
ACAD_DSTYLE_DIMTALN
 70
     0
  0
APPID
  2
ACAD_NAV_VCDISPLAY
 70
     0
  0
APPID
  2
ACAECLAYERSTANDARD
 70
     0
  0
APPID
  2
ACCMTRANSPARENCY
 70
     0
  0
APPID
  2
AcDbAttr
 70
     0
  0
ENDTAB
  0
TABLE
  2
DIMSTYLE
 70
     1
  0
DIMSTYLE
  2
STANDARD
 70
     0
  3

  4

  5

  6

  7

 40
1.0
 41
0.1875
 42
0.0625
 43
0.38
 44
0.125
 45
0.0
 46
0.0
 47
0.01
 48
0.01
140
0.15625
141
0.09
142
0.0
143
25.399999999999999
144
1.0
145
0.0
146
1.0
147
0.09
 71
     1
 72
     0
 73
     1
 74
     1
 75
     0
 76
     0
 77
     0
 78
     4
170
     0
171
     2
172
     0
173
     0
174
     0
175
     0
176
     0
177
     0
178
     0
  0
ENDTAB
  0
ENDSEC
  0
SECTION
  2
BLOCKS
  0
BLOCK
  8
0
  2
$MODEL_SPACE
 70
     0
 10
0.0
 20
0.0
 30
0.0
  3
$MODEL_SPACE
  1

  0
ENDBLK
  5
21
  8
0
  0
BLOCK
 67
     1
  8
0
  2
$PAPER_SPACE
 70
     0
 10
0.0
 20
0.0
 30
0.0
  3
$PAPER_SPACE
  1

  0
ENDBLK
  5
1D
 67
     1
  8
0
  0
ENDSEC
  0
SECTION
  2
ENTITIES
  0
LINE
  5
E9C
  8
0
 10
77.400601423180433
 20
38.275671665499999
 30
0.0
 11
106.46060142318041
 21
38.275671665499999
 31
0.0
  0
LINE
  5
E9D
  8
0
 10
106.46060142318041
 20
38.275671665499999
 30
0.0
 11
107.9006014231804
 21
36.835671665500001
 31
0.0
  0
LINE
  5
E9E
  8
0
 10
107.9006014231804
 20
36.835671665500001
 30
0.0
 11
107.9006014231804
 21
21.585671665500001
 31
0.0
  0
LINE
  5
E9F
  8
0
 10
107.9006014231804
 20
21.585671665500001
 30
0.0
 11
106.46060142318041
 21
20.1456716655
 31
0.0
  0
LINE
  5
EA0
  8
0
 10
106.46060142318041
 20
20.1456716655
 30
0.0
 11
77.400601423180433
 21
20.1456716655
 31
0.0
  0
LINE
  5
EA1
  8
0
 10
77.400601423180433
 20
20.1456716655
 30
0.0
 11
75.960601423180435
 21
21.585671665500001
 31
0.0
  0
LINE
  5
EA2
  8
0
 10
75.960601423180435
 20
21.585671665500001
 30
0.0
 11
75.960601423180435
 21
36.835671665500001
 31
0.0
  0
LINE
  5
EA3
  8
0
 10
75.960601423180435
 20
36.835671665500001
 30
0.0
 11
77.400601423180433
 21
38.275671665499999
 31
0.0
  0
LINE
  5
EA4
  8
0
 10
80.155601423180414
 20
37.065390639999997
 30
0.0
 11
88.305601423180434
 21
37.065390639999997
 31
0.0
  0
ARC
  5
EA5
  8
0
 10
88.305634388361725
 20
34.085704630681299
 30
0.0
 40
2.979686009501056
 50
359.99936611919742
 51
90.000633880802624
  0
LINE
  5
EA6
  8
0
 10
91.285320397680422
 20
34.085671665470642
 30
0.0
 11
91.285320397680422
 21
24.335671665500001
 31
0.0
  0
ARC
  5
EA7
  8
0
 10
88.305601423351135
 20
24.335671665429299
 30
0.0
 40
2.9797189743292982
 50
269.99999999671792
 51
0.0000000013595784
  0
ARC
  5
EA8
  8
0
 10
80.155568457999124
 20
34.085704630681299
 30
0.0
 40
2.979686009501056
 50
89.99936611919739
 51
180.00063388080261
  0
LINE
  5
EA9
  8
0
 10
77.175882448680426
 20
34.085671665470642
 30
0.0
 11
77.175882448680426
 21
24.335671665500001
 31
0.0
  0
ARC
  5
EAA
  8
0
 10
80.155601423009728
 20
24.335671665429299
 30
0.0
 40
2.9797189743292982
 50
179.99999999864039
 51
270.00000000328208
  0
LINE
  5
EAB
  8
0
 10
80.155601423009728
 20
21.355952691100001
 30
0.0
 11
88.305601423180434
 21
21.355952691100001
 31
0.0
  0
LINE
  5
EAC
  8
0
 10
95.555601423180406
 20
37.065390639999997
 30
0.0
 11
103.7056014231804
 21
37.065390639999997
 31
0.0
  0
ARC
  5
EAD
  8
0
 10
103.7056343883617
 20
34.085704630681299
 30
0.0
 40
2.979686009501056
 50
359.99936611919742
 51
90.000633880802624
  0
LINE
  5
EAE
  8
0
 10
106.6853203976804
 20
34.085671665470642
 30
0.0
 11
106.6853203976804
 21
24.335671665500001
 31
0.0
  0
ARC
  5
EAF
  8
0
 10
103.7056014233511
 20
24.335671665429299
 30
0.0
 40
2.9797189743292982
 50
269.99999999671712
 51
0.0000000013595784
  0
ARC
  5
EB0
  8
0
 10
95.555568457999115
 20
34.085704630681299
 30
0.0
 40
2.979686009501056
 50
89.99936611919739
 51
180.00063388080261
  0
LINE
  5
EB1
  8
0
 10
92.575882448680446
 20
34.085671665470642
 30
0.0
 11
92.575882448680446
 21
24.335671665500001
 31
0.0
  0
ARC
  5
EB2
  8
0
 10
95.555601423009719
 20
24.335671665429299
 30
0.0
 40
2.9797189743292982
 50
179.99999999864039
 51
270.00000000328208
  0
LINE
  5
EB3
  8
0
 10
95.555601423009719
 20
21.355952691100001
 30
0.0
 11
103.7056014231804
 21
21.355952691100001
 31
0.0
  0
CIRCLE
  5
EB4
  8
0
 10
84.230601423180431
 20
29.210671665500001
 30
0.0
 40
0.31
  0
CIRCLE
  5
EB5
  8
0
 10
84.230601423180431
 20
29.210671665500001
 30
0.0
 40
0.2760925586
  0
CIRCLE
  5
EB6
  8
0
 10
84.230601423180431
 20
29.210671665500001
 30
0.0
 40
2.25
  0
CIRCLE
  5
EB7
  8
0
 10
84.230601423180431
 20
29.210671665500001
 30
0.0
 40
1.6780895467000001
  0
CIRCLE
  5
EB8
  8
0
 10
99.630601423180423
 20
29.210671665500001
 30
0.0
 40
0.31
  0
CIRCLE
  5
EB9
  8
0
 10
99.630601423180423
 20
29.210671665500001
 30
0.0
 40
0.2760925586
  0
CIRCLE
  5
EBA
  8
0
 10
99.630601423180423
 20
29.210671665500001
 30
0.0
 40
2.25
  0
CIRCLE
  5
EBB
  8
0
 10
99.630601423180423
 20
29.210671665500001
 30
0.0
 40
1.6780895467000001
  0
ARC
  5
EBC
  8
0
 10
84.230601435880445
 20
-468.10497896251172
 30
0.0
 40
503.22565264347321
 50
89.533686251155714
 51
90.4663137488443
  0
ARC
  5
EBD
  8
0
 10
-313.5532142253042
 20
29.210671666772239
 30
0.0
 40
402.9046765406386
 50
359.30293282386612
 51
0.6970671753176609
  0
ARC
  5
EBE
  8
0
 10
84.233021909512203
 20
527.12114587808264
 30
0.0
 40
503.82047623333688
 50
269.53396153524727
 51
270.46548791744721
  0
ARC
  5
EBF
  8
0
 10
481.74343156438988
 20
29.210672008595999
 30
0.0
 40
402.63371109750358
 50
179.30246373567621
 51
180.69753636212189
  0
ARC
  5
EC0
  8
0
 10
80.147453508005086
 20
34.096056780605352
 30
0.0
 40
1.0080269607204411
 50
90.705660284857416
 51
179.07463891398189
  0
ARC
  5
EC1
  8
0
 10
88.313749278651244
 20
34.096056721177412
 30
0.0
 40
1.0080270211920199
 50
0.9253642214693613
 51
89.294334919806005
  0
ARC
  5
EC2
  8
0
 10
88.31368019459191
 20
24.325315957880811
 30
0.0
 40
1.0080965705882641
 50
270.70954041587879
 51
359.07303121145702
  0
ARC
  5
EC3
  8
0
 10
80.147453566234461
 20
24.32528660021741
 30
0.0
 40
1.0080270113976859
 50
180.92536392930279
 51
269.29433717391771
  0
ARC
  5
EC4
  8
0
 10
99.630601435880436
 20
-468.10497896251172
 30
0.0
 40
503.22565264347321
 50
89.533686251155714
 51
90.4663137488443
  0
ARC
  5
EC5
  8
0
 10
-298.15321422530423
 20
29.210671666772239
 30
0.0
 40
402.9046765406386
 50
359.30293282386612
 51
0.6970671753176605
  0
ARC
  5
EC6
  8
0
 10
99.633021909512195
 20
527.12114587808264
 30
0.0
 40
503.82047623333688
 50
269.53396153524727
 51
270.46548791744721
  0
ARC
  5
EC7
  8
0
 10
497.1434315643898
 20
29.210672008595999
 30
0.0
 40
402.63371109750358
 50
179.30246373567621
 51
180.69753636212189
  0
ARC
  5
EC8
  8
0
 10
95.547453508005077
 20
34.096056780605352
 30
0.0
 40
1.0080269607204411
 50
90.705660284857416
 51
179.07463891398189
  0
ARC
  5
EC9
  8
0
 10
103.71374927865121
 20
34.096056721177412
 30
0.0
 40
1.0080270211920199
 50
0.92536422146936
 51
89.294334919806005
  0
ARC
  5
ECA
  8
0
 10
103.7136801945919
 20
24.325315957880811
 30
0.0
 40
1.0080965705882641
 50
270.70954041587879
 51
359.07303121145702
  0
ARC
  5
ECB
  8
0
 10
95.547453566234452
 20
24.32528660021741
 30
0.0
 40
1.0080270113976859
 50
180.92536392930279
 51
269.29433717391771
  0
ATTDEF
  5
1245
  8
DEFPOINTS
 10
91.927122112041047
 20
29.210856334400759
 30
0.0
 40
0.001
  1
STAINLESS STEEL
  3

  2
MATERIAL
 70
     0
1001
AcDbAttr
1070
     0
1070
     1
  0
ATTDEF
  5
1246
  8
DEFPOINTS
 10
91.927122112041047
 20
29.212523001067421
 30
0.0
 40
0.001
  1
KITCHEN SINK
  3

  2
PRODUCT
 70
     0
1001
AcDbAttr
1070
     0
1070
     1
  0
ATTDEF
  5
1247
  8
DEFPOINTS
 10
91.927122112041047
 20
29.21418966773409
 30
0.0
 40
0.001
  1
MCALLISTER
  3

  2
TRADENAME
 70
     0
1001
AcDbAttr
1070
     0
1070
     1
  0
ATTDEF
  5
1248
  8
DEFPOINTS
 10
91.927122112041047
 20
29.215856334400758
 30
0.0
 40
0.001
  1
24765
  3

  2
MODELNUMBER
 70
     0
1001
AcDbAttr
1070
     0
1070
     1
  0
ENDSEC
  0
EOF
