  0
SECTION
  2
HEADER
  9
$ACADVER
  1
AC1009
  9
$INSBASE
 10
4588.8976761339372388
 20
207.2565381140321961
 30
0.0
  9
$EXTMIN
 10
4577.2076761339367295
 20
201.3198540639322118
 30
0.0
  9
$EXTMAX
 10
4600.5876761339368386
 20
207.2565381140321961
 30
0.0
  9
$LIMMIN
 10
0.0
 20
0.0
  9
$LIMMAX
 10
11.6929133858000007
 20
8.2677165353999982
  9
$ORTHOMODE
 70
     1
  9
$REGENMODE
 70
     1
  9
$FILLMODE
 70
     1
  9
$QTEXTMODE
 70
     0
  9
$MIRRTEXT
 70
     0
  9
$DRAGMODE
 70
     2
  9
$LTSCALE
 40
0.6431102362
  9
$OSMODE
 70
  4095
  9
$ATTMODE
 70
     1
  9
$TEXTSIZE
 40
0.2
  9
$TRACEWID
 40
0.05
  9
$TEXTSTYLE
  7
STANDARD
  9
$CLAYER
  8
0
  9
$CELTYPE
  6
BYLAYER
  9
$CECOLOR
 62
   256
  9
$DIMSCALE
 40
1.0
  9
$DIMASZ
 40
0.1875
  9
$DIMEXO
 40
0.0625
  9
$DIMDLI
 40
0.4443307087
  9
$DIMRND
 40
0.0
  9
$DIMDLE
 40
0.0
  9
$DIMEXE
 40
0.125
  9
$DIMTP
 40
0.01
  9
$DIMTM
 40
0.01
  9
$DIMTXT
 40
2.0
  9
$DIMCEN
 40
0.1052362205
  9
$DIMTSZ
 40
0.0
  9
$DIMTOL
 70
     1
  9
$DIMLIM
 70
     0
  9
$DIMTIH
 70
     1
  9
$DIMTOH
 70
     1
  9
$DIMSE1
 70
     0
  9
$DIMSE2
 70
     0
  9
$DIMTAD
 70
     0
  9
$DIMZIN
 70
     0
  9
$DIMBLK
  1

  9
$DIMASO
 70
     1
  9
$DIMSHO
 70
     1
  9
$DIMPOST
  1
\X
  9
$DIMAPOST
  1

  9
$DIMALT
 70
     1
  9
$DIMALTD
 70
     2
  9
$DIMALTF
 40
25.3999999999999986
  9
$DIMLFAC
 40
1.0
  9
$DIMTOFL
 70
     0
  9
$DIMTVP
 40
0.0
  9
$DIMTIX
 70
     0
  9
$DIMSOXD
 70
     0
  9
$DIMSAH
 70
     0
  9
$DIMBLK1
  1

  9
$DIMBLK2
  1

  9
$DIMSTYLE
  2
STANDARD
  9
$DIMCLRD
 70
     0
  9
$DIMCLRE
 70
     0
  9
$DIMCLRT
 70
     0
  9
$DIMTFAC
 40
1.0
  9
$DIMGAP
 40
0.09
  9
$LUNITS
 70
     2
  9
$LUPREC
 70
     4
  9
$SKETCHINC
 40
0.1
  9
$FILLETRAD
 40
0.0
  9
$AUNITS
 70
     0
  9
$AUPREC
 70
     0
  9
$MENU
  1
.
  9
$ELEVATION
 40
0.0
  9
$PELEVATION
 40
0.0
  9
$THICKNESS
 40
0.0
  9
$LIMCHECK
 70
     0
  9
$BLIPMODE
 70
     0
  9
$CHAMFERA
 40
0.0
  9
$CHAMFERB
 40
0.0
  9
$SKPOLY
 70
     0
  9
$TDCREATE
 40
2458060.468368056230247
  9
$TDUPDATE
 40
2459226.733993056230247
  9
$TDINDWG
 40
0.3463033565
  9
$TDUSRTIMER
 40
0.3463033565
  9
$USRTIMER
 70
     1
  9
$ANGBASE
 50
0.0
  9
$ANGDIR
 70
     0
  9
$PDMODE
 70
     0
  9
$PDSIZE
 40
0.3125
  9
$PLINEWID
 40
0.0
  9
$COORDS
 70
     1
  9
$SPLFRAME
 70
     0
  9
$SPLINETYPE
 70
     6
  9
$SPLINESEGS
 70
     8
  9
$ATTDIA
 70
     1
  9
$ATTREQ
 70
     1
  9
$HANDLING
 70
     1
  9
$HANDSEED
  5
C223
  9
$SURFTAB1
 70
     6
  9
$SURFTAB2
 70
     6
  9
$SURFTYPE
 70
     6
  9
$SURFU
 70
     6
  9
$SURFV
 70
     6
  9
$UCSNAME
  2

  9
$UCSORG
 10
0.0
 20
0.0
 30
0.0
  9
$UCSXDIR
 10
1.0
 20
0.0
 30
0.0
  9
$UCSYDIR
 10
0.0
 20
1.0
 30
0.0
  9
$PUCSNAME
  2

  9
$PUCSORG
 10
0.0
 20
0.0
 30
0.0
  9
$PUCSXDIR
 10
1.0
 20
0.0
 30
0.0
  9
$PUCSYDIR
 10
0.0
 20
1.0
 30
0.0
  9
$USERI1
 70
     0
  9
$USERI2
 70
     0
  9
$USERI3
 70
     0
  9
$USERI4
 70
     0
  9
$USERI5
 70
     0
  9
$USERR1
 40
0.0
  9
$USERR2
 40
0.0
  9
$USERR3
 40
0.0
  9
$USERR4
 40
0.0
  9
$USERR5
 40
0.0
  9
$WORLDVIEW
 70
     1
  9
$SHADEDGE
 70
     3
  9
$SHADEDIF
 70
    70
  9
$TILEMODE
 70
     1
  9
$MAXACTVP
 70
    64
  9
$PLIMCHECK
 70
     0
  9
$PEXTMIN
 10
1.0000000000000000E+20
 20
1.0000000000000000E+20
 30
1.0000000000000000E+20
  9
$PEXTMAX
 10
-1.0000000000000000E+20
 20
-1.0000000000000000E+20
 30
-1.0000000000000000E+20
  9
$PLIMMIN
 10
0.0
 20
0.0
  9
$PLIMMAX
 10
12.0
 20
9.0
  9
$UNITMODE
 70
     0
  9
$VISRETAIN
 70
     1
  9
$PLINEGEN
 70
     0
  9
$PSLTSCALE
 70
     1
  0
ENDSEC
  0
SECTION
  2
TABLES
  0
TABLE
  2
VPORT
 70
     1
  0
VPORT
  2
*ACTIVE
 70
     0
 10
0.0
 20
0.0
 11
1.0
 21
1.0
 12
0.0
 22
0.0
 13
0.0
 23
0.0
 14
1.0
 24
1.0
 15
0.0
 25
0.0
 16
0.0
 26
0.0
 36
68.3500042627305646
 17
4588.897705078125
 27
204.2881927490234091
 37
0.0
 40
24.1285748704536083
 41
2.1186252771618621
 42
50.0
 43
0.0
 44
0.0
 50
0.0
 51
0.0
 71
     0
 72
   100
 73
     1
 74
     1
 75
     0
 76
     0
 77
     0
 78
     0
  0
ENDTAB
  0
TABLE
  2
LTYPE
 70
     2
  0
LTYPE
  2
CONTINUOUS
 70
     0
  3
Solid line
 72
    65
 73
     0
 40
0.0
  0
LTYPE
  2
PHANTOM2
 70
     0
  3
___ _ _ ___ _ _ ___ _ _ ___ _ _
 72
    65
 73
     6
 40
1.25
 49
0.625
 49
-0.125
 49
0.125
 49
-0.125
 49
0.125
 49
-0.125
  0
ENDTAB
  0
TABLE
  2
LAYER
 70
     2
  0
LAYER
  2
0
 70
     0
 62
   255
  6
CONTINUOUS
  0
LAYER
  2
DEFPOINTS
 70
     0
 62
     7
  6
CONTINUOUS
  0
ENDTAB
  0
TABLE
  2
STYLE
 70
     1
  0
STYLE
  2
STANDARD
 70
     0
 40
0.0
 41
0.8
 50
0.0
 71
     0
 42
0.2
  3
txt
  4

  0
ENDTAB
  0
TABLE
  2
VIEW
 70
     0
  0
ENDTAB
  0
TABLE
  2
UCS
 70
     0
  0
ENDTAB
  0
TABLE
  2
APPID
 70
     9
  0
APPID
  2
ACAD
 70
     0
  0
APPID
  2
ACAD_MLEADERVER
 70
     0
  0
APPID
  2
ACAD_EXEMPT_FROM_CAD_STANDARDS
 70
     0
  0
APPID
  2
ACAD_NAV_VCDISPLAY
 70
     0
  0
APPID
  2
ACAECLAYERSTANDARD
 70
     0
  0
APPID
  2
ACCMTRANSPARENCY
 70
     0
  0
APPID
  2
ACAD_DSTYLE_DIMJAG
 70
     0
  0
APPID
  2
ACAD_DSTYLE_DIMTALN
 70
     0
  0
APPID
  2
ACDBATTR
 70
     0
  0
ENDTAB
  0
TABLE
  2
DIMSTYLE
 70
     1
  0
DIMSTYLE
  2
STANDARD
 70
     0
  3

  4

  5

  6

  7

 40
1.0
 41
0.1875
 42
0.0625
 43
0.38
 44
0.125
 45
0.0
 46
0.0
 47
0.01
 48
0.01
140
0.15625
141
0.09
142
0.0
143
25.3999999999999986
144
1.0
145
0.0
146
1.0
147
0.09
 71
     1
 72
     0
 73
     1
 74
     1
 75
     0
 76
     0
 77
     0
 78
     4
170
     0
171
     2
172
     0
173
     0
174
     0
175
     0
176
     0
177
     0
178
     0
  0
ENDTAB
  0
ENDSEC
  0
SECTION
  2
BLOCKS
  0
BLOCK
  8
0
  2
$MODEL_SPACE
 70
     0
 10
0.0
 20
0.0
 30
0.0
  3
$MODEL_SPACE
  1

  0
ENDBLK
  5
21
  8
0
  0
BLOCK
 67
     1
  8
0
  2
$PAPER_SPACE
 70
     0
 10
0.0
 20
0.0
 30
0.0
  3
$PAPER_SPACE
  1

  0
ENDBLK
  5
1D
 67
     1
  8
0
  0
ENDSEC
  0
SECTION
  2
ENTITIES
  0
ATTDEF
  5
3930
  8
DEFPOINTS
 10
4588.8929218102712184
 20
207.2546028056000011
 30
0.0
 40
0.001
  1
24738
  3

  2
MODELNUMBER
 70
     0
1001
ACDBATTR
1070
     0
1070
     1
  0
ATTDEF
  5
3931
  8
DEFPOINTS
 10
4588.8929218102712184
 20
207.2529361389333928
 30
0.0
 40
0.001
  1
MCALLISTER
  3

  2
TRADENAME
 70
     0
1001
ACDBATTR
1070
     0
1070
     1
  0
ATTDEF
  5
3932
  8
DEFPOINTS
 10
4588.8929218102712184
 20
207.2512694722666993
 30
0.0
 40
0.001
  1
KITCHEN SINK
  3

  2
PRODUCT
 70
     0
1001
ACDBATTR
1070
     0
1070
     1
  0
LINE
  5
C140
  8
0
 10
4577.2076761339367295
 20
207.2085381140321942
 30
0.0
 11
4577.2076761339367295
 21
207.2565381140321961
 31
0.0
  0
LINE
  5
C141
  8
0
 10
4577.2076761339367295
 20
207.2565381140321961
 30
0.0
 11
4600.5876761339368386
 21
207.2565381140321961
 31
0.0
  0
LINE
  5
C142
  8
0
 10
4600.5876761339368386
 20
207.2565381140321961
 30
0.0
 11
4600.5876761339368386
 21
207.2085381140321942
 31
0.0
  0
LINE
  5
C143
  8
0
 10
4600.5876761339368386
 20
207.2085381140321942
 30
0.0
 11
4577.2076761339367295
 21
207.2085381140321942
 31
0.0
  0
ARC
  5
C144
  8
0
 10
4578.1406535309452011
 20
206.9765381140526017
 30
0.0
 40
0.2319999999796224
 50
4.8999985656980547
 51
89.9999775697342272
  0
LINE
  5
C145
  8
0
 10
4578.3718056401366994
 20
206.9963548344321964
 30
0.0
 11
4578.6992720716389158
 21
203.1766254228724904
 31
0.0
  0
ARC
  5
C146
  8
0
 10
4580.246043585829284
 20
203.3133187065934919
 30
0.0
 40
1.552799784558371
 50
185.0502963329865054
 51
268.2570762631655157
  0
LINE
  5
C147
  8
0
 10
4580.198815077137624
 20
201.7612373173321885
 30
0.0
 11
4586.5170102134443368
 21
201.5796230051045939
 31
0.0
  0
ARC
  5
C148
  8
0
 10
4586.5160899088286897
 20
201.5476210213745958
 30
0.0
 40
0.0320152139340671
 50
36.0485217031618177
 51
88.3527570641477382
  0
LINE
  5
C149
  8
0
 10
4586.5419748153562978
 20
201.5664610197092088
 30
0.0
 11
4586.593128204461209
 21
201.4961826940134983
 31
0.0
  0
ARC
  5
C14A
  8
0
 10
4586.6562096193192701
 20
201.5420600867132919
 30
0.0
 40
0.0780000003943531
 50
216.0273734298002068
 51
251.9999998454655099
  0
LINE
  5
C14B
  8
0
 10
4586.6321062935639929
 20
201.4678776781321972
 30
0.0
 11
4587.0876761339359291
 21
201.3198540639322118
 31
0.0
  0
ARC
  5
C14C
  8
0
 10
4599.6546987369292765
 20
206.9765381140526017
 30
0.0
 40
0.2319999999796224
 50
90.0000224302657585
 51
175.1000014343019018
  0
LINE
  5
C14D
  8
0
 10
4599.4235466277359592
 20
206.9963548344321964
 30
0.0
 11
4599.0960801962346522
 21
203.1766254228724904
 31
0.0
  0
ARC
  5
C14E
  8
0
 10
4597.5493086820451936
 20
203.3133187065934919
 30
0.0
 40
1.552799784558371
 50
271.7429237368344843
 51
354.949703667013523
  0
LINE
  5
C14F
  8
0
 10
4597.5965371907368535
 20
201.7612373173321885
 30
0.0
 11
4591.2783420544301407
 21
201.5796230051045939
 31
0.0
  0
ARC
  5
C150
  8
0
 10
4591.2792623590448784
 20
201.5476210213745958
 30
0.0
 40
0.0320152139340671
 50
91.6472429358522618
 51
143.9514782968381894
  0
LINE
  5
C151
  8
0
 10
4591.2533774525172703
 20
201.5664610197092088
 30
0.0
 11
4591.2022240634123591
 21
201.4961826940134983
 31
0.0
  0
ARC
  5
C152
  8
0
 10
4591.1391426485542979
 20
201.5420600867132919
 30
0.0
 40
0.0780000003943531
 50
288.0000001545344048
 51
323.9726265701997932
  0
LINE
  5
C153
  8
0
 10
4591.1632459743095751
 20
201.4678776781321972
 30
0.0
 11
4590.7076761339367295
 21
201.3198540639322118
 31
0.0
  0
LINE
  5
C154
  8
0
 10
4587.0876761339359291
 20
201.3198540639322118
 30
0.0
 11
4590.7076761339367295
 21
201.3198540639322118
 31
0.0
  0
LINE
  5
C155
  8
0
 10
4586.5170102134443368
 20
201.5796230051045939
 30
0.0
 11
4591.2783420544301407
 21
201.5796230051045939
 31
0.0
  0
ENDSEC
  0
EOF
