  0
SECTION
  2
HEADER
  9
$ACADVER
  1
AC1009
  9
$INSBASE
 10
4347.463537511776849
 20
178.6214463960085936
 30
0.0
  9
$EXTMIN
 10
4346.4005453857780594
 20
178.6163050475591945
 30
0.0
  9
$EXTMAX
 10
4348.526529637776548
 20
185.5971012963084092
 30
0.0
  9
$LIMMIN
 10
0.0
 20
0.0
  9
$LIMMAX
 10
11.6929133858000007
 20
8.2677165353999982
  9
$ORTHOMODE
 70
     1
  9
$REGENMODE
 70
     1
  9
$FILLMODE
 70
     1
  9
$QTEXTMODE
 70
     0
  9
$MIRRTEXT
 70
     0
  9
$DRAGMODE
 70
     2
  9
$LTSCALE
 40
0.6431102362
  9
$OSMODE
 70
  4095
  9
$ATTMODE
 70
     1
  9
$TEXTSIZE
 40
0.2
  9
$TRACEWID
 40
0.05
  9
$TEXTSTYLE
  7
STANDARD
  9
$CLAYER
  8
0
  9
$CELTYPE
  6
BYLAYER
  9
$CECOLOR
 62
   256
  9
$DIMSCALE
 40
1.0
  9
$DIMASZ
 40
0.1875
  9
$DIMEXO
 40
0.0625
  9
$DIMDLI
 40
0.4443307087
  9
$DIMRND
 40
0.0
  9
$DIMDLE
 40
0.0
  9
$DIMEXE
 40
0.125
  9
$DIMTP
 40
0.01
  9
$DIMTM
 40
0.01
  9
$DIMTXT
 40
2.0
  9
$DIMCEN
 40
0.1052362205
  9
$DIMTSZ
 40
0.0
  9
$DIMTOL
 70
     1
  9
$DIMLIM
 70
     0
  9
$DIMTIH
 70
     1
  9
$DIMTOH
 70
     1
  9
$DIMSE1
 70
     0
  9
$DIMSE2
 70
     0
  9
$DIMTAD
 70
     0
  9
$DIMZIN
 70
     0
  9
$DIMBLK
  1

  9
$DIMASO
 70
     1
  9
$DIMSHO
 70
     1
  9
$DIMPOST
  1
\X
  9
$DIMAPOST
  1

  9
$DIMALT
 70
     1
  9
$DIMALTD
 70
     2
  9
$DIMALTF
 40
25.3999999999999986
  9
$DIMLFAC
 40
1.0
  9
$DIMTOFL
 70
     0
  9
$DIMTVP
 40
0.0
  9
$DIMTIX
 70
     0
  9
$DIMSOXD
 70
     0
  9
$DIMSAH
 70
     0
  9
$DIMBLK1
  1

  9
$DIMBLK2
  1

  9
$DIMSTYLE
  2
STANDARD
  9
$DIMCLRD
 70
     0
  9
$DIMCLRE
 70
     0
  9
$DIMCLRT
 70
     0
  9
$DIMTFAC
 40
1.0
  9
$DIMGAP
 40
0.09
  9
$LUNITS
 70
     2
  9
$LUPREC
 70
     4
  9
$SKETCHINC
 40
0.1
  9
$FILLETRAD
 40
0.0
  9
$AUNITS
 70
     0
  9
$AUPREC
 70
     0
  9
$MENU
  1
.
  9
$ELEVATION
 40
0.0
  9
$PELEVATION
 40
0.0
  9
$THICKNESS
 40
0.0
  9
$LIMCHECK
 70
     0
  9
$BLIPMODE
 70
     0
  9
$CHAMFERA
 40
0.0
  9
$CHAMFERB
 40
0.0
  9
$SKPOLY
 70
     0
  9
$TDCREATE
 40
2458060.468368056230247
  9
$TDUPDATE
 40
2459124.7444560187868774
  9
$TDINDWG
 40
0.330608912
  9
$TDUSRTIMER
 40
0.330608912
  9
$USRTIMER
 70
     1
  9
$ANGBASE
 50
0.0
  9
$ANGDIR
 70
     0
  9
$PDMODE
 70
     0
  9
$PDSIZE
 40
0.3125
  9
$PLINEWID
 40
0.0
  9
$COORDS
 70
     1
  9
$SPLFRAME
 70
     0
  9
$SPLINETYPE
 70
     6
  9
$SPLINESEGS
 70
     8
  9
$ATTDIA
 70
     1
  9
$ATTREQ
 70
     1
  9
$HANDLING
 70
     1
  9
$HANDSEED
  5
B5F3
  9
$SURFTAB1
 70
     6
  9
$SURFTAB2
 70
     6
  9
$SURFTYPE
 70
     6
  9
$SURFU
 70
     6
  9
$SURFV
 70
     6
  9
$UCSNAME
  2

  9
$UCSORG
 10
0.0
 20
0.0
 30
0.0
  9
$UCSXDIR
 10
1.0
 20
0.0
 30
0.0
  9
$UCSYDIR
 10
0.0
 20
1.0
 30
0.0
  9
$PUCSNAME
  2

  9
$PUCSORG
 10
0.0
 20
0.0
 30
0.0
  9
$PUCSXDIR
 10
1.0
 20
0.0
 30
0.0
  9
$PUCSYDIR
 10
0.0
 20
1.0
 30
0.0
  9
$USERI1
 70
     0
  9
$USERI2
 70
     0
  9
$USERI3
 70
     0
  9
$USERI4
 70
     0
  9
$USERI5
 70
     0
  9
$USERR1
 40
0.0
  9
$USERR2
 40
0.0
  9
$USERR3
 40
0.0
  9
$USERR4
 40
0.0
  9
$USERR5
 40
0.0
  9
$WORLDVIEW
 70
     1
  9
$SHADEDGE
 70
     3
  9
$SHADEDIF
 70
    70
  9
$TILEMODE
 70
     1
  9
$MAXACTVP
 70
    64
  9
$PLIMCHECK
 70
     0
  9
$PEXTMIN
 10
1.0000000000000000E+20
 20
1.0000000000000000E+20
 30
1.0000000000000000E+20
  9
$PEXTMAX
 10
-1.0000000000000000E+20
 20
-1.0000000000000000E+20
 30
-1.0000000000000000E+20
  9
$PLIMMIN
 10
0.0
 20
0.0
  9
$PLIMMAX
 10
12.0
 20
9.0
  9
$UNITMODE
 70
     0
  9
$VISRETAIN
 70
     1
  9
$PLINEGEN
 70
     0
  9
$PSLTSCALE
 70
     1
  0
ENDSEC
  0
SECTION
  2
TABLES
  0
TABLE
  2
VPORT
 70
     1
  0
VPORT
  2
*ACTIVE
 70
     0
 10
0.0
 20
0.0
 11
1.0
 21
1.0
 12
0.0
 22
0.0
 13
0.0
 23
0.0
 14
1.0
 24
1.0
 15
0.0
 25
0.0
 16
0.0
 26
0.0
 36
20.6768813967610186
 17
4347.46337890625
 27
182.1067059905765007
 37
0.0
 40
7.297457009014491
 41
2.1186252771618621
 42
50.0
 43
0.0
 44
0.0
 50
0.0
 51
0.0
 71
     0
 72
   100
 73
     1
 74
     1
 75
     0
 76
     0
 77
     0
 78
     0
  0
ENDTAB
  0
TABLE
  2
LTYPE
 70
     2
  0
LTYPE
  2
CONTINUOUS
 70
     0
  3
Solid line
 72
    65
 73
     0
 40
0.0
  0
LTYPE
  2
PHANTOM2
 70
     0
  3
___ _ _ ___ _ _ ___ _ _ ___ _ _
 72
    65
 73
     6
 40
1.25
 49
0.625
 49
-0.125
 49
0.125
 49
-0.125
 49
0.125
 49
-0.125
  0
ENDTAB
  0
TABLE
  2
LAYER
 70
     2
  0
LAYER
  2
0
 70
     0
 62
   255
  6
CONTINUOUS
  0
LAYER
  2
DEFPOINTS
 70
     0
 62
     7
  6
CONTINUOUS
  0
ENDTAB
  0
TABLE
  2
STYLE
 70
     1
  0
STYLE
  2
STANDARD
 70
     0
 40
0.0
 41
0.8
 50
0.0
 71
     0
 42
0.2
  3
txt
  4

  0
ENDTAB
  0
TABLE
  2
VIEW
 70
     0
  0
ENDTAB
  0
TABLE
  2
UCS
 70
     0
  0
ENDTAB
  0
TABLE
  2
APPID
 70
     9
  0
APPID
  2
ACAD
 70
     0
  0
APPID
  2
ACAD_MLEADERVER
 70
     0
  0
APPID
  2
ACAD_EXEMPT_FROM_CAD_STANDARDS
 70
     0
  0
APPID
  2
ACAD_NAV_VCDISPLAY
 70
     0
  0
APPID
  2
ACAECLAYERSTANDARD
 70
     0
  0
APPID
  2
ACCMTRANSPARENCY
 70
     0
  0
APPID
  2
ACAD_DSTYLE_DIMJAG
 70
     0
  0
APPID
  2
ACAD_DSTYLE_DIMTALN
 70
     0
  0
APPID
  2
ACDBATTR
 70
     0
  0
ENDTAB
  0
TABLE
  2
DIMSTYLE
 70
     1
  0
DIMSTYLE
  2
STANDARD
 70
     0
  3

  4

  5

  6

  7

 40
1.0
 41
0.1875
 42
0.0625
 43
0.38
 44
0.125
 45
0.0
 46
0.0
 47
0.01
 48
0.01
140
0.15625
141
0.09
142
0.0
143
25.3999999999999986
144
1.0
145
0.0
146
1.0
147
0.09
 71
     1
 72
     0
 73
     1
 74
     1
 75
     0
 76
     0
 77
     0
 78
     4
170
     0
171
     2
172
     0
173
     0
174
     0
175
     0
176
     0
177
     0
178
     0
  0
ENDTAB
  0
ENDSEC
  0
SECTION
  2
BLOCKS
  0
BLOCK
  8
0
  2
$MODEL_SPACE
 70
     0
 10
0.0
 20
0.0
 30
0.0
  3
$MODEL_SPACE
  1

  0
ENDBLK
  5
21
  8
0
  0
BLOCK
 67
     1
  8
0
  2
$PAPER_SPACE
 70
     0
 10
0.0
 20
0.0
 30
0.0
  3
$PAPER_SPACE
  1

  0
ENDBLK
  5
1D
 67
     1
  8
0
  0
ENDSEC
  0
SECTION
  2
ENTITIES
  0
ATTDEF
  5
3930
  8
DEFPOINTS
 10
4347.458390865354886
 20
178.6196383808924963
 30
0.0
 40
0.001
  1
24279
  3

  2
MODELNUMBER
 70
     0
1001
ACDBATTR
1070
     0
1070
     1
  0
ATTDEF
  5
3931
  8
DEFPOINTS
 10
4347.458390865354886
 20
178.617971714225888
 30
0.0
 40
0.001
  1
VALTON
  3

  2
TRADENAME
 70
     0
1001
ACDBATTR
1070
     0
1070
     1
  0
ATTDEF
  5
3932
  8
DEFPOINTS
 10
4347.458390865354886
 20
178.6163050475591945
 30
0.0
 40
0.001
  1
KITCHEN SINK FAUCET
  3

  2
PRODUCT
 70
     0
1001
ACDBATTR
1070
     0
1070
     1
  0
LINE
  5
B2F6
  8
0
 10
4346.4005453857780594
 20
178.6214463960085936
 30
0.0
 11
4346.4005453857780594
 21
178.8379818290086121
 31
0.0
  0
LINE
  5
B2F7
  8
0
 10
4346.4792855432779106
 20
181.963966081008607
 30
0.0
 11
4346.4792855432779106
 21
183.4111777817086022
 31
0.0
  0
LINE
  5
B2F8
  8
0
 10
4346.4989705826774298
 20
178.873414899908596
 30
0.0
 11
4346.4989705826774298
 21
180.7001865534085994
 31
0.0
  0
LINE
  5
B2F9
  8
0
 10
4346.4989705826774298
 20
180.7119975771086047
 30
0.0
 11
4346.4989705826774298
 21
181.8852259235086137
 31
0.0
  0
LINE
  5
B2FA
  8
0
 10
4346.5048760944782771
 20
181.8964917421085943
 30
0.0
 11
4346.5048760944782771
 21
181.8852259235086137
 31
0.0
  0
LINE
  5
B2FB
  8
0
 10
4346.5324351495783048
 20
180.7080605692086124
 30
0.0
 11
4346.5324351495783048
 21
180.7119975771086047
 31
0.0
  0
LINE
  5
B2FC
  8
0
 10
4346.5480697881775995
 20
178.873414899908596
 30
0.0
 11
4346.5480415475767586
 21
178.8679707942085884
 31
0.0
  0
LINE
  5
B2FD
  8
0
 10
4347.113265978077834
 20
184.5318162789085932
 30
0.0
 11
4347.1128111964781056
 21
184.5576170594086136
 31
0.0
  0
LINE
  5
B2FE
  8
0
 10
4347.1483269619766361
 20
178.873414899908596
 30
0.0
 11
4347.1483376473779572
 21
178.8679707942085884
 31
0.0
  0
LINE
  5
B2FF
  8
0
 10
4346.9940493227777552
 20
184.5516334570085917
 30
0.0
 11
4346.9940493227777552
 21
184.859316558408608
 31
0.0
  0
LINE
  5
B300
  8
0
 10
4347.282240009078123
 20
184.7327647610086103
 30
0.0
 11
4347.282240009078123
 21
184.6119052723086043
 31
0.0
  0
LINE
  5
B301
  8
0
 10
4346.9123564093779351
 20
179.5666193554085908
 30
0.0
 11
4346.9123564093779351
 21
185.1897448136085984
 31
0.0
  0
LINE
  5
B302
  8
0
 10
4347.0784331794766331
 20
178.873414899908596
 30
0.0
 11
4347.0784012279782473
 21
178.8679707942085884
 31
0.0
  0
LINE
  5
B303
  8
0
 10
4346.5580257007777618
 20
178.857666868408586
 30
0.0
 11
4346.5422776692776097
 21
178.873414899908596
 31
0.0
  0
LINE
  5
B304
  8
0
 10
4347.4595929978777349
 20
184.5297895113085929
 30
0.0
 11
4347.4594547963233708
 21
184.5332161774086046
 31
0.0
  0
LINE
  5
B305
  8
0
 10
4347.4370761272766686
 20
184.551642497708599
 30
0.0
 11
4347.4369447594135636
 21
184.5550784085679936
 31
0.0
  0
LINE
  5
B306
  8
0
 10
4347.4037531512776695
 20
184.5048015023085952
 30
0.0
 11
4347.4135394920331237
 21
184.5116487154739104
 31
0.0
  0
LINE
  5
B307
  8
0
 10
4347.3430040892772013
 20
184.5068602177086063
 30
0.0
 11
4347.3621908788109067
 21
184.5133068559094909
 31
0.0
  0
LINE
  5
B308
  8
0
 10
4346.4005453857780594
 20
178.6214463960085936
 30
0.0
 11
4348.526529637776548
 21
178.6214463960085936
 31
0.0
  0
LINE
  5
B309
  8
0
 10
4348.5068445983779384
 20
178.857666868408586
 30
0.0
 11
4346.4202304251766691
 21
178.857666868408586
 31
0.0
  0
LINE
  5
B30A
  8
0
 10
4347.4393382690777798
 20
178.8679707942085884
 30
0.0
 11
4347.1483376473779572
 21
178.8679707942085884
 31
0.0
  0
LINE
  5
B30B
  8
0
 10
4347.0784012279782473
 20
178.8679707942085884
 30
0.0
 11
4346.8332955559781112
 21
178.8679707942085884
 31
0.0
  0
LINE
  5
B30C
  8
0
 10
4346.7990726587777317
 20
178.8679707942085884
 30
0.0
 11
4346.5480415475767586
 21
178.8679707942085884
 31
0.0
  0
LINE
  5
B30D
  8
0
 10
4346.4989705826774298
 20
178.873414899908596
 30
0.0
 11
4348.4281044408780872
 21
178.873414899908596
 31
0.0
  0
LINE
  5
B30E
  8
0
 10
4346.9123564093779351
 20
180.7001865534085994
 30
0.0
 11
4346.4989705826774298
 21
180.7001865534085994
 31
0.0
  0
LINE
  5
B30F
  8
0
 10
4346.5324351495783048
 20
180.7080605692086124
 30
0.0
 11
4346.9123564093779351
 21
180.7080605692086124
 31
0.0
  0
LINE
  5
B310
  8
0
 10
4346.4989705826774298
 20
180.7119975771086047
 30
0.0
 11
4346.9123564093779351
 21
180.7119975771086047
 31
0.0
  0
LINE
  5
B311
  8
0
 10
4346.9123564093779351
 20
181.8852259235086137
 30
0.0
 11
4346.4989705826774298
 21
181.8852259235086137
 31
0.0
  0
LINE
  5
B312
  8
0
 10
4346.9123564093779351
 20
181.9039208360771056
 30
0.0
 11
4346.5063310164769064
 21
181.9039189628086035
 31
0.0
  0
LINE
  5
B313
  8
0
 10
4346.4792855432779106
 20
181.963966081008607
 30
0.0
 11
4346.9123564093779351
 21
181.963966081008607
 31
0.0
  0
LINE
  5
B314
  8
0
 10
4347.4186328497780778
 20
184.5924118064085917
 30
0.0
 11
4347.5084421737774392
 21
184.5924118064085917
 31
0.0
  0
LINE
  5
B315
  8
0
 10
4347.2388182984768719
 20
184.5163117324086102
 30
0.0
 11
4347.2768359377032539
 21
184.5216027651156878
 31
0.0
  0
LINE
  5
B316
  8
0
 10
4347.1989376759765946
 20
184.5230115620086053
 30
0.0
 11
4347.2406967753631761
 21
184.5268948447424009
 31
0.0
  0
LINE
  5
B317
  8
0
 10
4347.1692743342782705
 20
184.5306700271086129
 30
0.0
 11
4347.216967195477082
 21
184.5334193959085951
 31
0.0
  0
LINE
  5
B318
  8
0
 10
4347.2874273725774401
 20
184.5108415173085916
 30
0.0
 11
4347.3163952524782871
 21
184.5168751577641899
 31
0.0
  0
ARC
  5
B319
  8
0
 10
4344.7062507497303159
 20
176.9591440698663973
 30
0.0
 40
2.652510660980258
 50
46.0239558484005968
 51
46.1935755417297571
  0
ARC
  5
B31A
  8
0
 10
4347.3085134239699983
 20
181.5772619003834905
 30
0.0
 40
0.8661417039512491
 50
153.4827283279354901
 51
157.8433330422037955
  0
ARC
  5
B31B
  8
0
 10
4346.4213757935876856
 20
178.8368364605977945
 30
0.0
 40
0.0208618733185823
 50
93.1472623917186553
 51
176.8527376082753904
  0
ARC
  5
B31C
  8
0
 10
4346.6092090814090625
 20
180.6962567182451949
 30
0.0
 40
0.0118038511832226
 50
19.4466032175948698
 51
90.0110589979560558
  0
ARC
  5
B31D
  8
0
 10
4346.5245611417522014
 20
181.8964917413445903
 30
0.0
 40
0.0196850472744084
 50
157.8332946263305985
 51
179.999997776328712
  0
ARC
  5
B31E
  8
0
 10
4347.4629665425645726
 20
178.8357108377315114
 30
0.0
 40
0.0399874992655837
 50
109.4562290499178943
 51
126.2202974184529012
  0
LINE
  5
B31F
  8
0
 10
4347.1483376473779572
 20
178.8679707942085884
 30
0.0
 11
4347.141791835976619
 21
178.857666868408586
 31
0.0
  0
LINE
  5
B320
  8
0
 10
4347.0784012279782473
 20
178.8679707942085884
 30
0.0
 11
4347.0925348413784377
 21
178.857666868408586
 31
0.0
  0
LINE
  5
B321
  8
0
 10
4346.7990726587777317
 20
178.8679707942085884
 30
0.0
 11
4346.802355583766257
 21
178.873414899908596
 31
0.0
  0
LINE
  5
B322
  8
0
 10
4346.8332955559781112
 20
178.8679707942085884
 30
0.0
 11
4346.8220018350775717
 21
178.873414899908596
 31
0.0
  0
ARC
  5
B323
  8
0
 10
4347.5227274726394171
 20
177.9465485612782913
 30
0.0
 40
1.509420474957569
 50
92.2473556943032662
 51
105.9000400824641019
  0
ARC
  5
B324
  8
0
 10
4347.1785286561580506
 20
179.5786154973422981
 30
0.0
 40
0.2664424372677654
 50
182.5805225957865048
 51
215.8050907238101956
  0
ARC
  5
B325
  8
0
 10
4347.0554601782132522
 20
179.52802214841509
 30
0.0
 40
0.1404892184996939
 50
228.5389107873753005
 51
292.4928174325631858
  0
ARC
  5
B326
  8
0
 10
4347.1566658906940575
 20
185.1819430717033867
 30
0.0
 40
0.2444340193956415
 50
146.3170961883753876
 51
178.1709468402634968
  0
ARC
  5
B327
  8
0
 10
4347.4687296955680722
 20
184.9831663765097005
 30
0.0
 40
0.6143970277289207
 50
111.831988252650703
 51
147.0317669681556936
  0
ARC
  5
B328
  8
0
 10
4347.4992847455705487
 20
184.8204940294297103
 30
0.0
 40
0.777429554167189
 50
92.6354645706724682
 51
109.4632171623856038
  0
ARC
  5
B329
  8
0
 10
4346.6354804267466534
 20
183.4088057427265142
 30
0.0
 40
0.1562128938049688
 50
151.9113407139965091
 51
179.1299498873447078
  0
ARC
  5
B32A
  8
0
 10
3655.8470739577642235
 20
521.1079269487429428
 30
0.0
 40
768.758262671276043
 50
333.9482342073981727
 51
334.0186966565398734
  0
ARC
  5
B32B
  8
0
 10
4347.0045392928832371
 20
184.8516392070459915
 30
0.0
 40
0.0251785506842923
 50
205.5322056014925067
 51
245.3784168404650075
  0
ARC
  5
B32C
  8
0
 10
4346.9914084729507522
 20
184.8440838640912034
 30
0.0
 40
0.0101398809718365
 50
145.364745947618303
 51
198.9752158272129066
  0
ARC
  5
B32D
  8
0
 10
4347.0086292199766831
 20
184.8313006098144911
 30
0.0
 40
0.0315826974463903
 50
117.4931086778143055
 51
144.0394275158363939
  0
ARC
  5
B32E
  8
0
 10
4347.3282591298602711
 20
183.708594195097902
 30
0.0
 40
1.1982729875005631
 50
93.069923332271344
 51
106.1951353934629054
  0
ARC
  5
B32F
  8
0
 10
4347.5257415906908136
 20
179.5331481773928033
 30
0.0
 40
5.3783678796503178
 50
90.6626751331835976
 51
92.7885184177440721
  0
ARC
  5
B330
  8
0
 10
4347.0632781029498801
 20
185.136044655468595
 30
0.0
 40
0.3392737132956864
 50
249.3091505152951015
 51
258.2261110168641949
  0
ARC
  5
B331
  8
0
 10
4346.9642308250677161
 20
184.8831118303968992
 30
0.0
 40
0.0677390127861331
 50
223.2188822558711081
 51
252.0940239438363051
  0
ARC
  5
B332
  8
0
 10
4346.9252834516846633
 20
184.8443878883574882
 30
0.0
 40
0.0129318459129588
 50
181.5617246620367098
 51
216.3387715458759999
  0
ARC
  5
B333
  8
0
 10
4346.928684849869569
 20
184.842512081598187
 30
0.0
 40
0.016399347755041
 50
132.0536795409365993
 51
174.6700109986196026
  0
ARC
  5
B334
  8
0
 10
4346.9815281176206554
 20
184.7745741411679035
 30
0.0
 40
0.1024323394852475
 50
106.0731441949662042
 51
128.5445812364974927
  0
ARC
  5
B335
  8
0
 10
4347.2726361588929649
 20
183.6386459446536037
 30
0.0
 40
1.275027589101098
 50
92.8417429943968955
 51
104.5105126122367949
  0
ARC
  5
B336
  8
0
 10
4347.5336506632393139
 20
179.1169979821636957
 30
0.0
 40
5.8041705383084539
 50
90.6921377216293507
 51
93.2022697682329664
  0
ARC
  5
B337
  8
0
 10
4347.4879957629018463
 20
180.6178308298360093
 30
0.0
 40
4.1200748401148308
 50
90.340130422131864
 51
92.8625310237408144
  0
ARC
  5
B338
  8
0
 10
4347.4732977872517949
 20
185.4618009288602991
 30
0.0
 40
0.871106022035439
 50
257.3304447390544851
 51
266.4021261950886128
  0
ARC
  5
B339
  8
0
 10
4347.381394605146852
 20
182.7471671429962896
 30
0.0
 40
1.867372465479938
 50
93.043748894845379
 51
98.1022335475398535
  0
ARC
  5
B33A
  8
0
 10
4347.1707035575591362
 20
184.1573933468563951
 30
0.0
 40
0.4416375810877367
 50
96.8267142481496137
 51
111.0577821316417015
  0
ARC
  5
B33B
  8
0
 10
4347.0202569400926222
 20
184.5432998579879893
 30
0.0
 40
0.0275006923188633
 50
107.4306382281243941
 51
162.3601764095718067
  0
ARC
  5
B33C
  8
0
 10
4347.0095872998490449
 20
184.5535020407257036
 30
0.0
 40
0.0156499308811229
 50
186.8574096655497954
 51
237.1212412270456866
  0
ARC
  5
B33D
  8
0
 10
4347.4475481106037478
 20
185.2741939995229075
 30
0.0
 40
0.8589746423812441
 50
238.6841643069649024
 51
241.7699393669888082
  0
ARC
  5
B33E
  8
0
 10
4347.1475861750368495
 20
184.7475027245382933
 30
0.0
 40
0.2534977181384625
 50
245.1964739838041112
 51
261.2919744234404789
  0
ARC
  5
B33F
  8
0
 10
4347.3652460496332424
 20
185.9515570695851068
 30
0.0
 40
1.476991634768384
 50
260.0172392249468771
 51
267.3854669507074959
  0
ARC
  5
B340
  8
0
 10
4347.4609414391652535
 20
187.6129127853039904
 30
0.0
 40
3.1410456824219541
 50
267.0240969180176194
 51
270.0473549371769764
  0
ARC
  5
B341
  8
0
 10
4347.1346457492509217
 20
184.532805428809894
 30
0.0
 40
0.0214026407938043
 50
182.6489399160803941
 51
229.560890157070105
  0
ARC
  5
B342
  8
0
 10
4347.1706781392058474
 20
184.5802217212626033
 30
0.0
 40
0.0809316310140854
 50
231.9204459056917926
 51
254.9939733650890901
  0
ARC
  5
B343
  8
0
 10
4347.2498725639406985
 20
184.828115162581895
 30
0.0
 40
0.3410987972599009
 50
252.9259214620082048
 51
262.756212049942917
  0
ARC
  5
B344
  8
0
 10
4347.3927698955149026
 20
185.6827861999954905
 30
0.0
 40
1.2074450263156891
 50
261.1430963233312923
 51
267.3095651365073877
  0
ARC
  5
B345
  8
0
 10
4347.4916827796014331
 20
187.8704159587205993
 30
0.0
 40
3.3973085749455758
 50
267.3750489824483907
 51
269.5253232165505892
  0
ARC
  5
B346
  8
0
 10
4347.2689375533782368
 20
183.9301704621740896
 30
0.0
 40
0.6465792075996815
 50
97.1477832625857616
 51
103.9730318948561063
  0
ARC
  5
B347
  8
0
 10
4347.4151845821115785
 20
182.7788491836234925
 30
0.0
 40
1.8071513301950879
 50
92.5344138092130635
 51
97.2065231840498569
  0
ARC
  5
B348
  8
0
 10
4347.5968844237149824
 20
176.0709965133534922
 30
0.0
 40
8.5172550160129799
 50
90.8970645360335965
 51
91.7601407702750578
  0
ARC
  5
B349
  8
0
 10
4347.1421931112727179
 20
184.42848503896019
 30
0.0
 40
0.1324325323405712
 50
102.8184954650602947
 51
120.2583208475781049
  0
ARC
  5
B34A
  8
0
 10
4347.0841596199097694
 20
184.5281718383562861
 30
0.0
 40
0.0170841094337836
 50
120.610388416869398
 51
160.227544774198094
  0
ARC
  5
B34B
  8
0
 10
4347.0758903113000997
 20
184.5321091280148948
 30
0.0
 40
0.0080219299922734
 50
166.7251362904439986
 51
208.7002977825783034
  0
ARC
  5
B34C
  8
0
 10
4347.1070901031107496
 20
184.5611403644703898
 30
0.0
 40
0.050431496778142
 50
220.6959446425013027
 51
255.2320976859645896
  0
ARC
  5
B34D
  8
0
 10
4347.216000308004368
 20
184.8814873381238897
 30
0.0
 40
0.3886783696178612
 50
251.7429525616138051
 51
264.3936255413628942
  0
ARC
  5
B34E
  8
0
 10
4347.1239250104263192
 20
184.5308947964007018
 30
0.0
 40
0.0106987896798775
 50
129.3697737922896067
 51
175.0590154089013026
  0
ARC
  5
B34F
  8
0
 10
4347.1751489896296334
 20
184.4534181132505068
 30
0.0
 40
0.1035271040867043
 50
101.6873767051744011
 51
124.0793727807184013
  0
ARC
  5
B350
  8
0
 10
4347.3431688784276048
 20
183.7159417898282072
 30
0.0
 40
0.8598831010321566
 50
93.9744993418535586
 51
102.6965506328830031
  0
ARC
  5
B351
  8
0
 10
4347.5222573781757092
 20
180.7140421748588039
 30
0.0
 40
3.8670880557711649
 50
90.8700422052016563
 51
93.538729437638068
  0
ARC
  5
B352
  8
0
 10
4347.669584825606762
 20
196.3695924939447082
 30
0.0
 40
11.89531523640232
 50
268.5470792157839242
 51
269.0074889423030982
  0
ARC
  5
B353
  8
0
 10
4347.4290182597051171
 20
185.9954334555966966
 30
0.0
 40
1.5185593147753531
 50
263.3395411584741055
 51
267.6961108468390194
  0
ARC
  5
B354
  8
0
 10
4347.3069134729430516
 20
184.9953972005849892
 30
0.0
 40
0.5111374013940987
 50
254.9261187815756955
 51
263.9326658411520157
  0
ARC
  5
B355
  8
0
 10
4347.1939894337647274
 20
184.5795414464932946
 30
0.0
 40
0.0802281195640277
 50
235.9794682361473122
 51
255.561168154809792
  0
ARC
  5
B356
  8
0
 10
4347.1552957748072004
 20
184.5220428512837998
 30
0.0
 40
0.0109228853116163
 50
196.5691963632835098
 51
235.4593989489852959
  0
ARC
  5
B357
  8
0
 10
4347.1516018788406654
 20
184.5204476543866008
 30
0.0
 40
0.006943771239182
 50
142.578226279130007
 51
192.6421051376366904
  0
ARC
  5
B358
  8
0
 10
4347.1797109826857195
 20
184.4907486816190101
 30
0.0
 40
0.0477600603997404
 50
104.9455471654089962
 51
134.7499127339160054
  0
ARC
  5
B359
  8
0
 10
4347.3029841901543477
 20
184.0752316580525019
 30
0.0
 40
0.4811611743513998
 50
95.7840896379657352
 51
106.3675833964026936
  0
ARC
  5
B35A
  8
0
 10
4347.4290208042557424
 20
183.0426672248565012
 30
0.0
 40
1.521320100424687
 50
92.6112681060476888
 51
96.5875590627652514
  0
ARC
  5
B35B
  8
0
 10
4346.6995370432487107
 20
215.1369154763461893
 30
0.0
 40
30.5816343369863617
 50
271.2369541528977948
 51
271.431530981592573
  0
LINE
  5
B35C
  8
0
 10
4348.526529637776548
 20
178.6214463960085936
 30
0.0
 11
4348.526529637776548
 21
178.8379818290086121
 31
0.0
  0
LINE
  5
B35D
  8
0
 10
4348.4477894802766968
 20
181.963966081008607
 30
0.0
 11
4348.4477894802766968
 21
183.4111777817086022
 31
0.0
  0
LINE
  5
B35E
  8
0
 10
4348.4281044408780872
 20
178.873414899908596
 30
0.0
 11
4348.4281044408780872
 21
180.7001865534085994
 31
0.0
  0
LINE
  5
B35F
  8
0
 10
4348.4281044408780872
 20
180.7119975771086047
 30
0.0
 11
4348.4281044408780872
 21
181.8852259235086137
 31
0.0
  0
LINE
  5
B360
  8
0
 10
4348.4221989290772399
 20
181.8964917421085943
 30
0.0
 11
4348.4221989290772399
 21
181.8852259235086137
 31
0.0
  0
LINE
  5
B361
  8
0
 10
4348.3946398739781216
 20
180.7080605692086124
 30
0.0
 11
4348.3946398739781216
 21
180.7119975771086047
 31
0.0
  0
LINE
  5
B362
  8
0
 10
4348.3790052353779174
 20
178.873414899908596
 30
0.0
 11
4348.3790334759769394
 21
178.8679707942085884
 31
0.0
  0
LINE
  5
B363
  8
0
 10
4347.813809045477683
 20
184.5318162789085932
 30
0.0
 11
4347.8142638270783209
 21
184.5576170594086136
 31
0.0
  0
LINE
  5
B364
  8
0
 10
4347.7787480615770619
 20
178.873414899908596
 30
0.0
 11
4347.7787373761766503
 21
178.8679707942085884
 31
0.0
  0
LINE
  5
B365
  8
0
 10
4347.9330257007777618
 20
184.5516334570085917
 30
0.0
 11
4347.9330257007777618
 21
184.859316558408608
 31
0.0
  0
LINE
  5
B366
  8
0
 10
4347.6448350144783035
 20
184.7327647610086103
 30
0.0
 11
4347.6448350144783035
 21
184.6119052723086043
 31
0.0
  0
LINE
  5
B367
  8
0
 10
4348.0147186141766724
 20
179.5666193554085908
 30
0.0
 11
4348.0147186141766724
 21
185.1897448136085984
 31
0.0
  0
LINE
  5
B368
  8
0
 10
4347.8486418440779744
 20
178.873414899908596
 30
0.0
 11
4347.8486737955781791
 21
178.8679707942085884
 31
0.0
  0
LINE
  5
B369
  8
0
 10
4348.3690493227768457
 20
178.857666868408586
 30
0.0
 11
4348.3847973542769978
 21
178.873414899908596
 31
0.0
  0
LINE
  5
B36A
  8
0
 10
4347.4877367544768276
 20
178.8679707942085884
 30
0.0
 11
4347.7787373761766503
 21
178.8679707942085884
 31
0.0
  0
LINE
  5
B36B
  8
0
 10
4347.8486737955781791
 20
178.8679707942085884
 30
0.0
 11
4348.0937794675783152
 21
178.8679707942085884
 31
0.0
  0
LINE
  5
B36C
  8
0
 10
4348.1280023647768758
 20
178.8679707942085884
 30
0.0
 11
4348.3790334759769394
 21
178.8679707942085884
 31
0.0
  0
LINE
  5
B36D
  8
0
 10
4348.0147186141766724
 20
180.7001865534085994
 30
0.0
 11
4348.4281044408780872
 21
180.7001865534085994
 31
0.0
  0
LINE
  5
B36E
  8
0
 10
4348.3946398739781216
 20
180.7080605692086124
 30
0.0
 11
4348.0147186141766724
 21
180.7080605692086124
 31
0.0
  0
LINE
  5
B36F
  8
0
 10
4348.4281044408780872
 20
180.7119975771086047
 30
0.0
 11
4348.0147186141766724
 21
180.7119975771086047
 31
0.0
  0
LINE
  5
B370
  8
0
 10
4348.0147186141766724
 20
181.8852259235086137
 30
0.0
 11
4348.4281044408780872
 21
181.8852259235086137
 31
0.0
  0
LINE
  5
B371
  8
0
 10
4348.0147186141766724
 20
181.9039208360771056
 30
0.0
 11
4348.4207440070777011
 21
181.9039189628086035
 31
0.0
  0
LINE
  5
B372
  8
0
 10
4348.4477894802766968
 20
181.963966081008607
 30
0.0
 11
4348.0147186141766724
 21
181.963966081008607
 31
0.0
  0
ARC
  5
B373
  8
0
 10
4350.2208242738252011
 20
176.9591440698663973
 30
0.0
 40
2.652510660980258
 50
133.8064244582701861
 51
133.9760441515994103
  0
ARC
  5
B374
  8
0
 10
4347.6185615995836997
 20
181.5772619003834905
 30
0.0
 40
0.8661417039512491
 50
22.1566669577961903
 51
26.5172716720644708
  0
ARC
  5
B375
  8
0
 10
4348.5056992299660124
 20
178.8368364605977945
 30
0.0
 40
0.0208618733185823
 50
3.1472623917246052
 51
86.8527376082813447
  0
ARC
  5
B376
  8
0
 10
4348.3178659421464545
 20
180.6962567182451949
 30
0.0
 40
0.0118038511832226
 50
89.9889410020439442
 51
160.5533967824050876
  0
ARC
  5
B377
  8
0
 10
4348.4025138818033156
 20
181.8964917413445903
 30
0.0
 40
0.0196850472744084
 50
0.0000022236712182
 51
22.1667053736694086
  0
ARC
  5
B378
  8
0
 10
4347.4641084809900349
 20
178.8357108377315114
 30
0.0
 40
0.0399874992655837
 50
53.7797025815470917
 51
70.5437709500821057
  0
LINE
  5
B379
  8
0
 10
4347.7787373761766503
 20
178.8679707942085884
 30
0.0
 11
4347.7852831875779884
 21
178.857666868408586
 31
0.0
  0
LINE
  5
B37A
  8
0
 10
4347.8486737955781791
 20
178.8679707942085884
 30
0.0
 11
4347.8345401821779888
 21
178.857666868408586
 31
0.0
  0
LINE
  5
B37B
  8
0
 10
4348.1280023647768758
 20
178.8679707942085884
 30
0.0
 11
4348.1247194397901694
 21
178.873414899908596
 31
0.0
  0
LINE
  5
B37C
  8
0
 10
4348.0937794675783152
 20
178.8679707942085884
 30
0.0
 11
4348.1050731884770357
 21
178.873414899908596
 31
0.0
  0
ARC
  5
B37D
  8
0
 10
4347.4043475509170094
 20
177.9465485612782913
 30
0.0
 40
1.509420474957569
 50
74.0999599175358838
 51
87.752644305696748
  0
ARC
  5
B37E
  8
0
 10
4347.7485463673983759
 20
179.5786154973422981
 30
0.0
 40
0.2664424372677654
 50
324.1949092761897759
 51
357.4194774042118183
  0
ARC
  5
B37F
  8
0
 10
4347.8716148453422647
 20
179.52802214841509
 30
0.0
 40
0.1404892184996939
 50
247.5071825674367858
 51
311.4610892126246995
  0
ARC
  5
B380
  8
0
 10
4347.770409132862369
 20
185.1819430717033867
 30
0.0
 40
0.2444340193956415
 50
1.829053159736437
 51
33.6829038116246196
  0
ARC
  5
B381
  8
0
 10
4347.4583453279883543
 20
184.9831663765097005
 30
0.0
 40
0.6143970277289207
 50
32.9682330318442709
 51
68.1680117473493112
  0
ARC
  5
B382
  8
0
 10
4347.4277902779849683
 20
184.8204940294297103
 30
0.0
 40
0.7774295541671968
 50
70.5367828376144246
 51
87.3645354293275318
  0
ARC
  5
B383
  8
0
 10
4348.2915945968079541
 20
183.4088057427265142
 30
0.0
 40
0.1562128938049688
 50
0.8700501126553039
 51
28.0886592860034909
  0
ARC
  5
B384
  8
0
 10
5039.0800010657912935
 20
521.1079269487429428
 30
0.0
 40
768.758262671276043
 50
205.9813033434600982
 51
206.0517657926017989
  0
ARC
  5
B385
  8
0
 10
4347.9225357306731894
 20
184.8516392070459915
 30
0.0
 40
0.0251785506842923
 50
294.621583159535021
 51
334.4677943985075785
  0
ARC
  5
B386
  8
0
 10
4347.9356665506029458
 20
184.8440838640912034
 30
0.0
 40
0.0101398809718365
 50
341.0247841727871219
 51
34.6352540523817112
  0
ARC
  5
B387
  8
0
 10
4347.9184458035779244
 20
184.8313006098144911
 30
0.0
 40
0.0315826974463903
 50
35.9605724841635421
 51
62.5068913221856803
  0
ARC
  5
B388
  8
0
 10
4347.5988158936952459
 20
183.708594195097902
 30
0.0
 40
1.1982729875005631
 50
73.8048646065370662
 51
86.9300766677286845
  0
ARC
  5
B389
  8
0
 10
4347.4013334328637939
 20
179.5331481773928033
 30
0.0
 40
5.3783678796503178
 50
87.2114815822559279
 51
89.3373248668163882
  0
ARC
  5
B38A
  8
0
 10
4347.8637969206047273
 20
185.136044655468595
 30
0.0
 40
0.3392737132956864
 50
281.7738889831358051
 51
290.6908494847049269
  0
ARC
  5
B38B
  8
0
 10
4347.9628441984859819
 20
184.8831118303968992
 30
0.0
 40
0.0677390127861331
 50
287.9059760561636949
 51
316.7811177441287782
  0
ARC
  5
B38C
  8
0
 10
4348.0017915718699442
 20
184.8443878883574882
 30
0.0
 40
0.0129318459129588
 50
323.6612284541238864
 51
358.4382753379633186
  0
ARC
  5
B38D
  8
0
 10
4347.9983901736868575
 20
184.842512081598187
 30
0.0
 40
0.016399347755041
 50
5.329989001380417
 51
47.9463204590634078
  0
ARC
  5
B38E
  8
0
 10
4347.9455469059348616
 20
184.7745741411679035
 30
0.0
 40
0.1024323394852475
 50
51.4554187635024718
 51
73.926855805033739
  0
ARC
  5
B38F
  8
0
 10
4347.6544388646643711
 20
183.6386459446536037
 30
0.0
 40
1.275027589101098
 50
75.4894873877631909
 51
87.1582570056031329
  0
ARC
  5
B390
  8
0
 10
4347.3934243603180221
 20
179.1169979821636957
 30
0.0
 40
5.8041705383084539
 50
86.7977302317670336
 51
89.3078622783706493
  0
ARC
  5
B391
  8
0
 10
4347.4390792606527611
 20
180.6178308298360093
 30
0.0
 40
4.1200748401148308
 50
87.1374689762592141
 51
89.659869577868136
  0
ARC
  5
B392
  8
0
 10
4347.4537772363028125
 20
185.4618009288602991
 30
0.0
 40
0.871106022035439
 50
273.5978738049113872
 51
282.6695552609455149
  0
ARC
  5
B393
  8
0
 10
4347.545680418408665
 20
182.7471671429962896
 30
0.0
 40
1.867372465479938
 50
81.8977664524601465
 51
86.9562511051546068
  0
ARC
  5
B394
  8
0
 10
4347.7563714659972902
 20
184.1573933468563951
 30
0.0
 40
0.4416375810877367
 50
68.9422178683582985
 51
83.1732857518503863
  0
ARC
  5
B395
  8
0
 10
4347.9068180834619852
 20
184.5432998579879893
 30
0.0
 40
0.0275006923188633
 50
17.6398235904282288
 51
72.5693617718756343
  0
ARC
  5
B396
  8
0
 10
4347.9174877237055625
 20
184.5535020407257036
 30
0.0
 40
0.0156499308811229
 50
302.8787587729543134
 51
353.1425903344501194
  0
ARC
  5
B397
  8
0
 10
4347.4795269129508597
 20
185.2741939995229075
 30
0.0
 40
0.8589746423812441
 50
298.2300606330110782
 51
301.3158356930351829
  0
ARC
  5
B398
  8
0
 10
4347.7794888485186675
 20
184.7475027245382933
 30
0.0
 40
0.2534977181384625
 50
278.7080255765594075
 51
294.8035260161959172
  0
ARC
  5
B399
  8
0
 10
4347.5618289739222746
 20
185.9515570695851068
 30
0.0
 40
1.476991634768384
 50
272.6145330492923904
 51
279.9827607750531229
  0
ARC
  5
B39A
  8
0
 10
4347.4661335843902634
 20
187.6129127853039904
 30
0.0
 40
3.1410456824219541
 50
269.9526450628230236
 51
272.9759030819823806
  0
ARC
  5
B39B
  8
0
 10
4347.7924292743045953
 20
184.532805428809894
 30
0.0
 40
0.0214026407938043
 50
310.439109842929895
 51
357.3510600839196059
  0
ARC
  5
B39C
  8
0
 10
4347.7563968843496696
 20
184.5802217212626033
 30
0.0
 40
0.0809316310140854
 50
285.0060266349108815
 51
308.0795540943082074
  0
ARC
  5
B39D
  8
0
 10
4347.6772024596148185
 20
184.828115162581895
 30
0.0
 40
0.3410987972599009
 50
277.2437879500054123
 51
287.0740785379917952
  0
ARC
  5
B39E
  8
0
 10
4347.5343051280397049
 20
185.6827861999954905
 30
0.0
 40
1.2074450263156891
 50
272.6904348634924986
 51
278.856903676668594
  0
ARC
  5
B39F
  8
0
 10
4347.4353922439540838
 20
187.8704159587205993
 30
0.0
 40
3.3973085749455758
 50
270.4746767834492971
 51
272.6249510175516093
  0
ARC
  5
B3A0
  8
0
 10
4347.6581374701772802
 20
183.9301704621740896
 30
0.0
 40
0.6465792075996815
 50
76.0269681051439079
 51
82.8522167374142526
  0
ARC
  5
B3A1
  8
0
 10
4347.511890441443029
 20
182.7788491836234925
 30
0.0
 40
1.8071513301950879
 50
82.7934768159501857
 51
87.4655861907869223
  0
ARC
  5
B3A2
  8
0
 10
4347.3301905998396251
 20
176.0709965133534922
 30
0.0
 40
8.5172550160129799
 50
88.2398592297249564
 51
89.1029354639663893
  0
ARC
  5
B3A3
  8
0
 10
4347.7848819122818895
 20
184.42848503896019
 30
0.0
 40
0.1324325323405712
 50
59.7416791524218809
 51
77.1815045349396769
  0
ARC
  5
B3A4
  8
0
 10
4347.8429154036448381
 20
184.5281718383562861
 30
0.0
 40
0.0170841094337836
 50
19.7724552258018917
 51
59.3896115831306233
  0
ARC
  5
B3A5
  8
0
 10
4347.8511847122554173
 20
184.5321091280148948
 30
0.0
 40
0.0080219299922734
 50
331.299702217421725
 51
13.2748637095560191
  0
ARC
  5
B3A6
  8
0
 10
4347.8199849204438578
 20
184.5611403644703898
 30
0.0
 40
0.050431496778142
 50
284.767902314035382
 51
319.3040553574987257
  0
ARC
  5
B3A7
  8
0
 10
4347.711074715551149
 20
184.8814873381238897
 30
0.0
 40
0.3886783696178612
 50
275.6063744586369921
 51
288.2570474383862233
  0
ARC
  5
B3A8
  8
0
 10
4347.8031500131291978
 20
184.5308947964007018
 30
0.0
 40
0.0106987896798775
 50
4.9409845910986352
 51
50.630226207710372
  0
ARC
  5
B3A9
  8
0
 10
4347.751926033924974
 20
184.4534181132505068
 30
0.0
 40
0.1035271040867043
 50
55.9206272192816201
 51
78.3126232948255989
  0
ARC
  5
B3AA
  8
0
 10
4347.5839061451270027
 20
183.7159417898282072
 30
0.0
 40
0.8598831010321566
 50
77.30344936711694
 51
86.0255006581464556
  0
ARC
  5
B3AB
  8
0
 10
4347.4048176453788983
 20
180.7140421748588039
 30
0.0
 40
3.8670880557711649
 50
86.4612705623619462
 51
89.1299577947983437
  0
ARC
  5
B3AC
  8
0
 10
4347.2574901979487549
 20
196.3695924939447082
 30
0.0
 40
11.89531523640232
 50
270.9925110576969018
 51
271.4529207842160758
  0
ARC
  5
B3AD
  8
0
 10
4347.4980567638485809
 20
185.9954334555966966
 30
0.0
 40
1.5185593147753531
 50
272.3038891531609238
 51
276.6604588415260082
  0
ARC
  5
B3AE
  8
0
 10
4347.6201615506115559
 20
184.9953972005849892
 30
0.0
 40
0.5111374013940987
 50
276.0673341588479843
 51
285.0738812184242761
  0
ARC
  5
B3AF
  8
0
 10
4347.7330855897907895
 20
184.5795414464932946
 30
0.0
 40
0.0802281195640277
 50
284.4388318451902933
 51
304.0205317638527163
  0
ARC
  5
B3B0
  8
0
 10
4347.7717792487483166
 20
184.5220428512837998
 30
0.0
 40
0.0109228853116163
 50
304.5406010510146757
 51
343.430803636716405
  0
ARC
  5
B3B1
  8
0
 10
4347.775473144713942
 20
184.5204476543866008
 30
0.0
 40
0.006943771239182
 50
347.3578948623633096
 51
37.421773720869993
  0
ARC
  5
B3B2
  8
0
 10
4347.747364040868888
 20
184.4907486816190101
 30
0.0
 40
0.0477600603997404
 50
45.2500872660840017
 51
75.054452834591018
  0
ARC
  5
B3B3
  8
0
 10
4347.6240908334011692
 20
184.0752316580525019
 30
0.0
 40
0.4811611743513998
 50
73.6324166035973207
 51
84.2159103620342506
  0
ARC
  5
B3B4
  8
0
 10
4347.4980542192988651
 20
183.0426672248565012
 30
0.0
 40
1.521320100424687
 50
83.412440937234777
 51
87.388731893952297
  0
ARC
  5
B3B5
  8
0
 10
4348.2275379803068063
 20
215.1369154763461893
 30
0.0
 40
30.5816343369863617
 50
268.568469018407427
 51
268.7630458471020916
  0
ARC
  5
B3B6
  8
0
 10
4347.6178200078766167
 20
193.0922663614294095
 30
0.0
 40
8.5830489754653598
 50
268.3874665166320028
 51
268.9673405376074129
  0
ARC
  5
B3B7
  8
0
 10
4347.4201793271286078
 20
185.5531862009293036
 30
0.0
 40
1.0414949411001639
 50
260.5594010282151203
 51
267.5848228531564246
  0
ARC
  5
B3B8
  8
0
 10
4347.2581546291139603
 20
184.6298387189989967
 30
0.0
 40
0.1044136863852556
 50
234.601594137416896
 51
265.1617882920559737
  0
ARC
  5
B3B9
  8
0
 10
4347.3084468930792355
 20
193.0922663614294095
 30
0.0
 40
8.5830489754653598
 50
271.0326594623925871
 51
271.6125334833681109
  0
ARC
  5
B3BA
  8
0
 10
4347.5060875738263348
 20
185.5531862009293036
 30
0.0
 40
1.0414949411001639
 50
272.4151771468435754
 51
279.4405989717848797
  0
ARC
  5
B3BB
  8
0
 10
4347.6681122718409824
 20
184.6298387189989967
 30
0.0
 40
0.1044136863852556
 50
274.8382117079440263
 51
305.5284883630862964
  0
LINE
  5
B3BC
  8
0
 10
4347.3587995048637822
 20
184.5623658190085905
 30
0.0
 11
4347.5682755186917348
 21
184.5623658190085905
 31
0.0
  0
LINE
  5
B3BD
  8
0
 10
4347.264621110398366
 20
184.5550784085679936
 30
0.0
 11
4347.662453913157151
 21
184.5550784085679936
 31
0.0
  0
LINE
  5
B3BE
  8
0
 10
4347.230915425616331
 20
184.5509649540086059
 30
0.0
 11
4347.4371120377682018
 21
184.5509649540086059
 31
0.0
  0
LINE
  5
B3BF
  8
0
 10
4347.4631334502537356
 20
184.5509649540086059
 30
0.0
 11
4347.4639415733272472
 21
184.5509649540086059
 31
0.0
  0
LINE
  5
B3C0
  8
0
 10
4347.4899629857882246
 20
184.5509649540086059
 30
0.0
 11
4347.6961595979400954
 21
184.5509649540086059
 31
0.0
  0
LINE
  5
B3C1
  8
0
 10
4347.1979856875450423
 20
184.5445045735764893
 30
0.0
 11
4347.7282812134099004
 21
184.5445045735764893
 31
0.0
  0
LINE
  5
B3C2
  8
0
 10
4347.2041041690572456
 20
184.540503587767887
 30
0.0
 11
4347.7221627319004256
 21
184.540503587767887
 31
0.0
  0
LINE
  5
B3C3
  8
0
 10
4347.2185780911013353
 20
184.5332161774086046
 30
0.0
 11
4347.7076888098563359
 21
184.5332161774086046
 31
0.0
  0
LINE
  5
B3C4
  8
0
 10
4347.2479106171113017
 20
184.5259287670085939
 30
0.0
 11
4347.6783562838427315
 21
184.5259287670085939
 31
0.0
  0
LINE
  5
B3C5
  8
0
 10
4347.300059897283063
 20
184.5186413566086117
 30
0.0
 11
4347.6262070036727891
 21
184.5186413566086117
 31
0.0
  0
LINE
  5
B3C6
  8
0
 10
4347.2124096585621373
 20
184.5477909981680114
 30
0.0
 11
4347.4386789907357524
 21
184.5477909981680114
 31
0.0
  0
LINE
  5
B3C7
  8
0
 10
4347.488396032818855
 20
184.5477909981680114
 30
0.0
 11
4347.7146653649915606
 21
184.5477909981680114
 31
0.0
  0
ARC
  5
B3C8
  8
0
 10
4347.4638599293366497
 20
184.5301487148429942
 30
0.0
 40
0.0042820242010807
 50
184.8119907657994929
 51
260.2320758395844109
  0
LINE
  5
B3C9
  8
0
 10
4347.4674820256777821
 20
184.5297895113085929
 30
0.0
 11
4347.4676202272321461
 21
184.5332161774086046
 31
0.0
  0
ARC
  5
B3CA
  8
0
 10
4347.4632150942188673
 20
184.5301487148429942
 30
0.0
 40
0.0042820242010807
 50
279.7679241604154754
 51
355.1880092342004787
  0
LINE
  5
B3CB
  8
0
 10
4347.4595929978777349
 20
184.5145846188086125
 30
0.0
 11
4347.4594293847758308
 21
184.5186413566086117
 31
0.0
  0
ARC
  5
B3CC
  8
0
 10
4347.4638599293366497
 20
184.5149438223430138
 30
0.0
 40
0.0042820242010807
 50
184.8119907657994929
 51
260.2320758395844109
  0
LINE
  5
B3CD
  8
0
 10
4347.4674820256777821
 20
184.5145846188086125
 30
0.0
 11
4347.4676456387787766
 21
184.5186413566086117
 31
0.0
  0
ARC
  5
B3CE
  8
0
 10
4347.4632150942188673
 20
184.5149438223430138
 30
0.0
 40
0.0042820242010807
 50
279.7679241604154754
 51
355.1880092342004787
  0
LINE
  5
B3CF
  8
0
 10
4347.459592997600339
 20
184.5225021009086106
 30
0.0
 11
4347.4594547960450655
 21
184.5259287670085939
 31
0.0
  0
ARC
  5
B3D0
  8
0
 10
4347.4638599290592538
 20
184.5228613044430119
 30
0.0
 40
0.0042820242010807
 50
184.8119907657994929
 51
260.2320758395844109
  0
LINE
  5
B3D1
  8
0
 10
4347.4674820254003862
 20
184.5225021009086106
 30
0.0
 11
4347.4676202269547503
 21
184.5259287670085939
 31
0.0
  0
ARC
  5
B3D2
  8
0
 10
4347.4632150939405619
 20
184.5228613044430119
 30
0.0
 40
0.0042820242010807
 50
279.7679241604154754
 51
355.1880092342004787
  0
LINE
  5
B3D3
  8
0
 10
4347.4595929978895583
 20
184.5370769216679037
 30
0.0
 11
4347.4594547963361038
 21
184.540503587767887
 31
0.0
  0
ARC
  5
B3D4
  8
0
 10
4347.4638599293512016
 20
184.5374361252023903
 30
0.0
 40
0.0042820242010807
 50
184.8119907657994929
 51
260.2320758395844109
  0
LINE
  5
B3D5
  8
0
 10
4347.4674820256914245
 20
184.5370769216679037
 30
0.0
 11
4347.4676202272439696
 21
184.540503587767887
 31
0.0
  0
ARC
  5
B3D6
  8
0
 10
4347.4632150942316002
 20
184.5374361252023903
 30
0.0
 40
0.0042820242010807
 50
279.7679241604154754
 51
355.1880092342004787
  0
LINE
  5
B3D7
  8
0
 10
4347.459592997600339
 20
184.5589391529086072
 30
0.0
 11
4347.4594547960450655
 21
184.5623658190085905
 31
0.0
  0
ARC
  5
B3D8
  8
0
 10
4347.4638599290592538
 20
184.5592983564430085
 30
0.0
 40
0.0042820242010807
 50
184.8119907657994929
 51
260.2320758395844109
  0
LINE
  5
B3D9
  8
0
 10
4347.4674820254003862
 20
184.5589391529086072
 30
0.0
 11
4347.4676202269547503
 21
184.5623658190085905
 31
0.0
  0
ARC
  5
B3DA
  8
0
 10
4347.4632150939405619
 20
184.5592983564430085
 30
0.0
 40
0.0042820242010807
 50
279.7679241604154754
 51
355.1880092342004787
  0
ARC
  5
B3DB
  8
0
 10
4347.4638599293366497
 20
184.5665857668429908
 30
0.0
 40
0.0042820242010807
 50
205.5695346524948945
 51
260.2320758395844109
  0
ARC
  5
B3DC
  8
0
 10
4347.4632150942188673
 20
184.5665857668429908
 30
0.0
 40
0.0042820242010807
 50
279.7679241604154754
 51
334.4304653475036275
  0
ARC
  5
B3DD
  8
0
 10
4347.411497724649962
 20
184.5665857669023922
 30
0.0
 40
0.0042820242010807
 50
226.0929856618679992
 51
260.2320758395844109
  0
ARC
  5
B3DE
  8
0
 10
4347.4108528895312702
 20
184.5665857669023922
 30
0.0
 40
0.0042820242010807
 50
279.7679241604154754
 51
316.2905668512872239
  0
LINE
  5
B3DF
  8
0
 10
4347.4072307931910473
 20
184.5589391528679073
 30
0.0
 11
4347.4070925916348642
 21
184.5623658190085905
 31
0.0
  0
ARC
  5
B3E0
  8
0
 10
4347.411497724649962
 20
184.5592983564023939
 30
0.0
 40
0.0042820242010807
 50
184.8119907657994929
 51
260.2320758395844109
  0
LINE
  5
B3E1
  8
0
 10
4347.4151198209910945
 20
184.5589391528679073
 30
0.0
 11
4347.4152580225472775
 21
184.5623658190085905
 31
0.0
  0
ARC
  5
B3E2
  8
0
 10
4347.4108528895312702
 20
184.5592983564023939
 30
0.0
 40
0.0042820242010807
 50
279.7679241604154754
 51
355.1880092342004787
  0
LINE
  5
B3E3
  8
0
 10
4347.4072307931783143
 20
184.5516517425085965
 30
0.0
 11
4347.4070925916248598
 21
184.5550784085679936
 31
0.0
  0
ARC
  5
B3E4
  8
0
 10
4347.4114977246372291
 20
184.5520109460429978
 30
0.0
 40
0.0042820242010807
 50
184.8119907657994929
 51
260.2320758395844109
  0
LINE
  5
B3E5
  8
0
 10
4347.415119820977452
 20
184.5516517425085965
 30
0.0
 11
4347.4152580225309066
 21
184.5550784085679936
 31
0.0
  0
ARC
  5
B3E6
  8
0
 10
4347.4108528895194468
 20
184.5520109460429978
 30
0.0
 40
0.0042820242010807
 50
279.7679241604154754
 51
355.1880092342004787
  0
LINE
  5
B3E7
  8
0
 10
4347.4072307931910473
 20
184.5443643320678859
 30
0.0
 11
4347.4070925916366832
 21
184.5477909981680114
 31
0.0
  0
ARC
  5
B3E8
  8
0
 10
4347.411497724649962
 20
184.5447235356024009
 30
0.0
 40
0.0042820242010807
 50
184.8119907657994929
 51
260.2320758395844109
  0
LINE
  5
B3E9
  8
0
 10
4347.4151198209910945
 20
184.5443643320678859
 30
0.0
 11
4347.415258022546368
 21
184.5477909981680114
 31
0.0
  0
ARC
  5
B3EA
  8
0
 10
4347.4108528895312702
 20
184.5447235356024009
 30
0.0
 40
0.0042820242010807
 50
279.7679241604154754
 51
355.1880092342004787
  0
LINE
  5
B3EB
  8
0
 10
4347.4072307931783143
 20
184.5370769217086035
 30
0.0
 11
4347.4070925916248598
 21
184.540503587767887
 31
0.0
  0
ARC
  5
B3EC
  8
0
 10
4347.4114977246372291
 20
184.5374361252430049
 30
0.0
 40
0.0042820242010807
 50
184.8119907657994929
 51
260.2320758395844109
  0
LINE
  5
B3ED
  8
0
 10
4347.415119820977452
 20
184.5370769217086035
 30
0.0
 11
4347.4152580225309066
 21
184.540503587767887
 31
0.0
  0
ARC
  5
B3EE
  8
0
 10
4347.4108528895194468
 20
184.5374361252430049
 30
0.0
 40
0.0042820242010807
 50
279.7679241604154754
 51
355.1880092342004787
  0
LINE
  5
B3EF
  8
0
 10
4347.4072307931910473
 20
184.529789511267893
 30
0.0
 11
4347.4070925916348642
 21
184.5332161774086046
 31
0.0
  0
ARC
  5
B3F0
  8
0
 10
4347.411497724649962
 20
184.530148714802408
 30
0.0
 40
0.0042820242010807
 50
184.8119907657994929
 51
260.2320758395844109
  0
LINE
  5
B3F1
  8
0
 10
4347.4151198209910945
 20
184.529789511267893
 30
0.0
 11
4347.4152580225472775
 21
184.5332161774086046
 31
0.0
  0
ARC
  5
B3F2
  8
0
 10
4347.4108528895312702
 20
184.530148714802408
 30
0.0
 40
0.0042820242010807
 50
279.7679241604154754
 51
355.1880092342004787
  0
LINE
  5
B3F3
  8
0
 10
4347.4072307931910473
 20
184.522502100867996
 30
0.0
 11
4347.4070925916348642
 21
184.5259287670085939
 31
0.0
  0
ARC
  5
B3F4
  8
0
 10
4347.411497724649962
 20
184.5228613044023973
 30
0.0
 40
0.0042820242010807
 50
184.8119907657994929
 51
260.2320758395844109
  0
LINE
  5
B3F5
  8
0
 10
4347.4151198209910945
 20
184.522502100867996
 30
0.0
 11
4347.4152580225472775
 21
184.5259287670085939
 31
0.0
  0
ARC
  5
B3F6
  8
0
 10
4347.4108528895312702
 20
184.5228613044023973
 30
0.0
 40
0.0042820242010807
 50
279.7679241604154754
 51
355.1880092342004787
  0
LINE
  5
B3F7
  8
0
 10
4347.3548685883779399
 20
184.5225021009086106
 30
0.0
 11
4347.3547303868235758
 21
184.5259287670085939
 31
0.0
  0
ARC
  5
B3F8
  8
0
 10
4347.3591355198368547
 20
184.5228613044430119
 30
0.0
 40
0.0042820242010807
 50
184.8119907657994929
 51
260.2320758395844109
  0
LINE
  5
B3F9
  8
0
 10
4347.3627576161779871
 20
184.5225021009086106
 30
0.0
 11
4347.3628958177323511
 21
184.5259287670085939
 31
0.0
  0
ARC
  5
B3FA
  8
0
 10
4347.3584906847181628
 20
184.5228613044430119
 30
0.0
 40
0.0042820242010807
 50
279.7679241604154754
 51
355.1880092342004787
  0
LINE
  5
B3FB
  8
0
 10
4347.3548685883779399
 20
184.5297895113085929
 30
0.0
 11
4347.3547303868235758
 21
184.5332161774086046
 31
0.0
  0
ARC
  5
B3FC
  8
0
 10
4347.3591355198368547
 20
184.5301487148429942
 30
0.0
 40
0.0042820242010807
 50
184.8119907657994929
 51
260.2320758395844109
  0
LINE
  5
B3FD
  8
0
 10
4347.3627576161779871
 20
184.5297895113085929
 30
0.0
 11
4347.3628958177323511
 21
184.5332161774086046
 31
0.0
  0
ARC
  5
B3FE
  8
0
 10
4347.3584906847181628
 20
184.5301487148429942
 30
0.0
 40
0.0042820242010807
 50
279.7679241604154754
 51
355.1880092342004787
  0
LINE
  5
B3FF
  8
0
 10
4347.3548685883897633
 20
184.5370769216679037
 30
0.0
 11
4347.3547303868363088
 21
184.540503587767887
 31
0.0
  0
ARC
  5
B400
  8
0
 10
4347.3591355198514066
 20
184.5374361252023903
 30
0.0
 40
0.0042820242010807
 50
184.8119907657994929
 51
260.2320758395844109
  0
LINE
  5
B401
  8
0
 10
4347.36275761619072
 20
184.5370769216679037
 30
0.0
 11
4347.3628958177441746
 21
184.540503587767887
 31
0.0
  0
ARC
  5
B402
  8
0
 10
4347.3584906847318052
 20
184.5374361252023903
 30
0.0
 40
0.0042820242010807
 50
279.7679241604154754
 51
355.1880092342004787
  0
LINE
  5
B403
  8
0
 10
4347.3548685883779399
 20
184.5443643321085858
 30
0.0
 11
4347.3547303868235758
 21
184.5477909981680114
 31
0.0
  0
ARC
  5
B404
  8
0
 10
4347.3591355198368547
 20
184.5447235356429871
 30
0.0
 40
0.0042820242010807
 50
184.8119907657994929
 51
260.2320758395844109
  0
LINE
  5
B405
  8
0
 10
4347.3627576161779871
 20
184.5443643321085858
 30
0.0
 11
4347.3628958177296226
 21
184.5477909981680114
 31
0.0
  0
ARC
  5
B406
  8
0
 10
4347.3584906847181628
 20
184.5447235356429871
 30
0.0
 40
0.0042820242010807
 50
279.7679241604154754
 51
355.1880092342004787
  0
LINE
  5
B407
  8
0
 10
4347.3548685883779399
 20
184.5516517425085965
 30
0.0
 11
4347.3547303868235758
 21
184.5550784085679936
 31
0.0
  0
ARC
  5
B408
  8
0
 10
4347.3591355198368547
 20
184.5520109460429978
 30
0.0
 40
0.0042820242010807
 50
184.8119907657994929
 51
260.2320758395844109
  0
LINE
  5
B409
  8
0
 10
4347.3627576161779871
 20
184.5516517425085965
 30
0.0
 11
4347.3628958177296226
 21
184.5550784085679936
 31
0.0
  0
ARC
  5
B40A
  8
0
 10
4347.3584906847181628
 20
184.5520109460429978
 30
0.0
 40
0.0042820242010807
 50
279.7679241604154754
 51
355.1880092342004787
  0
LINE
  5
B40B
  8
0
 10
4347.3548685883779399
 20
184.5589391529086072
 30
0.0
 11
4347.3547381748821863
 21
184.5621727164324
 31
0.0
  0
ARC
  5
B40C
  8
0
 10
4347.3591355198368547
 20
184.5592983564430085
 30
0.0
 40
0.0042820242010807
 50
184.8119907657994929
 51
260.2320758395844109
  0
LINE
  5
B40D
  8
0
 10
4347.3627576161779871
 20
184.5589391529086072
 30
0.0
 11
4347.3628958177323511
 21
184.5623658190085905
 31
0.0
  0
ARC
  5
B40E
  8
0
 10
4347.3584906847181628
 20
184.5592983564430085
 30
0.0
 40
0.0042820242010807
 50
279.7679241604154754
 51
355.1880092342004787
  0
ARC
  5
B40F
  8
0
 10
4347.306773315150167
 20
184.5592983564023939
 30
0.0
 40
0.0042820242010807
 50
187.7666657663125989
 51
260.2320758395844109
  0
LINE
  5
B410
  8
0
 10
4347.31039541149039
 20
184.5589391528679073
 30
0.0
 11
4347.3104122502700193
 21
184.5593566653409994
 31
0.0
  0
ARC
  5
B411
  8
0
 10
4347.3061284800305657
 20
184.5592983564023939
 30
0.0
 40
0.0042820242010807
 50
279.7679241604154754
 51
355.1880092342004787
  0
LINE
  5
B412
  8
0
 10
4347.3025063836776098
 20
184.5516517425085965
 30
0.0
 11
4347.3023681821250648
 21
184.5550784085679936
 31
0.0
  0
ARC
  5
B413
  8
0
 10
4347.3067733151374341
 20
184.5520109460429978
 30
0.0
 40
0.0042820242010807
 50
184.8119907657994929
 51
260.2320758395844109
  0
LINE
  5
B414
  8
0
 10
4347.310395411477657
 20
184.5516517425085965
 30
0.0
 11
4347.3105336130311116
 21
184.5550784085679936
 31
0.0
  0
ARC
  5
B415
  8
0
 10
4347.3061284800187423
 20
184.5520109460429978
 30
0.0
 40
0.0042820242010807
 50
279.7679241604154754
 51
355.1880092342004787
  0
LINE
  5
B416
  8
0
 10
4347.3025063836776098
 20
184.5443643321085858
 30
0.0
 11
4347.3023681821250648
 21
184.5477909981680114
 31
0.0
  0
ARC
  5
B417
  8
0
 10
4347.3067733151374341
 20
184.5447235356429871
 30
0.0
 40
0.0042820242010807
 50
184.8119907657994929
 51
260.2320758395844109
  0
LINE
  5
B418
  8
0
 10
4347.310395411477657
 20
184.5443643321085858
 30
0.0
 11
4347.3105336130311116
 21
184.5477909981680114
 31
0.0
  0
ARC
  5
B419
  8
0
 10
4347.3061284800187423
 20
184.5447235356429871
 30
0.0
 40
0.0042820242010807
 50
279.7679241604154754
 51
355.1880092342004787
  0
LINE
  5
B41A
  8
0
 10
4347.3025063836903428
 20
184.5370769216679037
 30
0.0
 11
4347.3023681821359787
 21
184.540503587767887
 31
0.0
  0
ARC
  5
B41B
  8
0
 10
4347.306773315150167
 20
184.5374361252023903
 30
0.0
 40
0.0042820242010807
 50
184.8119907657994929
 51
260.2320758395844109
  0
LINE
  5
B41C
  8
0
 10
4347.31039541149039
 20
184.5370769216679037
 30
0.0
 11
4347.3105336130456635
 21
184.540503587767887
 31
0.0
  0
ARC
  5
B41D
  8
0
 10
4347.3061284800305657
 20
184.5374361252023903
 30
0.0
 40
0.0042820242010807
 50
279.7679241604154754
 51
355.1880092342004787
  0
LINE
  5
B41E
  8
0
 10
4347.302506383400214
 20
184.5297895113085929
 30
0.0
 11
4347.3023681818449404
 21
184.5332161774086046
 31
0.0
  0
ARC
  5
B41F
  8
0
 10
4347.3067733148582192
 20
184.5301487148429942
 30
0.0
 40
0.0042820242010807
 50
184.8119907657994929
 51
260.2320758395844109
  0
LINE
  5
B420
  8
0
 10
4347.3103954112002612
 20
184.5297895113085929
 30
0.0
 11
4347.3105336127546252
 21
184.5332161774086046
 31
0.0
  0
ARC
  5
B421
  8
0
 10
4347.3061284797404369
 20
184.5301487148429942
 30
0.0
 40
0.0042820242010807
 50
279.7679241604154754
 51
355.1880092342004787
  0
LINE
  5
B422
  8
0
 10
4347.2501441789772798
 20
184.5370769217086035
 30
0.0
 11
4347.2500059774238252
 21
184.540503587767887
 31
0.0
  0
ARC
  5
B423
  8
0
 10
4347.2544111104361946
 20
184.5374361252430049
 30
0.0
 40
0.0042820242010807
 50
184.8119907657994929
 51
260.2320758395844109
  0
LINE
  5
B424
  8
0
 10
4347.2580332067782365
 20
184.5370769217086035
 30
0.0
 11
4347.2581714083307816
 21
184.540503587767887
 31
0.0
  0
ARC
  5
B425
  8
0
 10
4347.2537662753184122
 20
184.5374361252430049
 30
0.0
 40
0.0042820242010807
 50
279.7679241604154754
 51
355.1880092342004787
  0
LINE
  5
B426
  8
0
 10
4347.2501441789772798
 20
184.5443643321085858
 30
0.0
 11
4347.2500059774238252
 21
184.5477909981680114
 31
0.0
  0
ARC
  5
B427
  8
0
 10
4347.2544111104361946
 20
184.5447235356429871
 30
0.0
 40
0.0042820242010807
 50
184.8119907657994929
 51
260.2320758395844109
  0
LINE
  5
B428
  8
0
 10
4347.2580332067782365
 20
184.5443643321085858
 30
0.0
 11
4347.2581714083307816
 21
184.5477909981680114
 31
0.0
  0
ARC
  5
B429
  8
0
 10
4347.2537662753184122
 20
184.5447235356429871
 30
0.0
 40
0.0042820242010807
 50
279.7679241604154754
 51
355.1880092342004787
  0
LINE
  5
B42A
  8
0
 10
4347.2501441789909222
 20
184.5516517424680103
 30
0.0
 11
4347.2500706642076693
 21
184.5534745194474908
 31
0.0
  0
ARC
  5
B42B
  8
0
 10
4347.254411110449837
 20
184.5520109460024116
 30
0.0
 40
0.0042820242010807
 50
184.8119907657994929
 51
260.2320758395844109
  0
LINE
  5
B42C
  8
0
 10
4347.2580332067909694
 20
184.5516517424680103
 30
0.0
 11
4347.2581424392137706
 21
184.5543601276368122
 31
0.0
  0
ARC
  5
B42D
  8
0
 10
4347.2537662753311452
 20
184.5520109460024116
 30
0.0
 40
0.0042820242010807
 50
279.7679241604154754
 51
355.1880092342004787
  0
LINE
  5
B42E
  8
0
 10
4347.4631334504765618
 20
184.5107238745086136
 30
0.0
 11
4347.4639415730780456
 21
184.5107238745086136
 31
0.0
  0
LINE
  5
B42F
  8
0
 10
4347.4072307931783143
 20
184.5153204482085982
 30
0.0
 11
4347.4070968569576507
 21
184.5186413566086117
 31
0.0
  0
ARC
  5
B430
  8
0
 10
4347.4114977246372291
 20
184.5156796517429996
 30
0.0
 40
0.0042820242010807
 50
184.8119907657994929
 51
247.0024152879458939
  0
LINE
  5
B431
  8
0
 10
4347.415119820977452
 20
184.5153204482085982
 30
0.0
 11
4347.4152537571972061
 21
184.5186413566086117
 31
0.0
  0
ARC
  5
B432
  8
0
 10
4347.4108528895194468
 20
184.5156796517429996
 30
0.0
 40
0.0042820242010807
 50
290.7946466340505935
 51
355.1880092342004787
  0
LINE
  5
B433
  8
0
 10
4347.3548685883779399
 20
184.5175993126086098
 30
0.0
 11
4347.3548265614936099
 21
184.5186413566086117
 31
0.0
  0
ARC
  5
B434
  8
0
 10
4347.3591355198368547
 20
184.5179585161430111
 30
0.0
 40
0.0042820242010807
 50
184.8119907657994929
 51
260.2320758395844109
  0
LINE
  5
B435
  8
0
 10
4347.3627576161779871
 20
184.5175993126086098
 30
0.0
 11
4347.362799643062317
 21
184.5186413566086117
 31
0.0
  0
ARC
  5
B436
  8
0
 10
4347.3584906847181628
 20
184.5179585161430111
 30
0.0
 40
0.0042820242010807
 50
279.7679241604154754
 51
355.1880092342004787
  0
LINE
  5
B437
  8
0
 10
4347.3022607986586081
 20
184.5223638336609895
 30
0.0
 11
4347.3021170206202441
 21
184.5259287670085939
 31
0.0
  0
ARC
  5
B438
  8
0
 10
4347.3065277301184324
 20
184.5227230371955045
 30
0.0
 40
0.0042820242010807
 50
184.8119907657994929
 51
252.4042079520150139
  0
LINE
  5
B439
  8
0
 10
4347.3101498264586553
 20
184.5223638336609895
 30
0.0
 11
4347.3102936044970193
 21
184.5259287670085939
 31
0.0
  0
ARC
  5
B43A
  8
0
 10
4347.305882894998831
 20
184.5227230371955045
 30
0.0
 40
0.0042820242010807
 50
287.5957920479850145
 51
355.1880092342004787
  0
LINE
  5
B43B
  8
0
 10
4347.2501441790163881
 20
184.5296770423533985
 30
0.0
 11
4347.2500014414526959
 21
184.5332161774086046
 31
0.0
  0
ARC
  5
B43C
  8
0
 10
4347.2544111104743934
 20
184.5300362458879135
 30
0.0
 40
0.0042820242010807
 50
184.8119907657994929
 51
253.5845207498961997
  0
LINE
  5
B43D
  8
0
 10
4347.2580332068164353
 20
184.5296770423533985
 30
0.0
 11
4347.2581759443783085
 21
184.5332161774086046
 31
0.0
  0
ARC
  5
B43E
  8
0
 10
4347.2537662753557015
 20
184.5300362458879135
 30
0.0
 40
0.0042820242010807
 50
286.4154792501037718
 51
355.1880092342004787
  0
LINE
  5
B43F
  8
0
 10
4347.3584090409767668
 20
184.5137385683086109
 30
0.0
 11
4347.3592171635782506
 21
184.5137385683086109
 31
0.0
  0
LINE
  5
B440
  8
0
 10
4347.4595929978777349
 20
184.5072135706085987
 30
0.0
 11
4347.4594532518558481
 21
184.510678531323407
 31
0.0
  0
ARC
  5
B441
  8
0
 10
4347.4638599293366497
 20
184.5075727741430001
 30
0.0
 40
0.0042820242010807
 50
184.8119907657994929
 51
260.2320758395844109
  0
LINE
  5
B442
  8
0
 10
4347.4674820256777821
 20
184.5072135706085987
 30
0.0
 11
4347.467622375157589
 21
184.5106934938752943
 31
0.0
  0
ARC
  5
B443
  8
0
 10
4347.4632150942188673
 20
184.5075727741430001
 30
0.0
 40
0.0042820242010807
 50
279.7679241604154754
 51
355.1880092342004787
  0
LINE
  5
B444
  8
0
 10
4347.4631334504765618
 20
184.5033528263085998
 30
0.0
 11
4347.4639415730780456
 21
184.5033528263085998
 31
0.0
  0
LINE
  5
B445
  8
0
 10
4347.1674179655892658
 20
184.5369002344799014
 30
0.0
 11
4347.1674275502782621
 21
184.5346270081086004
 31
0.0
  0
LINE
  5
B446
  8
0
 10
4347.1960957699857317
 20
184.5322162127777119
 30
0.0
 11
4347.19621264667785
 21
184.526903807508603
 31
0.0
  0
LINE
  5
B447
  8
0
 10
4347.2350942671746452
 20
184.5263738535421965
 30
0.0
 11
4347.2352708877306213
 21
184.5201105595589013
 31
0.0
  0
LINE
  5
B448
  8
0
 10
4347.2828922762182629
 20
184.5207793150605937
 30
0.0
 11
4347.2831012874057706
 21
184.5145083248559956
 31
0.0
  0
LINE
  5
B449
  8
0
 10
4347.3376927884110046
 20
184.5149628707794989
 30
0.0
 11
4347.3378657495777588
 21
184.5103123943086132
 31
0.0
  0
LINE
  5
B44A
  8
0
 10
4347.3972866274452826
 20
184.5120510527468127
 30
0.0
 11
4347.3974597072774486
 21
184.5076840151085946
 31
0.0
  0
ARC
  5
B44B
  8
0
 10
4347.1695292006143063
 20
184.5327237788316097
 30
0.0
 40
0.0020695054939693
 50
248.1841191461413985
 51
262.9258789604572257
  0
ARC
  5
B44C
  8
0
 10
4347.1723183502617758
 20
184.5341866851823909
 30
0.0
 40
0.0049105813059761
 50
174.855481534407005
 51
223.5640300942839076
  0
ARC
  5
B44D
  8
0
 10
4347.1990836351105827
 20
184.526762748966604
 30
0.0
 40
0.0037540255277215
 50
255.749614385230899
 51
267.7717384298549064
  0
ARC
  5
B44E
  8
0
 10
4347.2013434983145999
 20
184.5271555465228914
 30
0.0
 40
0.0051370235595981
 50
182.8088954858625073
 51
231.6980962497663086
  0
ARC
  5
B44F
  8
0
 10
4347.2393095549869031
 20
184.5201202192542098
 30
0.0
 40
0.0040386788069238
 50
180.1370407435400978
 51
247.3967186388217954
  0
ARC
  5
B450
  8
0
 10
4347.2386241719796089
 20
184.5208114645394062
 30
0.0
 40
0.0045039176664856
 50
258.9029451526826051
 51
272.4703106351910833
  0
ARC
  5
B451
  8
0
 10
4347.2868018379867863
 20
184.5153881987077114
 30
0.0
 40
0.0045895103517853
 50
260.3392614423041209
 51
277.8336018345264051
  0
ARC
  5
B452
  8
0
 10
4347.2870851799889351
 20
184.5147111937201032
 30
0.0
 40
0.0039890547412935
 50
182.9151138515518937
 51
254.6862764227701916
  0
ARC
  5
B453
  8
0
 10
4347.3414945249423909
 20
184.5103632410830983
 30
0.0
 40
0.0036291315830493
 50
180.8027818329447882
 51
264.1949986218754134
  0
ARC
  5
B454
  8
0
 10
4347.3417866595646046
 20
184.5116791136368875
 30
0.0
 40
0.0049703011048368
 50
262.3785738487990216
 51
284.1783374052560021
  0
ARC
  5
B455
  8
0
 10
4347.4014330660238556
 20
184.5088918043934996
 30
0.0
 40
0.0047024851652797
 50
263.8272173202122985
 51
299.5626058373072738
  0
ARC
  5
B456
  8
0
 10
4347.4013796159351841
 20
184.508136529032214
 30
0.0
 40
0.0039459412990429
 50
186.5850714603870131
 51
263.4195980267621735
  0
LINE
  5
B457
  8
0
 10
4347.5233218722769379
 20
184.5048015023085952
 30
0.0
 11
4347.5135355315233028
 21
184.5116487154739104
 31
0.0
  0
LINE
  5
B458
  8
0
 10
4347.5840709342783157
 20
184.5068602177086063
 30
0.0
 11
4347.5648841447437007
 21
184.5133068559094909
 31
0.0
  0
LINE
  5
B459
  8
0
 10
4347.6882567250768261
 20
184.5163117324086102
 30
0.0
 11
4347.6502390858522631
 21
184.5216027651156878
 31
0.0
  0
LINE
  5
B45A
  8
0
 10
4347.7281373475780129
 20
184.5230115620086053
 30
0.0
 11
4347.6863782481941598
 21
184.5268948447424009
 31
0.0
  0
LINE
  5
B45B
  8
0
 10
4347.7578006892781559
 20
184.5306700271086129
 30
0.0
 11
4347.710107828076616
 21
184.5334193959085951
 31
0.0
  0
LINE
  5
B45C
  8
0
 10
4347.6396476509780769
 20
184.5108415173085916
 30
0.0
 11
4347.6106797710772298
 21
184.5168751577641899
 31
0.0
  0
ARC
  5
B45D
  8
0
 10
4347.5155772989055549
 20
184.5665857669023922
 30
0.0
 40
0.0042820242010807
 50
279.7679241604154754
 51
313.9070143381321145
  0
ARC
  5
B45E
  8
0
 10
4347.5162221340242468
 20
184.5665857669023922
 30
0.0
 40
0.0042820242010807
 50
223.7094331487128045
 51
260.2320758395844109
  0
LINE
  5
B45F
  8
0
 10
4347.5198442303653792
 20
184.5589391528679073
 30
0.0
 11
4347.5199824319197432
 21
184.5623658190085905
 31
0.0
  0
ARC
  5
B460
  8
0
 10
4347.5155772989055549
 20
184.5592983564023939
 30
0.0
 40
0.0042820242010807
 50
279.7679241604154754
 51
355.1880092342004787
  0
LINE
  5
B461
  8
0
 10
4347.511955202565332
 20
184.5589391528679073
 30
0.0
 11
4347.5118170010082395
 21
184.5623658190085905
 31
0.0
  0
ARC
  5
B462
  8
0
 10
4347.5162221340242468
 20
184.5592983564023939
 30
0.0
 40
0.0042820242010807
 50
184.8119907657994929
 51
260.2320758395844109
  0
LINE
  5
B463
  8
0
 10
4347.5198442303790216
 20
184.5516517425085965
 30
0.0
 11
4347.5199824319297477
 21
184.5550784085679936
 31
0.0
  0
ARC
  5
B464
  8
0
 10
4347.5155772989182879
 20
184.5520109460429978
 30
0.0
 40
0.0042820242010807
 50
279.7679241604154754
 51
355.1880092342004787
  0
LINE
  5
B465
  8
0
 10
4347.5119552025780649
 20
184.5516517425085965
 30
0.0
 11
4347.5118170010237009
 21
184.5550784085679936
 31
0.0
  0
ARC
  5
B466
  8
0
 10
4347.5162221340369797
 20
184.5520109460429978
 30
0.0
 40
0.0042820242010807
 50
184.8119907657994929
 51
260.2320758395844109
  0
LINE
  5
B467
  8
0
 10
4347.5198442303653792
 20
184.5443643320678859
 30
0.0
 11
4347.5199824319188338
 21
184.5477909981680114
 31
0.0
  0
ARC
  5
B468
  8
0
 10
4347.5155772989055549
 20
184.5447235356024009
 30
0.0
 40
0.0042820242010807
 50
279.7679241604154754
 51
355.1880092342004787
  0
LINE
  5
B469
  8
0
 10
4347.511955202565332
 20
184.5443643320678859
 30
0.0
 11
4347.511817001009149
 21
184.5477909981680114
 31
0.0
  0
ARC
  5
B46A
  8
0
 10
4347.5162221340242468
 20
184.5447235356024009
 30
0.0
 40
0.0042820242010807
 50
184.8119907657994929
 51
260.2320758395844109
  0
LINE
  5
B46B
  8
0
 10
4347.5198442303790216
 20
184.5370769217086035
 30
0.0
 11
4347.5199824319297477
 21
184.540503587767887
 31
0.0
  0
ARC
  5
B46C
  8
0
 10
4347.5155772989182879
 20
184.5374361252430049
 30
0.0
 40
0.0042820242010807
 50
279.7679241604154754
 51
355.1880092342004787
  0
LINE
  5
B46D
  8
0
 10
4347.5119552025780649
 20
184.5370769217086035
 30
0.0
 11
4347.5118170010237009
 21
184.540503587767887
 31
0.0
  0
ARC
  5
B46E
  8
0
 10
4347.5162221340369797
 20
184.5374361252430049
 30
0.0
 40
0.0042820242010807
 50
184.8119907657994929
 51
260.2320758395844109
  0
LINE
  5
B46F
  8
0
 10
4347.5198442303653792
 20
184.529789511267893
 30
0.0
 11
4347.5199824319197432
 21
184.5332161774086046
 31
0.0
  0
ARC
  5
B470
  8
0
 10
4347.5155772989055549
 20
184.530148714802408
 30
0.0
 40
0.0042820242010807
 50
279.7679241604154754
 51
355.1880092342004787
  0
LINE
  5
B471
  8
0
 10
4347.511955202565332
 20
184.529789511267893
 30
0.0
 11
4347.5118170010082395
 21
184.5332161774086046
 31
0.0
  0
ARC
  5
B472
  8
0
 10
4347.5162221340242468
 20
184.530148714802408
 30
0.0
 40
0.0042820242010807
 50
184.8119907657994929
 51
260.2320758395844109
  0
LINE
  5
B473
  8
0
 10
4347.5198442303653792
 20
184.522502100867996
 30
0.0
 11
4347.5199824319206527
 21
184.5259287670085939
 31
0.0
  0
ARC
  5
B474
  8
0
 10
4347.5155772989055549
 20
184.5228613044023973
 30
0.0
 40
0.0042820242010807
 50
279.7679241604154754
 51
355.1880092342004787
  0
LINE
  5
B475
  8
0
 10
4347.511955202565332
 20
184.522502100867996
 30
0.0
 11
4347.5118170010082395
 21
184.5259287670085939
 31
0.0
  0
ARC
  5
B476
  8
0
 10
4347.5162221340242468
 20
184.5228613044023973
 30
0.0
 40
0.0042820242010807
 50
184.8119907657994929
 51
260.2320758395844109
  0
LINE
  5
B477
  8
0
 10
4347.5722064351766676
 20
184.5225021009086106
 30
0.0
 11
4347.5723446367319411
 21
184.5259287670085939
 31
0.0
  0
ARC
  5
B478
  8
0
 10
4347.5679395037186623
 20
184.5228613044430119
 30
0.0
 40
0.0042820242010807
 50
279.7679241604154754
 51
355.1880092342004787
  0
LINE
  5
B479
  8
0
 10
4347.5643174073766204
 20
184.5225021009086106
 30
0.0
 11
4347.5641792058231658
 21
184.5259287670085939
 31
0.0
  0
ARC
  5
B47A
  8
0
 10
4347.5685843388373542
 20
184.5228613044430119
 30
0.0
 40
0.0042820242010807
 50
184.8119907657994929
 51
260.2320758395844109
  0
LINE
  5
B47B
  8
0
 10
4347.5722064351766676
 20
184.5297895113085929
 30
0.0
 11
4347.5723446367319411
 21
184.5332161774086046
 31
0.0
  0
ARC
  5
B47C
  8
0
 10
4347.5679395037186623
 20
184.5301487148429942
 30
0.0
 40
0.0042820242010807
 50
279.7679241604154754
 51
355.1880092342004787
  0
LINE
  5
B47D
  8
0
 10
4347.5643174073766204
 20
184.5297895113085929
 30
0.0
 11
4347.5641792058231658
 21
184.5332161774086046
 31
0.0
  0
ARC
  5
B47E
  8
0
 10
4347.5685843388373542
 20
184.5301487148429942
 30
0.0
 40
0.0042820242010807
 50
184.8119907657994929
 51
260.2320758395844109
  0
LINE
  5
B47F
  8
0
 10
4347.5722064351648442
 20
184.5370769216679037
 30
0.0
 11
4347.5723446367192082
 21
184.540503587767887
 31
0.0
  0
ARC
  5
B480
  8
0
 10
4347.5679395037059294
 20
184.5374361252023903
 30
0.0
 40
0.0042820242010807
 50
279.7679241604154754
 51
355.1880092342004787
  0
LINE
  5
B481
  8
0
 10
4347.5643174073638875
 20
184.5370769216679037
 30
0.0
 11
4347.5641792058104329
 21
184.540503587767887
 31
0.0
  0
ARC
  5
B482
  8
0
 10
4347.5685843388246212
 20
184.5374361252023903
 30
0.0
 40
0.0042820242010807
 50
184.8119907657994929
 51
260.2320758395844109
  0
LINE
  5
B483
  8
0
 10
4347.5722064351766676
 20
184.5443643321085858
 30
0.0
 11
4347.5723446367310316
 21
184.5477909981680114
 31
0.0
  0
ARC
  5
B484
  8
0
 10
4347.5679395037186623
 20
184.5447235356429871
 30
0.0
 40
0.0042820242010807
 50
279.7679241604154754
 51
355.1880092342004787
  0
LINE
  5
B485
  8
0
 10
4347.5643174073766204
 20
184.5443643321085858
 30
0.0
 11
4347.5641792058240753
 21
184.5477909981680114
 31
0.0
  0
ARC
  5
B486
  8
0
 10
4347.5685843388373542
 20
184.5447235356429871
 30
0.0
 40
0.0042820242010807
 50
184.8119907657994929
 51
260.2320758395844109
  0
LINE
  5
B487
  8
0
 10
4347.5722064351766676
 20
184.5516517425085965
 30
0.0
 11
4347.5723446367310316
 21
184.5550784085679936
 31
0.0
  0
ARC
  5
B488
  8
0
 10
4347.5679395037186623
 20
184.5520109460429978
 30
0.0
 40
0.0042820242010807
 50
279.7679241604154754
 51
355.1880092342004787
  0
LINE
  5
B489
  8
0
 10
4347.5643174073766204
 20
184.5516517425085965
 30
0.0
 11
4347.5641792058240753
 21
184.5550784085679936
 31
0.0
  0
ARC
  5
B48A
  8
0
 10
4347.5685843388373542
 20
184.5520109460429978
 30
0.0
 40
0.0042820242010807
 50
184.8119907657994929
 51
260.2320758395844109
  0
LINE
  5
B48B
  8
0
 10
4347.5722064351766676
 20
184.5589391529086072
 30
0.0
 11
4347.5723368486733307
 21
184.5621727164324
 31
0.0
  0
ARC
  5
B48C
  8
0
 10
4347.5679395037186623
 20
184.5592983564430085
 30
0.0
 40
0.0042820242010807
 50
279.7679241604154754
 51
355.1880092342004787
  0
LINE
  5
B48D
  8
0
 10
4347.5643174073766204
 20
184.5589391529086072
 30
0.0
 11
4347.5641792058231658
 21
184.5623658190085905
 31
0.0
  0
ARC
  5
B48E
  8
0
 10
4347.5685843388373542
 20
184.5592983564430085
 30
0.0
 40
0.0042820242010807
 50
184.8119907657994929
 51
260.2320758395844109
  0
ARC
  5
B48F
  8
0
 10
4347.6203017084053499
 20
184.5592983564023939
 30
0.0
 40
0.0042820242010807
 50
279.7679241604154754
 51
352.2333342336874011
  0
LINE
  5
B490
  8
0
 10
4347.616679612065127
 20
184.5589391528679073
 30
0.0
 11
4347.6166627732864072
 21
184.5593566653409994
 31
0.0
  0
ARC
  5
B491
  8
0
 10
4347.6209465435240418
 20
184.5592983564023939
 30
0.0
 40
0.0042820242010807
 50
184.8119907657994929
 51
260.2320758395844109
  0
LINE
  5
B492
  8
0
 10
4347.6245686398779071
 20
184.5516517425085965
 30
0.0
 11
4347.6247068414304522
 21
184.5550784085679936
 31
0.0
  0
ARC
  5
B493
  8
0
 10
4347.6203017084180829
 20
184.5520109460429978
 30
0.0
 40
0.0042820242010807
 50
279.7679241604154754
 51
355.1880092342004787
  0
LINE
  5
B494
  8
0
 10
4347.6166796120778599
 20
184.5516517425085965
 30
0.0
 11
4347.6165414105253149
 21
184.5550784085679936
 31
0.0
  0
ARC
  5
B495
  8
0
 10
4347.6209465435367747
 20
184.5520109460429978
 30
0.0
 40
0.0042820242010807
 50
184.8119907657994929
 51
260.2320758395844109
  0
LINE
  5
B496
  8
0
 10
4347.6245686398779071
 20
184.5443643321085858
 30
0.0
 11
4347.6247068414304522
 21
184.5477909981680114
 31
0.0
  0
ARC
  5
B497
  8
0
 10
4347.6203017084180829
 20
184.5447235356429871
 30
0.0
 40
0.0042820242010807
 50
279.7679241604154754
 51
355.1880092342004787
  0
LINE
  5
B498
  8
0
 10
4347.6166796120778599
 20
184.5443643321085858
 30
0.0
 11
4347.6165414105253149
 21
184.5477909981680114
 31
0.0
  0
ARC
  5
B499
  8
0
 10
4347.6209465435367747
 20
184.5447235356429871
 30
0.0
 40
0.0042820242010807
 50
184.8119907657994929
 51
260.2320758395844109
  0
LINE
  5
B49A
  8
0
 10
4347.6245686398651742
 20
184.5370769216679037
 30
0.0
 11
4347.6247068414186288
 21
184.540503587767887
 31
0.0
  0
ARC
  5
B49B
  8
0
 10
4347.6203017084053499
 20
184.5374361252023903
 30
0.0
 40
0.0042820242010807
 50
279.7679241604154754
 51
355.1880092342004787
  0
LINE
  5
B49C
  8
0
 10
4347.616679612065127
 20
184.5370769216679037
 30
0.0
 11
4347.6165414105107629
 21
184.540503587767887
 31
0.0
  0
ARC
  5
B49D
  8
0
 10
4347.6209465435240418
 20
184.5374361252023903
 30
0.0
 40
0.0042820242010807
 50
184.8119907657994929
 51
260.2320758395844109
  0
LINE
  5
B49E
  8
0
 10
4347.6245686401562125
 20
184.5297895113085929
 30
0.0
 11
4347.6247068417105766
 21
184.5332161774086046
 31
0.0
  0
ARC
  5
B49F
  8
0
 10
4347.6203017086972977
 20
184.5301487148429942
 30
0.0
 40
0.0042820242010807
 50
279.7679241604154754
 51
355.1880092342004787
  0
LINE
  5
B4A0
  8
0
 10
4347.6166796123561653
 20
184.5297895113085929
 30
0.0
 11
4347.6165414108008918
 21
184.5332161774086046
 31
0.0
  0
ARC
  5
B4A1
  8
0
 10
4347.6209465438150801
 20
184.5301487148429942
 30
0.0
 40
0.0042820242010807
 50
184.8119907657994929
 51
260.2320758395844109
  0
LINE
  5
B4A2
  8
0
 10
4347.6769308445782372
 20
184.5370769217086035
 30
0.0
 11
4347.6770690461298727
 21
184.540503587767887
 31
0.0
  0
ARC
  5
B4A3
  8
0
 10
4347.6726639131184129
 20
184.5374361252430049
 30
0.0
 40
0.0042820242010807
 50
279.7679241604154754
 51
355.1880092342004787
  0
LINE
  5
B4A4
  8
0
 10
4347.66904181677819
 20
184.5370769217086035
 30
0.0
 11
4347.6689036152238259
 21
184.540503587767887
 31
0.0
  0
ARC
  5
B4A5
  8
0
 10
4347.6733087482371047
 20
184.5374361252430049
 30
0.0
 40
0.0042820242010807
 50
184.8119907657994929
 51
260.2320758395844109
  0
LINE
  5
B4A6
  8
0
 10
4347.6769308445782372
 20
184.5443643321085858
 30
0.0
 11
4347.6770690461298727
 21
184.5477909981680114
 31
0.0
  0
ARC
  5
B4A7
  8
0
 10
4347.6726639131184129
 20
184.5447235356429871
 30
0.0
 40
0.0042820242010807
 50
279.7679241604154754
 51
355.1880092342004787
  0
LINE
  5
B4A8
  8
0
 10
4347.66904181677819
 20
184.5443643321085858
 30
0.0
 11
4347.6689036152238259
 21
184.5477909981680114
 31
0.0
  0
ARC
  5
B4A9
  8
0
 10
4347.6733087482371047
 20
184.5447235356429871
 30
0.0
 40
0.0042820242010807
 50
184.8119907657994929
 51
260.2320758395844109
  0
LINE
  5
B4AA
  8
0
 10
4347.6769308445636852
 20
184.5516517424680103
 30
0.0
 11
4347.6770043593460287
 21
184.5534745194474908
 31
0.0
  0
ARC
  5
B4AB
  8
0
 10
4347.67266391310568
 20
184.5520109460024116
 30
0.0
 40
0.0042820242010807
 50
279.7679241604154754
 51
355.1880092342004787
  0
LINE
  5
B4AC
  8
0
 10
4347.6690418167636381
 20
184.5516517424680103
 30
0.0
 11
4347.6689325843408369
 21
184.5543601276368122
 31
0.0
  0
ARC
  5
B4AD
  8
0
 10
4347.6733087482243718
 20
184.5520109460024116
 30
0.0
 40
0.0042820242010807
 50
184.8119907657994929
 51
260.2320758395844109
  0
LINE
  5
B4AE
  8
0
 10
4347.5198442303790216
 20
184.5153204482085982
 30
0.0
 11
4347.5199781665969567
 21
184.5186413566086117
 31
0.0
  0
ARC
  5
B4AF
  8
0
 10
4347.5155772989182879
 20
184.5156796517429996
 30
0.0
 40
0.0042820242010807
 50
292.9975847120541061
 51
355.1880092342004787
  0
LINE
  5
B4B0
  8
0
 10
4347.5119552025780649
 20
184.5153204482085982
 30
0.0
 11
4347.5118212663574013
 21
184.5186413566086117
 31
0.0
  0
ARC
  5
B4B1
  8
0
 10
4347.5162221340369797
 20
184.5156796517429996
 30
0.0
 40
0.0042820242010807
 50
184.8119907657994929
 51
249.2053533659494065
  0
LINE
  5
B4B2
  8
0
 10
4347.5722064351766676
 20
184.5175993126086098
 30
0.0
 11
4347.572248462061907
 21
184.5186413566086117
 31
0.0
  0
ARC
  5
B4B3
  8
0
 10
4347.5679395037186623
 20
184.5179585161430111
 30
0.0
 40
0.0042820242010807
 50
279.7679241604154754
 51
355.1880092342004787
  0
LINE
  5
B4B4
  8
0
 10
4347.5643174073766204
 20
184.5175993126086098
 30
0.0
 11
4347.5642753804931999
 21
184.5186413566086117
 31
0.0
  0
ARC
  5
B4B5
  8
0
 10
4347.5685843388373542
 20
184.5179585161430111
 30
0.0
 40
0.0042820242010807
 50
184.8119907657994929
 51
260.2320758395844109
  0
LINE
  5
B4B6
  8
0
 10
4347.6248142248959994
 20
184.5223638336609895
 30
0.0
 11
4347.6249580029352728
 21
184.5259287670085939
 31
0.0
  0
ARC
  5
B4B7
  8
0
 10
4347.6205472934370846
 20
184.5227230371955045
 30
0.0
 40
0.0042820242010807
 50
287.5957920479850145
 51
355.1880092342004787
  0
LINE
  5
B4B8
  8
0
 10
4347.6169251970968617
 20
184.5223638336609895
 30
0.0
 11
4347.6167814190575882
 21
184.5259287670085939
 31
0.0
  0
ARC
  5
B4B9
  8
0
 10
4347.6211921285548669
 20
184.5227230371955045
 30
0.0
 40
0.0042820242010807
 50
184.8119907657994929
 51
252.4042079520150139
  0
LINE
  5
B4BA
  8
0
 10
4347.6769308445409479
 20
184.5296770423533985
 30
0.0
 11
4347.6770735821028211
 21
184.5332161774086046
 31
0.0
  0
ARC
  5
B4BB
  8
0
 10
4347.6726639130811236
 20
184.5300362458879135
 30
0.0
 40
0.0042820242010807
 50
286.4154792501037718
 51
355.1880092342004787
  0
LINE
  5
B4BC
  8
0
 10
4347.6690418167399912
 20
184.5296770423533985
 30
0.0
 11
4347.6688990791772085
 21
184.5332161774086046
 31
0.0
  0
ARC
  5
B4BD
  8
0
 10
4347.673308748198906
 20
184.5300362458879135
 30
0.0
 40
0.0042820242010807
 50
184.8119907657994929
 51
253.5845207498961997
  0
LINE
  5
B4BE
  8
0
 10
4347.5686659825769311
 20
184.5137385683086109
 30
0.0
 11
4347.5678578599781758
 21
184.5137385683086109
 31
0.0
  0
LINE
  5
B4BF
  8
0
 10
4347.7596570579662512
 20
184.5369002344799014
 30
0.0
 11
4347.7596474732781644
 21
184.5346270081086004
 31
0.0
  0
LINE
  5
B4C0
  8
0
 10
4347.7309792535697852
 20
184.5322162127777119
 30
0.0
 11
4347.7308623768767575
 21
184.526903807508603
 31
0.0
  0
LINE
  5
B4C1
  8
0
 10
4347.6919807563799623
 20
184.5263738535421965
 30
0.0
 11
4347.6918041358258051
 21
184.5201105595589013
 31
0.0
  0
LINE
  5
B4C2
  8
0
 10
4347.6441827473372541
 20
184.5207793150605937
 30
0.0
 11
4347.6439737361497464
 21
184.5145083248559956
 31
0.0
  0
LINE
  5
B4C3
  8
0
 10
4347.5893822351454219
 20
184.5149628707794989
 30
0.0
 11
4347.5892092739768486
 21
184.5103123943086132
 31
0.0
  0
LINE
  5
B4C4
  8
0
 10
4347.5297883961111438
 20
184.5120510527468127
 30
0.0
 11
4347.5296153162780683
 21
184.5076840151085946
 31
0.0
  0
ARC
  5
B4C5
  8
0
 10
4347.7575458229412106
 20
184.5327237788316097
 30
0.0
 40
0.0020695054939693
 50
277.0741210395427174
 51
291.8158808538585163
  0
ARC
  5
B4C6
  8
0
 10
4347.7547566732928317
 20
184.5341866851823909
 30
0.0
 40
0.0049105813059761
 50
316.4359699057162061
 51
5.144518465592955
  0
ARC
  5
B4C7
  8
0
 10
4347.7279913884440248
 20
184.526762748966604
 30
0.0
 40
0.0037540255277215
 50
272.2282615701450936
 51
284.2503856147690158
  0
ARC
  5
B4C8
  8
0
 10
4347.7257315252400076
 20
184.5271555465228914
 30
0.0
 40
0.0051370235595981
 50
308.3019037502336914
 51
357.1911045141375212
  0
ARC
  5
B4C9
  8
0
 10
4347.6877654685686139
 20
184.5201202192542098
 30
0.0
 40
0.0040386788069238
 50
292.6032813611782899
 51
359.8629592564598738
  0
ARC
  5
B4CA
  8
0
 10
4347.6884508515749985
 20
184.5208114645394062
 30
0.0
 40
0.0045039176664856
 50
267.5296893648089167
 51
281.0970548473175086
  0
ARC
  5
B4CB
  8
0
 10
4347.6402731855678212
 20
184.5153881987077114
 30
0.0
 40
0.0045895103517853
 50
262.1663981654735949
 51
279.6607385576958791
  0
ARC
  5
B4CC
  8
0
 10
4347.6399898435665818
 20
184.5147111937201032
 30
0.0
 40
0.0039890547412935
 50
285.3137235772297799
 51
357.084886148446401
  0
ARC
  5
B4CD
  8
0
 10
4347.5855804986122166
 20
184.5103632410830983
 30
0.0
 40
0.0036291315830493
 50
275.8050013781247003
 51
359.1972181670535065
  0
ARC
  5
B4CE
  8
0
 10
4347.5852883639900028
 20
184.5116791136368875
 30
0.0
 40
0.0049703011048368
 50
255.8216625947439127
 51
277.6214261512009216
  0
ARC
  5
B4CF
  8
0
 10
4347.5256419575307518
 20
184.5088918043934996
 30
0.0
 40
0.0047024851652797
 50
240.4373941626926978
 51
276.1727826797875878
  0
ARC
  5
B4D0
  8
0
 10
4347.5256954076203328
 20
184.508136529032214
 30
0.0
 40
0.0039459412990429
 50
276.5804019732378265
 51
353.4149285396130153
  0
ARC
  5
B4D1
  8
0
 10
4347.4862683840456157
 20
185.2786751434815926
 30
0.0
 40
0.7345223742466706
 50
267.2792237114820182
 51
268.2266149276040892
  0
ARC
  5
B4D2
  8
0
 10
4347.4516628599176329
 20
184.5772374884438989
 30
0.0
 40
0.0322577706336234
 50
246.5905348296834916
 51
269.5359336531337817
  0
ARC
  5
B4D3
  8
0
 10
4347.4423617537368045
 20
184.5515829176723912
 30
0.0
 40
0.0052859622435787
 50
179.3541843954646993
 51
228.3216661512907137
  0
LINE
  5
B4D4
  8
0
 10
4347.4899988962779389
 20
184.551642497708599
 30
0.0
 11
4347.4901302641419534
 21
184.5550784085679936
 31
0.0
  0
ARC
  5
B4D5
  8
0
 10
4347.4408066395089918
 20
185.2786751434815926
 30
0.0
 40
0.7345223742466706
 50
271.7733850723959108
 51
272.7207762885179818
  0
ARC
  5
B4D6
  8
0
 10
4347.4754121636369746
 20
184.5772374884438989
 30
0.0
 40
0.0322577706336234
 50
270.4640663468662183
 51
293.4094651703165937
  0
ARC
  5
B4D7
  8
0
 10
4347.4847132698187124
 20
184.5515829176723912
 30
0.0
 40
0.0052859622435787
 50
311.6783338487093147
 51
0.6458156045352164
  0
LINE
  5
B4D8
  8
0
 10
4347.4595929976130719
 20
184.5443643320678859
 30
0.0
 11
4347.4595873415037204
 21
184.5445045735764893
 31
0.0
  0
ARC
  5
B4D9
  8
0
 10
4347.4638599290719867
 20
184.5447235356024009
 30
0.0
 40
0.0042820242010807
 50
184.8119907657994929
 51
260.2320758395844109
  0
LINE
  5
B4DA
  8
0
 10
4347.4674820254131191
 20
184.5443643320678859
 30
0.0
 11
4347.4674876815206517
 21
184.5445045735764893
 31
0.0
  0
ARC
  5
B4DB
  8
0
 10
4347.4632150939532949
 20
184.5447235356024009
 30
0.0
 40
0.0042820242010807
 50
279.7679241604154754
 51
355.1880092342004787
  0
LINE
  5
B4DC
  8
0
 10
4347.4595929978895583
 20
184.554825698267905
 30
0.0
 11
4347.4595828057808831
 21
184.5550784085679936
 31
0.0
  0
ARC
  5
B4DD
  8
0
 10
4347.4638599293512016
 20
184.5551849018023916
 30
0.0
 40
0.0042820242010807
 50
184.8119907657994929
 51
260.2320758395844109
  0
LINE
  5
B4DE
  8
0
 10
4347.4674820256914245
 20
184.554825698267905
 30
0.0
 11
4347.4674922178000998
 21
184.5550784085679936
 31
0.0
  0
ARC
  5
B4DF
  8
0
 10
4347.4632150942316002
 20
184.5551849018023916
 30
0.0
 40
0.0042820242010807
 50
279.7679241604154754
 51
355.1880092342004787
  0
ENDSEC
  0
EOF
