  0
SECTION
  2
HEADER
  9
$ACADVER
  1
AC1009
  9
$INSBASE
 10
4359.0867610243230956
 20
161.5422414203171115
 30
0.0
  9
$EXTMIN
 10
4358.0237688983215776
 20
152.232748603017086
 30
0.0
  9
$EXTMAX
 10
4385.852485433872971
 20
162.6052414203170997
 30
0.0
  9
$LIMMIN
 10
0.0
 20
0.0
  9
$LIMMAX
 10
11.6929133858000007
 20
8.2677165353999982
  9
$ORTHOMODE
 70
     1
  9
$REGENMODE
 70
     1
  9
$FILLMODE
 70
     1
  9
$QTEXTMODE
 70
     0
  9
$MIRRTEXT
 70
     0
  9
$DRAGMODE
 70
     2
  9
$LTSCALE
 40
0.6431102362
  9
$OSMODE
 70
  4095
  9
$ATTMODE
 70
     1
  9
$TEXTSIZE
 40
0.2
  9
$TRACEWID
 40
0.05
  9
$TEXTSTYLE
  7
STANDARD
  9
$CLAYER
  8
0
  9
$CELTYPE
  6
BYLAYER
  9
$CECOLOR
 62
   256
  9
$DIMSCALE
 40
1.0
  9
$DIMASZ
 40
0.1875
  9
$DIMEXO
 40
0.0625
  9
$DIMDLI
 40
0.4443307087
  9
$DIMRND
 40
0.0
  9
$DIMDLE
 40
0.0
  9
$DIMEXE
 40
0.125
  9
$DIMTP
 40
0.01
  9
$DIMTM
 40
0.01
  9
$DIMTXT
 40
2.0
  9
$DIMCEN
 40
0.1052362205
  9
$DIMTSZ
 40
0.0
  9
$DIMTOL
 70
     1
  9
$DIMLIM
 70
     0
  9
$DIMTIH
 70
     1
  9
$DIMTOH
 70
     1
  9
$DIMSE1
 70
     0
  9
$DIMSE2
 70
     0
  9
$DIMTAD
 70
     0
  9
$DIMZIN
 70
     0
  9
$DIMBLK
  1

  9
$DIMASO
 70
     1
  9
$DIMSHO
 70
     1
  9
$DIMPOST
  1
\X
  9
$DIMAPOST
  1

  9
$DIMALT
 70
     1
  9
$DIMALTD
 70
     2
  9
$DIMALTF
 40
25.3999999999999986
  9
$DIMLFAC
 40
1.0
  9
$DIMTOFL
 70
     0
  9
$DIMTVP
 40
0.0
  9
$DIMTIX
 70
     0
  9
$DIMSOXD
 70
     0
  9
$DIMSAH
 70
     0
  9
$DIMBLK1
  1

  9
$DIMBLK2
  1

  9
$DIMSTYLE
  2
STANDARD
  9
$DIMCLRD
 70
     0
  9
$DIMCLRE
 70
     0
  9
$DIMCLRT
 70
     0
  9
$DIMTFAC
 40
1.0
  9
$DIMGAP
 40
0.09
  9
$LUNITS
 70
     2
  9
$LUPREC
 70
     4
  9
$SKETCHINC
 40
0.1
  9
$FILLETRAD
 40
0.0
  9
$AUNITS
 70
     0
  9
$AUPREC
 70
     0
  9
$MENU
  1
.
  9
$ELEVATION
 40
0.0
  9
$PELEVATION
 40
0.0
  9
$THICKNESS
 40
0.0
  9
$LIMCHECK
 70
     0
  9
$BLIPMODE
 70
     0
  9
$CHAMFERA
 40
0.0
  9
$CHAMFERB
 40
0.0
  9
$SKPOLY
 70
     0
  9
$TDCREATE
 40
2458060.468368056230247
  9
$TDUPDATE
 40
2459124.742349537089467
  9
$TDINDWG
 40
0.3327616898
  9
$TDUSRTIMER
 40
0.3327616898
  9
$USRTIMER
 70
     1
  9
$ANGBASE
 50
0.0
  9
$ANGDIR
 70
     0
  9
$PDMODE
 70
     0
  9
$PDSIZE
 40
0.3125
  9
$PLINEWID
 40
0.0
  9
$COORDS
 70
     1
  9
$SPLFRAME
 70
     0
  9
$SPLINETYPE
 70
     6
  9
$SPLINESEGS
 70
     8
  9
$ATTDIA
 70
     1
  9
$ATTREQ
 70
     1
  9
$HANDLING
 70
     1
  9
$HANDSEED
  5
BD91
  9
$SURFTAB1
 70
     6
  9
$SURFTAB2
 70
     6
  9
$SURFTYPE
 70
     6
  9
$SURFU
 70
     6
  9
$SURFV
 70
     6
  9
$UCSNAME
  2

  9
$UCSORG
 10
0.0
 20
0.0
 30
0.0
  9
$UCSXDIR
 10
1.0
 20
0.0
 30
0.0
  9
$UCSYDIR
 10
0.0
 20
1.0
 30
0.0
  9
$PUCSNAME
  2

  9
$PUCSORG
 10
0.0
 20
0.0
 30
0.0
  9
$PUCSXDIR
 10
1.0
 20
0.0
 30
0.0
  9
$PUCSYDIR
 10
0.0
 20
1.0
 30
0.0
  9
$USERI1
 70
     0
  9
$USERI2
 70
     0
  9
$USERI3
 70
     0
  9
$USERI4
 70
     0
  9
$USERI5
 70
     0
  9
$USERR1
 40
0.0
  9
$USERR2
 40
0.0
  9
$USERR3
 40
0.0
  9
$USERR4
 40
0.0
  9
$USERR5
 40
0.0
  9
$WORLDVIEW
 70
     1
  9
$SHADEDGE
 70
     3
  9
$SHADEDIF
 70
    70
  9
$TILEMODE
 70
     1
  9
$MAXACTVP
 70
    64
  9
$PLIMCHECK
 70
     0
  9
$PEXTMIN
 10
1.0000000000000000E+20
 20
1.0000000000000000E+20
 30
1.0000000000000000E+20
  9
$PEXTMAX
 10
-1.0000000000000000E+20
 20
-1.0000000000000000E+20
 30
-1.0000000000000000E+20
  9
$PLIMMIN
 10
0.0
 20
0.0
  9
$PLIMMAX
 10
12.0
 20
9.0
  9
$UNITMODE
 70
     0
  9
$VISRETAIN
 70
     1
  9
$PLINEGEN
 70
     0
  9
$PSLTSCALE
 70
     1
  0
ENDSEC
  0
SECTION
  2
TABLES
  0
TABLE
  2
VPORT
 70
     1
  0
VPORT
  2
*ACTIVE
 70
     0
 10
0.0
 20
0.0
 11
1.0
 21
1.0
 12
0.0
 22
0.0
 13
0.0
 23
0.0
 14
1.0
 24
1.0
 15
0.0
 25
0.0
 16
0.0
 26
0.0
 36
84.1496411825798702
 17
4371.9384765625
 27
157.4189910888671875
 37
0.0
 40
29.7007118231289198
 41
2.1186252771618621
 42
50.0
 43
0.0
 44
0.0
 50
0.0
 51
0.0
 71
     0
 72
   100
 73
     1
 74
     1
 75
     0
 76
     0
 77
     0
 78
     0
  0
ENDTAB
  0
TABLE
  2
LTYPE
 70
     2
  0
LTYPE
  2
CONTINUOUS
 70
     0
  3
Solid line
 72
    65
 73
     0
 40
0.0
  0
LTYPE
  2
PHANTOM2
 70
     0
  3
___ _ _ ___ _ _ ___ _ _ ___ _ _
 72
    65
 73
     6
 40
1.25
 49
0.625
 49
-0.125
 49
0.125
 49
-0.125
 49
0.125
 49
-0.125
  0
ENDTAB
  0
TABLE
  2
LAYER
 70
     2
  0
LAYER
  2
0
 70
     0
 62
   255
  6
CONTINUOUS
  0
LAYER
  2
DEFPOINTS
 70
     0
 62
     7
  6
CONTINUOUS
  0
ENDTAB
  0
TABLE
  2
STYLE
 70
     1
  0
STYLE
  2
STANDARD
 70
     0
 40
0.0
 41
0.8
 50
0.0
 71
     0
 42
0.2
  3
txt
  4

  0
ENDTAB
  0
TABLE
  2
VIEW
 70
     0
  0
ENDTAB
  0
TABLE
  2
UCS
 70
     0
  0
ENDTAB
  0
TABLE
  2
APPID
 70
     9
  0
APPID
  2
ACAD
 70
     0
  0
APPID
  2
ACAD_MLEADERVER
 70
     0
  0
APPID
  2
ACAD_EXEMPT_FROM_CAD_STANDARDS
 70
     0
  0
APPID
  2
ACAD_NAV_VCDISPLAY
 70
     0
  0
APPID
  2
ACAECLAYERSTANDARD
 70
     0
  0
APPID
  2
ACCMTRANSPARENCY
 70
     0
  0
APPID
  2
ACAD_DSTYLE_DIMJAG
 70
     0
  0
APPID
  2
ACAD_DSTYLE_DIMTALN
 70
     0
  0
APPID
  2
ACDBATTR
 70
     0
  0
ENDTAB
  0
TABLE
  2
DIMSTYLE
 70
     1
  0
DIMSTYLE
  2
STANDARD
 70
     0
  3

  4

  5

  6

  7

 40
1.0
 41
0.1875
 42
0.0625
 43
0.38
 44
0.125
 45
0.0
 46
0.0
 47
0.01
 48
0.01
140
0.15625
141
0.09
142
0.0
143
25.3999999999999986
144
1.0
145
0.0
146
1.0
147
0.09
 71
     1
 72
     0
 73
     1
 74
     1
 75
     0
 76
     0
 77
     0
 78
     4
170
     0
171
     2
172
     0
173
     0
174
     0
175
     0
176
     0
177
     0
178
     0
  0
ENDTAB
  0
ENDSEC
  0
SECTION
  2
BLOCKS
  0
BLOCK
  8
0
  2
$MODEL_SPACE
 70
     0
 10
0.0
 20
0.0
 30
0.0
  3
$MODEL_SPACE
  1

  0
ENDBLK
  5
21
  8
0
  0
BLOCK
 67
     1
  8
0
  2
$PAPER_SPACE
 70
     0
 10
0.0
 20
0.0
 30
0.0
  3
$PAPER_SPACE
  1

  0
ENDBLK
  5
1D
 67
     1
  8
0
  0
ENDSEC
  0
SECTION
  2
ENTITIES
  0
ATTDEF
  5
3930
  8
DEFPOINTS
 10
4359.0841539685261523
 20
161.5463454551280051
 30
0.0
 40
0.001
  1
24278
  3

  2
MODELNUMBER
 70
     0
1001
ACDBATTR
1070
     0
1070
     1
  0
ATTDEF
  5
3931
  8
DEFPOINTS
 10
4359.0841539685261523
 20
161.5446787884613116
 30
0.0
 40
0.001
  1
VALTON
  3

  2
TRADENAME
 70
     0
1001
ACDBATTR
1070
     0
1070
     1
  0
ATTDEF
  5
3932
  8
DEFPOINTS
 10
4359.0841539685261523
 20
161.5430121217945896
 30
0.0
 40
0.001
  1
KITCHEN SINK FAUCET
  3

  2
PRODUCT
 70
     0
1001
ACDBATTR
1070
     0
1070
     1
  0
LINE
  5
BBEA
  8
0
 10
4384.6137288861718844
 20
160.1096102712170932
 30
0.0
 11
4384.6338319556743954
 21
160.113619670517096
 31
0.0
  0
LINE
  5
BBEB
  8
0
 10
4384.6238371896652097
 20
160.1242065191472079
 30
0.0
 11
4384.5884222873719409
 21
160.1167786947171123
 31
0.0
  0
LINE
  5
BBEC
  8
0
 10
4384.5104656913736108
 20
160.1676872067170905
 30
0.0
 11
4384.5558074691725778
 21
160.1676872067170905
 31
0.0
  0
LINE
  5
BBED
  8
0
 10
4384.5104656913736108
 20
160.1770449190171064
 30
0.0
 11
4384.5558074691725778
 21
160.1770449190171064
 31
0.0
  0
LINE
  5
BBEE
  8
0
 10
4384.5270897778718791
 20
160.1994539163171112
 30
0.0
 11
4384.5696971118732108
 21
160.1957679307170963
 31
0.0
  0
LINE
  5
BBEF
  8
0
 10
4384.5831624718730382
 20
160.204561303917103
 30
0.0
 11
4384.5405551378726159
 21
160.2082472895170895
 31
0.0
  0
LINE
  5
BBF0
  8
0
 10
4384.8188734183158886
 20
160.2625345769077967
 30
0.0
 11
4384.818995433272903
 21
160.2515963355170925
 31
0.0
  0
LINE
  5
BBF1
  8
0
 10
4384.42532007947284
 20
160.1800144256170881
 30
0.0
 11
4384.42532007947284
 21
160.1928610826170996
 31
0.0
  0
LINE
  5
BBF2
  8
0
 10
4384.5434303156725946
 20
161.7024369813171063
 30
0.0
 11
4384.5434303156725946
 21
162.1004354080170913
 31
0.0
  0
LINE
  5
BBF3
  8
0
 10
4384.5709823122733724
 20
161.6783123764170966
 30
0.0
 11
4384.5709823122733724
 21
162.0139598797171061
 31
0.0
  0
LINE
  5
BBF4
  8
0
 10
4384.6123279534722315
 20
160.1723660628171046
 30
0.0
 11
4384.6123279534722315
 21
160.1580624411170959
 31
0.0
  0
LINE
  5
BBF5
  8
0
 10
4384.7097738135962572
 20
160.2528644899180961
 30
0.0
 11
4384.7097365025729232
 21
160.2404150456171124
 31
0.0
  0
LINE
  5
BBF6
  8
0
 10
4384.6233629569733239
 20
160.2332004148171052
 30
0.0
 11
4384.6231561041731766
 21
160.2210260441171101
 31
0.0
  0
LINE
  5
BBF7
  8
0
 10
4384.5699840129718723
 20
160.205701380217107
 30
0.0
 11
4384.5696971118732108
 21
160.1957679307170963
 31
0.0
  0
ARC
  5
BBF8
  8
0
 10
4383.9656677370530815
 20
160.1171069229548038
 30
0.0
 40
0.6481045076343116
 50
359.3372425569517077
 51
0.4406670799484166
  0
ARC
  5
BBF9
  8
0
 10
4381.55756877820113
 20
160.1411112648171979
 30
0.0
 40
2.9829899473722779
 50
359.9111378359843911
 51
0.1024094313282584
  0
ARC
  5
BBFA
  8
0
 10
4384.8977610243719027
 20
161.542249294417104
 30
0.0
 40
0.9547244093999999
 50
89.999999996977607
 51
235.0166238293064964
  0
ARC
  5
BBFB
  8
0
 10
4384.8949528809198455
 20
161.5434676476475033
 30
0.0
 40
0.6239319538355682
 50
137.6708913091690079
 51
213.2126798535940964
  0
ARC
  5
BBFC
  8
0
 10
4384.8863983957271557
 20
161.542891331204288
 30
0.0
 40
0.5968172665313897
 50
141.1023876366477907
 51
210.9679299020073131
  0
LINE
  5
BBFD
  8
0
 10
4384.5709823122733724
 20
162.0139598797171061
 30
0.0
 11
4384.5841389598735987
 21
162.2366232696170982
 31
0.0
  0
LINE
  5
BBFE
  8
0
 10
4358.5355799219232722
 20
152.7785656487170911
 30
0.0
 11
4358.5355799219232722
 21
158.742765988199011
 31
0.0
  0
LINE
  5
BBFF
  8
0
 10
4358.5405598210227254
 20
158.7114694448171122
 30
0.0
 11
4358.1147375185228157
 21
161.3875811281170911
 31
0.0
  0
ARC
  5
BC00
  8
0
 10
4359.0867610243230956
 20
161.542249294317088
 30
0.0
 40
1.062992125999999
 50
90.0
 51
211.232702719098512
  0
ARC
  5
BC01
  8
0
 10
4359.0867610243230956
 20
161.542249294317088
 30
0.0
 40
0.9842519684999999
 50
90.0
 51
189.0410961522001116
  0
ARC
  5
BC02
  8
0
 10
4359.1137714835731458
 20
152.8282399367930964
 30
0.0
 40
0.5961035929360154
 50
207.2156336500877103
 51
267.4029423802401766
  0
ARC
  5
BC03
  8
0
 10
4359.2519831890313071
 20
152.8164085108155064
 30
0.0
 40
0.7174020653258227
 50
183.0237480291183942
 51
201.3166105205490055
  0
ARC
  5
BC04
  8
0
 10
4359.1026592569041895
 20
158.8224167658545127
 30
0.0
 40
0.6169267675752251
 50
237.2479951179942077
 51
268.5233215228626023
  0
ARC
  5
BC05
  8
0
 10
4359.0923242728413243
 20
158.740235868114496
 30
0.0
 40
0.5433981855447308
 50
199.9974802282658004
 51
233.4738696158505036
  0
ARC
  5
BC06
  8
0
 10
4359.3140731442372271
 20
158.830105316222614
 30
0.0
 40
0.7825581966691303
 50
188.719663906489501
 51
200.6284385973509927
  0
LINE
  5
BC07
  8
0
 10
4359.6379421267229191
 20
152.7785656487170911
 30
0.0
 11
4359.6379421267229191
 21
158.742765988199011
 31
0.0
  0
LINE
  5
BC08
  8
0
 10
4359.6329622276243754
 20
158.7114694448171122
 30
0.0
 11
4360.0587845301233756
 21
161.3875811281170911
 31
0.0
  0
ARC
  5
BC09
  8
0
 10
4359.0867610243230956
 20
161.542249294317088
 30
0.0
 40
1.062992125999999
 50
328.7672972809014027
 51
90.0
  0
ARC
  5
BC0A
  8
0
 10
4359.0867610243230956
 20
161.542249294317088
 30
0.0
 40
0.9842519684999999
 50
350.9589038477997747
 51
90.0
  0
ARC
  5
BC0B
  8
0
 10
4359.0597505650721359
 20
152.8282399367930964
 30
0.0
 40
0.5961035929360154
 50
272.5970576197598234
 51
332.7843663499123181
  0
ARC
  5
BC0C
  8
0
 10
4358.9215388596157936
 20
152.8164085108155064
 30
0.0
 40
0.7174020653258227
 50
338.6833894794509092
 51
356.9762519708799005
  0
ARC
  5
BC0D
  8
0
 10
4359.0708627917420017
 20
158.8224167658545127
 30
0.0
 40
0.6169267675752251
 50
271.4766784771373977
 51
302.7520048820057923
  0
ARC
  5
BC0E
  8
0
 10
4359.081197775804867
 20
158.740235868114496
 30
0.0
 40
0.5433981855447308
 50
306.5261303841494964
 51
340.002519771734228
  0
ARC
  5
BC0F
  8
0
 10
4358.8594489044089642
 20
158.830105316222614
 30
0.0
 40
0.7825581966691303
 50
339.3715614026489789
 51
351.2803360935104138
  0
ARC
  5
BC11
  8
0
 10
4384.9546652750332214
 20
164.23910500124191
 30
0.0
 40
4.1910724085530289
 50
266.247461241514884
 51
269.2220431286019107
  0
ARC
  5
BC12
  8
0
 10
4384.7588130632402681
 20
161.2370530221201079
 30
0.0
 40
1.1826392097728291
 50
253.2520100198402133
 51
266.1968812351709062
  0
ARC
  5
BC13
  8
0
 10
4384.4806262292177053
 20
160.3204620662571926
 30
0.0
 40
0.224776986415474
 50
223.8233205854924108
 51
253.8279053180804965
  0
ARC
  5
BC14
  8
0
 10
4384.3810995227413514
 20
160.1963899722917972
 30
0.0
 40
0.070151117053359
 50
182.3092851127817084
 51
206.7471414440410058
  0
ARC
  5
BC15
  8
0
 10
4384.4474091769479855
 20
160.0987172556515077
 30
0.0
 40
0.1661378137434198
 50
107.0949660085628068
 51
145.1878351430439977
  0
ARC
  5
BC16
  8
0
 10
4384.7519998653669973
 20
159.1830867510545886
 30
0.0
 40
1.131064624503981
 50
92.4094294312679239
 51
108.2083708293574063
  0
ARC
  5
BC17
  8
0
 10
4384.9080588084725605
 20
156.9195575879554099
 30
0.0
 40
3.3996964252450002
 50
90.1735509271469056
 51
93.4335187217325966
  0
ARC
  5
BC18
  8
0
 10
4384.6445036381755926
 20
160.1663424342488042
 30
0.0
 40
0.0327346725534552
 50
118.9102385092753025
 51
169.3963649728140979
  0
ARC
  5
BC19
  8
0
 10
4384.795501853011956
 20
159.8541814705160959
 30
0.0
 40
0.3794545094088521
 50
94.6662399748781098
 51
116.0809216640029007
  0
ARC
  5
BC1A
  8
0
 10
4384.9585138253642072
 20
158.0719238107911053
 30
0.0
 40
2.16913654819415
 50
91.6049401501561107
 51
95.1280366823064725
  0
ARC
  5
BC1B
  8
0
 10
4384.6451387181650716
 20
160.1517276007812995
 30
0.0
 40
0.0334167096194603
 50
117.5890225511264049
 51
169.0722484560812973
  0
ARC
  5
BC1C
  8
0
 10
4384.7806263491766003
 20
159.8795247124984087
 30
0.0
 40
0.337468951965996
 50
97.2170407778773438
 51
116.5732294422807058
  0
ARC
  5
BC1D
  8
0
 10
4384.8845168144116542
 20
159.2675981539977101
 30
0.0
 40
0.9579571659446607
 50
92.3086280640691115
 51
98.7837946393450324
  0
ARC
  5
BC1E
  8
0
 10
4384.926597596204374
 20
157.7094571862926102
 30
0.0
 40
2.5166138510382088
 50
90.656536963424557
 51
91.8369172946611201
  0
ARC
  5
BC1F
  8
0
 10
4384.6716675085926909
 20
160.159350545761697
 30
0.0
 40
0.0593535341438672
 50
181.2435443882876882
 51
230.3972607595285922
  0
ARC
  5
BC20
  8
0
 10
4384.7396418763046313
 20
160.2489879259800034
 30
0.0
 40
0.1718147371187968
 50
231.9872161250277998
 51
259.3467487249478722
  0
ARC
  5
BC21
  8
0
 10
4384.823052870421634
 20
160.4713085627680869
 30
0.0
 40
0.4077769084871689
 50
253.5939701109747091
 51
266.8170303952522886
  0
ARC
  5
BC22
  8
0
 10
4384.9226529286597724
 20
162.2025272806544933
 30
0.0
 40
2.1418577373575651
 50
266.7281931205379237
 51
269.3341139617443218
  0
LINE
  5
BC23
  8
0
 10
4384.5884222873719409
 20
160.1167786947171123
 30
0.0
 11
4384.6137288861946217
 21
160.109610271173608
 31
0.0
  0
LINE
  5
BC24
  8
0
 10
4384.5270897779719235
 20
160.1452782094171141
 30
0.0
 11
4384.5696971118732108
 21
160.1489641950171006
 31
0.0
  0
LINE
  5
BC25
  8
0
 10
4384.5696971118732108
 20
160.1489641950171006
 30
0.0
 11
4384.5831624718675812
 21
160.1401708218166959
 31
0.0
  0
LINE
  5
BC26
  8
0
 10
4384.5831624718675812
 20
160.1401708218166959
 30
0.0
 11
4384.5405551379726603
 21
160.1364848362171074
 31
0.0
  0
LINE
  5
BC27
  8
0
 10
4384.5405551379726603
 20
160.1364848362171074
 30
0.0
 11
4384.5270897779719235
 21
160.1452782094171141
 31
0.0
  0
ARC
  5
BC28
  8
0
 10
4384.5321099498150943
 20
160.1723660629047004
 30
0.0
 40
0.0221442005514961
 50
167.8020186295323981
 51
192.1979815694789977
  0
ARC
  5
BC29
  8
0
 10
4384.5748647774998972
 20
160.1723660628670984
 30
0.0
 40
0.0196232692364104
 50
166.2058630774027961
 51
193.7941369225781898
  0
ARC
  5
BC2A
  8
0
 10
4384.5958137536217691
 20
160.108922855038486
 30
0.0
 40
0.1136611538698698
 50
119.0891402752423005
 51
127.2028749694949994
  0
ARC
  5
BC2B
  8
0
 10
4384.630148324212314
 20
160.1179050156528092
 30
0.0
 40
0.0985747564831311
 50
118.4669645395381963
 51
127.8250506967793001
  0
LINE
  5
BC2C
  8
0
 10
4384.6137288860727494
 20
160.2351218546170912
 30
0.0
 11
4384.64846270297312
 21
160.2281944676171861
 31
0.0
  0
LINE
  5
BC2D
  8
0
 10
4384.64846270297312
 20
160.2281944676171861
 30
0.0
 11
4384.6231561041731766
 21
160.2210260441171101
 31
0.0
  0
LINE
  5
BC2E
  8
0
 10
4384.6231561041731766
 20
160.2210260441171101
 30
0.0
 11
4384.5884222872718965
 21
160.227953431017113
 31
0.0
  0
LINE
  5
BC2F
  8
0
 10
4384.5884222872718965
 20
160.227953431017113
 30
0.0
 11
4384.6137288860727494
 21
160.2351218546170912
 31
0.0
  0
LINE
  5
BC30
  8
0
 10
4384.6870656138062259
 20
160.2497482887621914
 30
0.0
 11
4384.7211611020311466
 21
160.2544271448936115
 31
0.0
  0
LINE
  5
BC31
  8
0
 10
4384.7211611020311466
 20
160.2544271448936115
 30
0.0
 11
4384.743831990873332
 21
160.2450939018171141
 31
0.0
  0
LINE
  5
BC32
  8
0
 10
4384.743831990873332
 20
160.2450939018171141
 30
0.0
 11
4384.7097365025729232
 21
160.2404150456171124
 31
0.0
  0
LINE
  5
BC33
  8
0
 10
4384.7097365025729232
 20
160.2404150456171124
 30
0.0
 11
4384.6870656138071354
 21
160.2497482887621914
 31
0.0
  0
LINE
  5
BC34
  8
0
 10
4384.8111219161255576
 20
160.262209708073101
 30
0.0
 11
4384.8498938748416549
 21
160.2638346577589914
 31
0.0
  0
LINE
  5
BC35
  8
0
 10
4384.8498938748416549
 20
160.2638346577589914
 30
0.0
 11
4384.8577673919253357
 21
160.25322128528191
 31
0.0
  0
LINE
  5
BC36
  8
0
 10
4384.8577673919253357
 20
160.25322128528191
 30
0.0
 11
4384.8189954332146954
 21
160.2515963355957069
 31
0.0
  0
LINE
  5
BC37
  8
0
 10
4384.8189954332146954
 20
160.2515963355957069
 30
0.0
 11
4384.8111219161728513
 21
160.2622097080171102
 31
0.0
  0
ARC
  5
BC38
  8
0
 10
4384.4758234240052843
 20
160.1841916183039132
 30
0.0
 40
0.0506758004147578
 50
184.7282406043821936
 51
238.4892333320719047
  0
ARC
  5
BC39
  8
0
 10
4384.6992078645516813
 20
160.6031578186129991
 30
0.0
 40
0.5253911975853069
 50
241.6022538631254974
 51
257.7337432815240845
  0
ARC
  5
BC3A
  8
0
 10
4384.7816338076290776
 20
160.9887436444776938
 30
0.0
 40
0.9196872596232175
 50
257.8194285143061961
 51
268.2559037152689143
  0
ARC
  5
BC3B
  8
0
 10
4384.4514293762649686
 20
160.1710700328625023
 30
0.0
 40
0.034008017119776
 50
140.1513262961767055
 51
177.815955208588008
  0
ARC
  5
BC3C
  8
0
 10
4384.4583379164678263
 20
160.1757819902134941
 30
0.0
 40
0.041034280607151
 50
184.7751532965961871
 51
232.4613027252335087
  0
ARC
  5
BC3D
  8
0
 10
4384.5734006039656379
 20
160.327171899692587
 30
0.0
 40
0.2311872402051432
 50
232.7099782470882872
 51
254.9374822220877945
  0
ARC
  5
BC3E
  8
0
 10
4384.7840763996173337
 20
161.0215451453543949
 30
0.0
 40
0.9567289492910541
 50
253.5606146579297899
 51
264.2850306264796245
  0
ARC
  5
BC3F
  8
0
 10
4384.8823350437078261
 20
161.7730765475868111
 30
0.0
 40
1.714462883153413
 50
263.518608850005478
 51
267.2565369677034823
  0
ARC
  5
BC40
  8
0
 10
4372.2728084715117802
 20
161.3149453286517883
 30
0.0
 40
12.0903135747614403
 50
354.6781417328909924
 51
357.369323015867792
  0
ARC
  5
BC41
  8
0
 10
4126.8094014411508397
 20
174.1382474771430111
 30
0.0
 40
257.8882174915232213
 50
357.0263866605790781
 51
357.1819890896123866
  0
ARC
  5
BC42
  8
0
 10
4384.5859951185266254
 20
162.1951745190959002
 30
0.0
 40
0.5170801281098222
 50
268.3362514151514233
 51
278.4913457140834794
  0
ARC
  5
BC43
  8
0
 10
4384.9208185440411398
 20
159.539275362776209
 30
0.0
 40
2.1600075603669362
 50
90.6116291792676662
 51
96.8726104040443374
  0
ARC
  5
BC44
  8
0
 10
4384.575844585429877
 20
161.7191690229784911
 30
0.0
 40
0.0411449543504155
 50
233.3896835470368956
 51
263.2132563020908833
  0
ARC
  5
BC45
  8
0
 10
4384.5647616920668952
 20
161.702696492176301
 30
0.0
 40
0.0213329549004353
 50
180.6970081633236873
 51
230.8981984679292054
  0
ARC
  5
BC46
  8
0
 10
4384.5565287551789879
 20
162.0965617005309127
 30
0.0
 40
0.0136592359667252
 50
111.4853780218719947
 51
163.5250447184241125
  0
ARC
  5
BC47
  8
0
 10
4384.5975088640479953
 20
162.0120672103616073
 30
0.0
 40
0.1075321446615728
 50
100.935876386494698
 51
115.3166707594682947
  0
ARC
  5
BC48
  8
0
 10
4384.7503533627577781
 20
162.2289876551064935
 30
0.0
 40
0.1663896941975098
 50
146.7038571733924073
 51
177.369775913702
  0
ARC
  5
BC49
  8
0
 10
4384.7997092182386041
 20
162.182153991184407
 30
0.0
 40
0.233664582983141
 50
105.4387563266968044
 51
143.7475924725735013
  0
ARC
  5
BC4A
  8
0
 10
4384.9264744207221156
 20
161.702003223890614
 30
0.0
 40
0.7302570080923014
 50
92.2534266844763806
 51
104.9970927196054049
  0
ARC
  5
BC4B
  8
0
 10
4384.575510380972446
 20
161.9939115110655052
 30
0.0
 40
0.3175931054419764
 50
265.0325789942563119
 51
277.4674252246949777
  0
ARC
  5
BC4C
  8
0
 10
4384.5503346108816913
 20
161.7187900589941023
 30
0.0
 40
0.0413441945447395
 50
202.9126884567332922
 51
266.7771067876429925
  0
ARC
  5
BC4D
  8
0
 10
4384.9110269162401892
 20
161.733642592996091
 30
0.0
 40
0.3999735865098386
 50
172.1200446249160052
 51
184.4378441663506862
  0
ARC
  5
BC4E
  8
0
 10
4382.8861961756492747
 20
161.9614344386818914
 30
0.0
 40
1.6377918918493579
 50
353.9380724753988829
 51
1.6292937538047481
  0
ARC
  5
BC4F
  8
0
 10
4384.3810119223599031
 20
162.0006260006178138
 30
0.0
 40
0.1425049813026413
 50
2.9666490227863029
 51
25.1453224676776586
  0
ARC
  5
BC50
  8
0
 10
4384.5313364339281179
 20
162.0744344031348021
 30
0.0
 40
0.0251086139338361
 50
139.4246034143216093
 51
211.8662898868203115
  0
ARC
  5
BC51
  8
0
 10
4384.5952314005398875
 20
161.9980268114622959
 30
0.0
 40
0.1244347208322402
 50
98.2775057310298052
 51
131.8163389295083903
  0
ARC
  5
BC52
  8
0
 10
4384.7461074866941999
 20
161.8583968603259962
 30
0.0
 40
0.3296631077151168
 50
135.1810166048634017
 51
161.3871483604567914
  0
ARC
  5
BC53
  8
0
 10
4385.213718826225886
 20
161.4529661139812049
 30
0.0
 40
0.827981604332759
 50
160.4781103781934917
 51
179.5480107080275047
  0
ARC
  5
BC54
  8
0
 10
4384.8696753535659809
 20
161.5698723049783894
 30
0.0
 40
0.4646742735929245
 50
138.4614918096503118
 51
159.8884331277967874
  0
ARC
  5
BC55
  8
0
 10
4385.860731025441055
 20
161.5736175558683954
 30
0.0
 40
1.4793762371867289
 50
164.714816603823607
 51
184.4242198478953867
  0
ARC
  5
BC56
  8
0
 10
4384.9315770651837738
 20
163.4922540009544889
 30
0.0
 40
1.2876604805117611
 50
262.7061746855000024
 51
268.4951474223739183
  0
ARC
  5
BC57
  8
0
 10
4384.8005448270887427
 20
162.4164185807256899
 30
0.0
 40
0.2040022611235738
 50
246.5697237255251082
 51
260.848345626753428
  0
ARC
  5
BC58
  8
0
 10
4384.7362481327108981
 20
162.2736128418218868
 30
0.0
 40
0.0474566727067538
 50
197.8566597782555903
 51
249.2399019122898096
  0
ARC
  5
BC59
  8
0
 10
4384.7831379827521232
 20
162.2699520535713873
 30
0.0
 40
0.0927023741237917
 50
149.5340213709523027
 51
186.7469965600120076
  0
ARC
  5
BC5A
  8
0
 10
4384.8170667665635847
 20
162.2412762685306973
 30
0.0
 40
0.1366926747263104
 50
108.7871945056981957
 51
146.38299476332989
  0
ARC
  5
BC5B
  8
0
 10
4384.9080118673518882
 20
162.000072135435687
 30
0.0
 40
0.394424859236652
 50
91.4892473457442037
 51
110.0102482055712017
  0
ARC
  5
BC5C
  8
0
 10
4384.4809620383821311
 20
160.149384388251292
 30
0.0
 40
0.0706133878535191
 50
126.617268499930006
 51
141.997166441439191
  0
ARC
  5
BC5D
  8
0
 10
4384.6421940782802267
 20
159.8703973185301948
 30
0.0
 40
0.3924561209970404
 50
99.3692289085016256
 51
121.208143704726993
  0
ARC
  5
BC5E
  8
0
 10
4384.8543537643363379
 20
158.8753002772517959
 30
0.0
 40
1.4096119371632301
 50
93.6768677059416319
 51
101.2934503676219009
  0
ARC
  5
BC5F
  8
0
 10
4384.6227225658576572
 20
166.4499072152786141
 30
0.0
 40
6.1695133435569121
 50
271.3117399485743135
 51
272.5551070930999913
  0
ARC
  5
BC60
  8
0
 10
4384.9056566729832412
 20
164.1872509197204977
 30
0.0
 40
4.1280175952335423
 50
268.5371536733508151
 51
269.8904104441377854
  0
LINE
  5
BC61
  8
0
 10
4385.1817931626719655
 20
160.1096102712170932
 30
0.0
 11
4385.161690093172183
 21
160.113619670517096
 31
0.0
  0
LINE
  5
BC62
  8
0
 10
4385.1716848591795497
 20
160.1242065191472079
 30
0.0
 11
4385.2070997614728185
 21
160.1167786947171123
 31
0.0
  0
LINE
  5
BC63
  8
0
 10
4385.2850563574729676
 20
160.1676872067170905
 30
0.0
 11
4385.2397145796730911
 21
160.1676872067170905
 31
0.0
  0
LINE
  5
BC64
  8
0
 10
4385.2850563574729676
 20
160.1770449190171064
 30
0.0
 11
4385.2397145796730911
 21
160.1770449190171064
 31
0.0
  0
LINE
  5
BC65
  8
0
 10
4385.2684322709719709
 20
160.1994539163171112
 30
0.0
 11
4385.2258249369733676
 21
160.1957679307170963
 31
0.0
  0
LINE
  5
BC66
  8
0
 10
4385.2123595769726307
 20
160.204561303917103
 30
0.0
 11
4385.254966910973053
 21
160.2082472895170895
 31
0.0
  0
LINE
  5
BC67
  8
0
 10
4384.9766486305288709
 20
160.2625345769077967
 30
0.0
 11
4384.9765266155727659
 21
160.2515963355170925
 31
0.0
  0
LINE
  5
BC68
  8
0
 10
4385.3702019693719194
 20
160.1800144256170881
 30
0.0
 11
4385.3702019693719194
 21
160.1928610826170996
 31
0.0
  0
LINE
  5
BC69
  8
0
 10
4385.2520917331730743
 20
161.7024369813171063
 30
0.0
 11
4385.2520917331730743
 21
162.1004354080170913
 31
0.0
  0
LINE
  5
BC6A
  8
0
 10
4385.224539736573206
 20
161.6783123764170966
 30
0.0
 11
4385.224539736573206
 21
162.0139598797171061
 31
0.0
  0
LINE
  5
BC6B
  8
0
 10
4385.1831940953743469
 20
160.1723660628171046
 30
0.0
 11
4385.1831940953743469
 21
160.1580624411170959
 31
0.0
  0
LINE
  5
BC6C
  8
0
 10
4385.0857482352512307
 20
160.2528644899180961
 30
0.0
 11
4385.0857855462718362
 21
160.2404150456171124
 31
0.0
  0
LINE
  5
BC6D
  8
0
 10
4385.1721590918732545
 20
160.2332004148171052
 30
0.0
 11
4385.1723659446734018
 21
160.2210260441171101
 31
0.0
  0
LINE
  5
BC6E
  8
0
 10
4385.2255380358719776
 20
160.205701380217107
 30
0.0
 11
4385.2258249369733676
 21
160.1957679307170963
 31
0.0
  0
ARC
  5
BC6F
  8
0
 10
4385.8298543117925874
 20
160.1171069229548038
 30
0.0
 40
0.6481045076343116
 50
179.5593329200515882
 51
180.6627574430482923
  0
ARC
  5
BC70
  8
0
 10
4388.2379532706454484
 20
160.1411112648171979
 30
0.0
 40
2.9829899473722779
 50
179.8975905686716885
 51
180.0888621640156089
  0
ARC
  5
BC71
  8
0
 10
4384.8977610244728567
 20
161.542249294417104
 30
0.0
 40
0.9547244093999999
 50
304.9833761706934752
 51
90.0000000030223788
  0
ARC
  5
BC72
  8
0
 10
4384.9005691679258234
 20
161.5434676476475033
 30
0.0
 40
0.6239319538355682
 50
326.7873201464058752
 51
42.3291086908309779
  0
ARC
  5
BC73
  8
0
 10
4384.9091236531194227
 20
161.542891331204288
 30
0.0
 40
0.5968172665313897
 50
329.0320700979926869
 51
38.8976123633521667
  0
LINE
  5
BC74
  8
0
 10
4385.224539736573206
 20
162.0139598797171061
 30
0.0
 11
4385.2113830889720703
 21
162.2366232696170982
 31
0.0
  0
ARC
  5
BC75
  8
0
 10
4384.840856773813357
 20
164.23910500124191
 30
0.0
 40
4.1910724085530289
 50
270.777956871398203
 51
273.752538758485116
  0
ARC
  5
BC76
  8
0
 10
4385.0367089856063103
 20
161.2370530221201079
 30
0.0
 40
1.1826392097728291
 50
273.8031187648290938
 51
286.7479899801597867
  0
ARC
  5
BC77
  8
0
 10
4385.3148958196279636
 20
160.3204620662571926
 30
0.0
 40
0.224776986415474
 50
286.1720946819194751
 51
316.1766794145075892
  0
ARC
  5
BC78
  8
0
 10
4385.414422526105227
 20
160.1963899722917972
 30
0.0
 40
0.070151117053359
 50
333.2528585559589942
 51
357.6907148872181779
  0
ARC
  5
BC79
  8
0
 10
4385.3481128718976834
 20
160.0987172556515077
 30
0.0
 40
0.1661378137434198
 50
34.812164856955917
 51
72.9050339914371222
  0
ARC
  5
BC7A
  8
0
 10
4385.0435221834786716
 20
159.1830867510545886
 30
0.0
 40
1.131064624503981
 50
71.7916291706425653
 51
87.5905705687320761
  0
ARC
  5
BC7B
  8
0
 10
4384.8874632403740179
 20
156.9195575879554099
 30
0.0
 40
3.3996964252450002
 50
86.5664812782673891
 51
89.8264490728530944
  0
ARC
  5
BC7C
  8
0
 10
4385.1510184106700763
 20
160.1663424342488042
 30
0.0
 40
0.0327346725534552
 50
10.6036350271859003
 51
61.089761490724662
  0
ARC
  5
BC7D
  8
0
 10
4385.0000201958328034
 20
159.8541814705160959
 30
0.0
 40
0.3794545094088521
 50
63.9190783359971419
 51
85.3337600251219044
  0
ARC
  5
BC7E
  8
0
 10
4384.8370082234823712
 20
158.0719238107911053
 30
0.0
 40
2.16913654819415
 50
84.8719633176935417
 51
88.3950598498438893
  0
ARC
  5
BC7F
  8
0
 10
4385.1503833306805973
 20
160.1517276007812995
 30
0.0
 40
0.0334167096194603
 50
10.9277515439186192
 51
62.410977448873588
  0
ARC
  5
BC80
  8
0
 10
4385.0148956996690686
 20
159.8795247124984087
 30
0.0
 40
0.337468951965996
 50
63.4267705577192373
 51
82.7829592221226704
  0
ARC
  5
BC81
  8
0
 10
4384.9110052344340147
 20
159.2675981539977101
 30
0.0
 40
0.9579571659446607
 50
81.2162053606549676
 51
87.6913719359308743
  0
ARC
  5
BC82
  8
0
 10
4384.8689244526422044
 20
157.7094571862926102
 30
0.0
 40
2.5166138510382088
 50
88.1630827053388941
 51
89.343463036575443
  0
ARC
  5
BC83
  8
0
 10
4385.123854540252978
 20
160.159350545761697
 30
0.0
 40
0.0593535341438672
 50
309.6027392404712941
 51
358.7564556117122834
  0
ARC
  5
BC84
  8
0
 10
4385.0558801725410376
 20
160.2489879259800034
 30
0.0
 40
0.1718147371187968
 50
280.6532512750520141
 51
308.0127838749721718
  0
ARC
  5
BC85
  8
0
 10
4384.9724691784240349
 20
160.4713085627680869
 30
0.0
 40
0.4077769084871689
 50
273.1829696047475977
 51
286.4060298890252056
  0
ARC
  5
BC86
  8
0
 10
4384.8728691201858965
 20
162.2025272806544933
 30
0.0
 40
2.1418577373575651
 50
270.6658860382556213
 51
273.2718068794620763
  0
LINE
  5
BC87
  8
0
 10
4385.2070997614728185
 20
160.1167786947171123
 30
0.0
 11
4385.1817931626510472
 21
160.109610271173608
 31
0.0
  0
LINE
  5
BC88
  8
0
 10
4385.2684322708728359
 20
160.1452782094171141
 30
0.0
 11
4385.2258249369733676
 21
160.1489641950171006
 31
0.0
  0
LINE
  5
BC89
  8
0
 10
4385.2258249369733676
 20
160.1489641950171006
 30
0.0
 11
4385.2123595769780877
 21
160.1401708218166959
 31
0.0
  0
LINE
  5
BC8A
  8
0
 10
4385.2123595769780877
 20
160.1401708218166959
 30
0.0
 11
4385.2549669108730086
 21
160.1364848362171074
 31
0.0
  0
LINE
  5
BC8B
  8
0
 10
4385.2549669108730086
 20
160.1364848362171074
 30
0.0
 11
4385.2684322708728359
 21
160.1452782094171141
 31
0.0
  0
ARC
  5
BC8C
  8
0
 10
4385.2634120990305746
 20
160.1723660629047004
 30
0.0
 40
0.0221442005514961
 50
347.8020184305210023
 51
12.1979813704675895
  0
ARC
  5
BC8D
  8
0
 10
4385.2206572713466812
 20
160.1723660628670984
 30
0.0
 40
0.0196232692364104
 50
346.2058630774217818
 51
13.7941369225972306
  0
ARC
  5
BC8E
  8
0
 10
4385.1997082952238998
 20
160.108922855038486
 30
0.0
 40
0.1136611538698698
 50
52.7971250305050219
 51
60.9108597247576284
  0
ARC
  5
BC8F
  8
0
 10
4385.1653737246342644
 20
160.1179050156528092
 30
0.0
 40
0.0985747564831311
 50
52.1749493032207283
 51
61.5330354604610079
  0
LINE
  5
BC90
  8
0
 10
4385.1817931627729195
 20
160.2351218546170912
 30
0.0
 11
4385.1470593458725489
 21
160.2281944676171861
 31
0.0
  0
LINE
  5
BC91
  8
0
 10
4385.1470593458725489
 20
160.2281944676171861
 30
0.0
 11
4385.1723659446734018
 21
160.2210260441171101
 31
0.0
  0
LINE
  5
BC92
  8
0
 10
4385.1723659446734018
 20
160.2210260441171101
 30
0.0
 11
4385.2070997615719534
 21
160.227953431017113
 31
0.0
  0
LINE
  5
BC93
  8
0
 10
4385.2070997615719534
 20
160.227953431017113
 30
0.0
 11
4385.1817931627729195
 21
160.2351218546170912
 31
0.0
  0
LINE
  5
BC94
  8
0
 10
4385.108456435039443
 20
160.2497482887621914
 30
0.0
 11
4385.0743609468154318
 21
160.2544271448936115
 31
0.0
  0
LINE
  5
BC95
  8
0
 10
4385.0743609468154318
 20
160.2544271448936115
 30
0.0
 11
4385.0516900579732464
 21
160.2450939018171141
 31
0.0
  0
LINE
  5
BC96
  8
0
 10
4385.0516900579732464
 20
160.2450939018171141
 30
0.0
 11
4385.0857855462718362
 21
160.2404150456171124
 31
0.0
  0
LINE
  5
BC97
  8
0
 10
4385.0857855462718362
 20
160.2404150456171124
 30
0.0
 11
4385.108456435039443
 21
160.2497482887621914
 31
0.0
  0
LINE
  5
BC98
  8
0
 10
4384.9844001327192018
 20
160.262209708073101
 30
0.0
 11
4384.945628174004014
 21
160.2638346577589914
 31
0.0
  0
LINE
  5
BC99
  8
0
 10
4384.945628174004014
 20
160.2638346577589914
 30
0.0
 11
4384.9377546569212427
 21
160.25322128528191
 31
0.0
  0
LINE
  5
BC9A
  8
0
 10
4384.9377546569212427
 20
160.25322128528191
 30
0.0
 11
4384.9765266156309735
 21
160.2515963355957069
 31
0.0
  0
LINE
  5
BC9B
  8
0
 10
4384.9765266156309735
 20
160.2515963355957069
 30
0.0
 11
4384.9844001326719081
 21
160.2622097080171102
 31
0.0
  0
ARC
  5
BC9C
  8
0
 10
4385.3196986248412941
 20
160.1841916183039132
 30
0.0
 40
0.0506758004147578
 50
301.5107666679281238
 51
355.271759395617778
  0
ARC
  5
BC9D
  8
0
 10
4385.0963141842939876
 20
160.6031578186129991
 30
0.0
 40
0.5253911975853069
 50
282.2662567184759155
 51
298.3977461368743889
  0
ARC
  5
BC9E
  8
0
 10
4385.0138882412165913
 20
160.9887436444776938
 30
0.0
 40
0.9196872596232175
 50
271.7440962847310857
 51
282.1805714856938039
  0
ARC
  5
BC9F
  8
0
 10
4385.3440926725807003
 20
160.1710700328625023
 30
0.0
 40
0.034008017119776
 50
2.184044791411996
 51
39.8486737038232732
  0
ARC
  5
BCA0
  8
0
 10
4385.3371841323778426
 20
160.1757819902134941
 30
0.0
 40
0.041034280607151
 50
307.5386972747664913
 51
355.2248467034037276
  0
ARC
  5
BCA1
  8
0
 10
4385.222121444880031
 20
160.327171899692587
 30
0.0
 40
0.2311872402051432
 50
285.0625177779122055
 51
307.2900217529116844
  0
ARC
  5
BCA2
  8
0
 10
4385.0114456492292447
 20
161.0215451453543949
 30
0.0
 40
0.9567289492910541
 50
275.7149693735203755
 51
286.4393853420701817
  0
ARC
  5
BCA3
  8
0
 10
4384.9131870051378428
 20
161.7730765475868111
 30
0.0
 40
1.714462883153413
 50
272.7434630322965177
 51
276.481391149994522
  0
ARC
  5
BCA4
  8
0
 10
4397.5227135773347982
 20
161.3149453286517883
 30
0.0
 40
12.0903135747614403
 50
182.630676984132208
 51
185.3218582671088939
  0
ARC
  5
BCA5
  8
0
 10
4642.9861206076948292
 20
174.1382474771430111
 30
0.0
 40
257.8882174915232213
 50
182.8180109103874997
 51
182.9736133394208935
  0
ARC
  5
BCA6
  8
0
 10
4385.2095269303190435
 20
162.1951745190959002
 30
0.0
 40
0.5170801281098222
 50
261.5086542859164069
 51
271.6637485848485767
  0
ARC
  5
BCA7
  8
0
 10
4384.8747035048054386
 20
159.539275362776209
 30
0.0
 40
2.1600075603669362
 50
83.1273895959556626
 51
89.3883708207323338
  0
ARC
  5
BCA8
  8
0
 10
4385.2196774634157919
 20
161.7191690229784911
 30
0.0
 40
0.0411449543504155
 50
276.786743697909003
 51
306.6103164529631044
  0
ARC
  5
BCA9
  8
0
 10
4385.2307603567787737
 20
161.702696492176301
 30
0.0
 40
0.0213329549004353
 50
309.1018015320709083
 51
359.3029918366763127
  0
ARC
  5
BCAA
  8
0
 10
4385.238993293666681
 20
162.0965617005309127
 30
0.0
 40
0.0136592359667252
 50
16.4749552815759195
 51
68.5146219781279768
  0
ARC
  5
BCAB
  8
0
 10
4385.1980131847976736
 20
162.0120672103616073
 30
0.0
 40
0.1075321446615728
 50
64.6833292405316627
 51
79.0641236135052452
  0
ARC
  5
BCAC
  8
0
 10
4385.0451686860878908
 20
162.2289876551064935
 30
0.0
 40
0.1663896941975098
 50
2.6302240862979578
 51
33.2961428266076283
  0
ARC
  5
BCAD
  8
0
 10
4384.9958128306070648
 20
162.182153991184407
 30
0.0
 40
0.233664582983141
 50
36.252407527426449
 51
74.5612436733031814
  0
ARC
  5
BCAE
  8
0
 10
4384.8690476281235533
 20
161.702003223890614
 30
0.0
 40
0.7302570080923014
 50
75.002907280394524
 51
87.7465733155236052
  0
ARC
  5
BCAF
  8
0
 10
4385.2200116678750419
 20
161.9939115110655052
 30
0.0
 40
0.3175931054419764
 50
262.5325747753050223
 51
274.9674210057435744
  0
ARC
  5
BCB0
  8
0
 10
4385.2451874379639776
 20
161.7187900589941023
 30
0.0
 40
0.0413441945447395
 50
273.2228932123568939
 51
337.0873115432665941
  0
ARC
  5
BCB1
  8
0
 10
4384.8844951326063892
 20
161.733642592996091
 30
0.0
 40
0.3999735865098386
 50
355.5621558336491717
 51
7.8799553750839664
  0
ARC
  5
BCB2
  8
0
 10
4386.9093258731982132
 20
161.9614344386818914
 30
0.0
 40
1.6377918918493579
 50
178.3707062461951978
 51
186.0619275246010886
  0
ARC
  5
BCB3
  8
0
 10
4385.4145101264857658
 20
162.0006260006178138
 30
0.0
 40
0.1425049813026413
 50
154.854677532322313
 51
177.0333509772137006
  0
ARC
  5
BCB4
  8
0
 10
4385.264185614917551
 20
162.0744344031348021
 30
0.0
 40
0.0251086139338361
 50
328.1337101131796885
 51
40.5753965856783907
  0
ARC
  5
BCB5
  8
0
 10
4385.2002906483057814
 20
161.9980268114622959
 30
0.0
 40
0.1244347208322402
 50
48.1836610704915813
 51
81.7224942689702232
  0
ARC
  5
BCB6
  8
0
 10
4385.049414562153288
 20
161.8583968603259962
 30
0.0
 40
0.3296631077151168
 50
18.6128516395432086
 51
44.8189833951365912
  0
ARC
  5
BCB7
  8
0
 10
4384.5818032226197829
 20
161.4529661139812049
 30
0.0
 40
0.827981604332759
 50
0.4519892919724699
 51
19.5218896218064586
  0
ARC
  5
BCB8
  8
0
 10
4384.925846695279688
 20
161.5698723049783894
 30
0.0
 40
0.4646742735929245
 50
20.1115668722031984
 51
41.5385081903496811
  0
ARC
  5
BCB9
  8
0
 10
4383.934791023404614
 20
161.5736175558683954
 30
0.0
 40
1.4793762371867289
 50
355.5757801521028796
 51
15.2851833961764392
  0
ARC
  5
BCBA
  8
0
 10
4384.8639449836618951
 20
163.4922540009544889
 30
0.0
 40
1.2876604805117611
 50
271.5048525776260817
 51
277.2938253144483269
  0
ARC
  5
BCBB
  8
0
 10
4384.9949772217569262
 20
162.4164185807256899
 30
0.0
 40
0.2040022611235738
 50
279.151654373246572
 51
293.4302762744749202
  0
ARC
  5
BCBC
  8
0
 10
4385.0592739161347708
 20
162.2736128418218868
 30
0.0
 40
0.0474566727067538
 50
290.7600980877102188
 51
342.143340221744495
  0
ARC
  5
BCBD
  8
0
 10
4385.0123840660953647
 20
162.2699520535713873
 30
0.0
 40
0.0927023741237917
 50
353.2530034399878787
 51
30.4659786290477008
  0
ARC
  5
BCBE
  8
0
 10
4384.9784552822820842
 20
162.2412762685306973
 30
0.0
 40
0.1366926747263104
 50
33.6170052366701313
 51
71.2128054943017332
  0
ARC
  5
BCBF
  8
0
 10
4384.8875101814928712
 20
162.000072135435687
 30
0.0
 40
0.394424859236652
 50
69.9897517944287699
 51
88.5107526542557963
  0
ARC
  5
BCC0
  8
0
 10
4385.3145600104644473
 20
160.149384388251292
 30
0.0
 40
0.0706133878535191
 50
38.0028335585607877
 51
53.3827315000699514
  0
ARC
  5
BCC1
  8
0
 10
4385.1533279705663517
 20
159.8703973185301948
 30
0.0
 40
0.3924561209970404
 50
58.7918562952730213
 51
80.630771091498417
  0
ARC
  5
BCC2
  8
0
 10
4384.9411682845102405
 20
158.8753002772517959
 30
0.0
 40
1.4096119371632301
 50
78.7065496323780707
 51
86.3231322940583539
  0
ARC
  5
BCC3
  8
0
 10
4385.1727994829889212
 20
166.4499072152786141
 30
0.0
 40
6.1695133435569121
 50
267.4448929069001224
 51
268.6882600514258002
  0
ARC
  5
BCC4
  8
0
 10
4384.8898653758633372
 20
164.1872509197204977
 30
0.0
 40
4.1280175952335423
 50
270.109589555862101
 51
271.4628463266491849
  0
ENDSEC
  0
EOF
