  0
SECTION
  2
HEADER
  9
$ACADVER
  1
AC1009
  9
$INSBASE
 10
4344.9335252500386559
 20
181.7981078554400938
 30
0.0
  9
$EXTMIN
 10
4343.8054142053451869
 20
171.7183078554404005
 30
0.0
  9
$EXTMAX
 10
4346.061636294732125
 20
182.9232078554393865
 30
0.0
  9
$LIMMIN
 10
0.0
 20
0.0
  9
$LIMMAX
 10
11.6929133858000007
 20
8.2677165353999982
  9
$ORTHOMODE
 70
     1
  9
$REGENMODE
 70
     1
  9
$FILLMODE
 70
     1
  9
$QTEXTMODE
 70
     0
  9
$MIRRTEXT
 70
     0
  9
$DRAGMODE
 70
     2
  9
$LTSCALE
 40
0.6431102362
  9
$OSMODE
 70
  4095
  9
$ATTMODE
 70
     1
  9
$TEXTSIZE
 40
0.2
  9
$TRACEWID
 40
0.05
  9
$TEXTSTYLE
  7
STANDARD
  9
$CLAYER
  8
0
  9
$CELTYPE
  6
BYLAYER
  9
$CECOLOR
 62
   256
  9
$DIMSCALE
 40
1.0
  9
$DIMASZ
 40
0.1875
  9
$DIMEXO
 40
0.0625
  9
$DIMDLI
 40
0.4443307087
  9
$DIMRND
 40
0.0
  9
$DIMDLE
 40
0.0
  9
$DIMEXE
 40
0.125
  9
$DIMTP
 40
0.01
  9
$DIMTM
 40
0.01
  9
$DIMTXT
 40
2.0
  9
$DIMCEN
 40
0.1052362205
  9
$DIMTSZ
 40
0.0
  9
$DIMTOL
 70
     1
  9
$DIMLIM
 70
     0
  9
$DIMTIH
 70
     1
  9
$DIMTOH
 70
     1
  9
$DIMSE1
 70
     0
  9
$DIMSE2
 70
     0
  9
$DIMTAD
 70
     0
  9
$DIMZIN
 70
     0
  9
$DIMBLK
  1

  9
$DIMASO
 70
     1
  9
$DIMSHO
 70
     1
  9
$DIMPOST
  1
\X
  9
$DIMAPOST
  1

  9
$DIMALT
 70
     1
  9
$DIMALTD
 70
     2
  9
$DIMALTF
 40
25.3999999999999986
  9
$DIMLFAC
 40
1.0
  9
$DIMTOFL
 70
     0
  9
$DIMTVP
 40
0.0
  9
$DIMTIX
 70
     0
  9
$DIMSOXD
 70
     0
  9
$DIMSAH
 70
     0
  9
$DIMBLK1
  1

  9
$DIMBLK2
  1

  9
$DIMSTYLE
  2
STANDARD
  9
$DIMCLRD
 70
     0
  9
$DIMCLRE
 70
     0
  9
$DIMCLRT
 70
     0
  9
$DIMTFAC
 40
1.0
  9
$DIMGAP
 40
0.09
  9
$LUNITS
 70
     2
  9
$LUPREC
 70
     4
  9
$SKETCHINC
 40
0.1
  9
$FILLETRAD
 40
0.0
  9
$AUNITS
 70
     0
  9
$AUPREC
 70
     0
  9
$MENU
  1
.
  9
$ELEVATION
 40
0.0
  9
$PELEVATION
 40
0.0
  9
$THICKNESS
 40
0.0
  9
$LIMCHECK
 70
     0
  9
$BLIPMODE
 70
     0
  9
$CHAMFERA
 40
0.0
  9
$CHAMFERB
 40
0.0
  9
$SKPOLY
 70
     0
  9
$TDCREATE
 40
2458060.468368056230247
  9
$TDUPDATE
 40
2459124.740115740802139
  9
$TDINDWG
 40
0.3297987269
  9
$TDUSRTIMER
 40
0.3297987269
  9
$USRTIMER
 70
     1
  9
$ANGBASE
 50
0.0
  9
$ANGDIR
 70
     0
  9
$PDMODE
 70
     0
  9
$PDSIZE
 40
0.3125
  9
$PLINEWID
 40
0.0
  9
$COORDS
 70
     1
  9
$SPLFRAME
 70
     0
  9
$SPLINETYPE
 70
     6
  9
$SPLINESEGS
 70
     8
  9
$ATTDIA
 70
     1
  9
$ATTREQ
 70
     1
  9
$HANDLING
 70
     1
  9
$HANDSEED
  5
B3B5
  9
$SURFTAB1
 70
     6
  9
$SURFTAB2
 70
     6
  9
$SURFTYPE
 70
     6
  9
$SURFU
 70
     6
  9
$SURFV
 70
     6
  9
$UCSNAME
  2

  9
$UCSORG
 10
0.0
 20
0.0
 30
0.0
  9
$UCSXDIR
 10
1.0
 20
0.0
 30
0.0
  9
$UCSYDIR
 10
0.0
 20
1.0
 30
0.0
  9
$PUCSNAME
  2

  9
$PUCSORG
 10
0.0
 20
0.0
 30
0.0
  9
$PUCSXDIR
 10
1.0
 20
0.0
 30
0.0
  9
$PUCSYDIR
 10
0.0
 20
1.0
 30
0.0
  9
$USERI1
 70
     0
  9
$USERI2
 70
     0
  9
$USERI3
 70
     0
  9
$USERI4
 70
     0
  9
$USERI5
 70
     0
  9
$USERR1
 40
0.0
  9
$USERR2
 40
0.0
  9
$USERR3
 40
0.0
  9
$USERR4
 40
0.0
  9
$USERR5
 40
0.0
  9
$WORLDVIEW
 70
     1
  9
$SHADEDGE
 70
     3
  9
$SHADEDIF
 70
    70
  9
$TILEMODE
 70
     1
  9
$MAXACTVP
 70
    64
  9
$PLIMCHECK
 70
     0
  9
$PEXTMIN
 10
1.0000000000000000E+20
 20
1.0000000000000000E+20
 30
1.0000000000000000E+20
  9
$PEXTMAX
 10
-1.0000000000000000E+20
 20
-1.0000000000000000E+20
 30
-1.0000000000000000E+20
  9
$PLIMMIN
 10
0.0
 20
0.0
  9
$PLIMMAX
 10
12.0
 20
9.0
  9
$UNITMODE
 70
     0
  9
$VISRETAIN
 70
     1
  9
$PLINEGEN
 70
     0
  9
$PSLTSCALE
 70
     1
  0
ENDSEC
  0
SECTION
  2
TABLES
  0
TABLE
  2
VPORT
 70
     1
  0
VPORT
  2
*ACTIVE
 70
     0
 10
0.0
 20
0.0
 11
1.0
 21
1.0
 12
0.0
 22
0.0
 13
0.0
 23
0.0
 14
1.0
 24
1.0
 15
0.0
 25
0.0
 16
0.0
 26
0.0
 36
32.3855809889292772
 17
4344.933349609375
 27
177.3207550048828125
 37
0.0
 40
11.4342120861093797
 41
2.1186252771618621
 42
50.0
 43
0.0
 44
0.0
 50
0.0
 51
0.0
 71
     0
 72
   100
 73
     1
 74
     1
 75
     0
 76
     0
 77
     0
 78
     0
  0
ENDTAB
  0
TABLE
  2
LTYPE
 70
     2
  0
LTYPE
  2
CONTINUOUS
 70
     0
  3
Solid line
 72
    65
 73
     0
 40
0.0
  0
LTYPE
  2
PHANTOM2
 70
     0
  3
___ _ _ ___ _ _ ___ _ _ ___ _ _
 72
    65
 73
     6
 40
1.25
 49
0.625
 49
-0.125
 49
0.125
 49
-0.125
 49
0.125
 49
-0.125
  0
ENDTAB
  0
TABLE
  2
LAYER
 70
     2
  0
LAYER
  2
0
 70
     0
 62
   255
  6
CONTINUOUS
  0
LAYER
  2
DEFPOINTS
 70
     0
 62
     7
  6
CONTINUOUS
  0
ENDTAB
  0
TABLE
  2
STYLE
 70
     1
  0
STYLE
  2
STANDARD
 70
     0
 40
0.0
 41
0.8
 50
0.0
 71
     0
 42
0.2
  3
txt
  4

  0
ENDTAB
  0
TABLE
  2
VIEW
 70
     0
  0
ENDTAB
  0
TABLE
  2
UCS
 70
     0
  0
ENDTAB
  0
TABLE
  2
APPID
 70
     9
  0
APPID
  2
ACAD
 70
     0
  0
APPID
  2
ACAD_MLEADERVER
 70
     0
  0
APPID
  2
ACAD_EXEMPT_FROM_CAD_STANDARDS
 70
     0
  0
APPID
  2
ACAD_NAV_VCDISPLAY
 70
     0
  0
APPID
  2
ACAECLAYERSTANDARD
 70
     0
  0
APPID
  2
ACCMTRANSPARENCY
 70
     0
  0
APPID
  2
ACAD_DSTYLE_DIMJAG
 70
     0
  0
APPID
  2
ACAD_DSTYLE_DIMTALN
 70
     0
  0
APPID
  2
ACDBATTR
 70
     0
  0
ENDTAB
  0
TABLE
  2
DIMSTYLE
 70
     1
  0
DIMSTYLE
  2
STANDARD
 70
     0
  3

  4

  5

  6

  7

 40
1.0
 41
0.1875
 42
0.0625
 43
0.38
 44
0.125
 45
0.0
 46
0.0
 47
0.01
 48
0.01
140
0.15625
141
0.09
142
0.0
143
25.3999999999999986
144
1.0
145
0.0
146
1.0
147
0.09
 71
     1
 72
     0
 73
     1
 74
     1
 75
     0
 76
     0
 77
     0
 78
     4
170
     0
171
     2
172
     0
173
     0
174
     0
175
     0
176
     0
177
     0
178
     0
  0
ENDTAB
  0
ENDSEC
  0
SECTION
  2
BLOCKS
  0
BLOCK
  8
0
  2
$MODEL_SPACE
 70
     0
 10
0.0
 20
0.0
 30
0.0
  3
$MODEL_SPACE
  1

  0
ENDBLK
  5
21
  8
0
  0
BLOCK
 67
     1
  8
0
  2
$PAPER_SPACE
 70
     0
 10
0.0
 20
0.0
 30
0.0
  3
$PAPER_SPACE
  1

  0
ENDBLK
  5
1D
 67
     1
  8
0
  0
ENDSEC
  0
SECTION
  2
ENTITIES
  0
ATTDEF
  5
3930
  8
DEFPOINTS
 10
4344.930606793996958
 20
181.8022078401552903
 30
0.0
 40
0.001
  1
24277
  3

  2
MODELNUMBER
 70
     0
1001
ACDBATTR
1070
     0
1070
     1
  0
ATTDEF
  5
3931
  8
DEFPOINTS
 10
4344.930606793996958
 20
181.8005411734885968
 30
0.0
 40
0.001
  1
VALTON
  3

  2
TRADENAME
 70
     0
1001
ACDBATTR
1070
     0
1070
     1
  0
ATTDEF
  5
3932
  8
DEFPOINTS
 10
4344.930606793996958
 20
181.7988745068219885
 30
0.0
 40
0.001
  1
KITCHEN SINK FAUCET
  3

  2
PRODUCT
 70
     0
1001
ACDBATTR
1070
     0
1070
     1
  0
LINE
  5
B1AC
  8
0
 10
4344.3429860860887857
 20
177.9790987937487898
 30
0.0
 11
4344.3429860860887857
 21
174.3232737022489118
 31
0.0
  0
LINE
  5
B1AD
  8
0
 10
4344.8154528057875723
 20
174.1032340927488917
 30
0.0
 11
4344.8154270308887135
 21
174.1000448698488867
 31
0.0
  0
ARC
  5
B1AE
  8
0
 10
4344.9440683506272762
 20
172.9197258732565956
 30
0.0
 40
1.1722434132394839
 50
90.515322418727834
 51
95.4740997582773048
  0
ARC
  5
B1AF
  8
0
 10
4344.9335298610876634
 20
181.7979928820489022
 30
0.0
 40
1.1252149734000001
 50
90.0002347940059337
 51
219.2949134130026039
  0
ARC
  5
B1B0
  8
0
 10
4344.93364767773528
 20
181.7980564488617006
 30
0.0
 40
1.0674983549548629
 50
90.0065710549172451
 51
212.9263377743666013
  0
ARC
  5
B1B1
  8
0
 10
4344.9357700379587186
 20
172.8337721900066128
 30
0.0
 40
1.1154665932971961
 50
222.543097215123197
 51
269.8846967167867206
  0
ARC
  5
B1B2
  8
0
 10
4344.9745286019760897
 20
172.8708813328767064
 30
0.0
 40
1.1691143966299991
 50
178.3572568057743126
 51
222.5986952150900891
  0
ARC
  5
B1B3
  8
0
 10
4344.9734901135352629
 20
172.8744709922262075
 30
0.0
 40
1.1679788496000021
 50
139.4319187521531092
 51
178.5318167989503024
  0
ARC
  5
B1B4
  8
0
 10
4343.2908067881417082
 20
174.3227946388608132
 30
0.0
 40
1.0521794070074451
 50
319.1127883718393718
 51
0.02608710170666
  0
ARC
  5
B1B5
  8
0
 10
4344.587830073503028
 20
178.1015075228521027
 30
0.0
 40
0.2918166990884213
 50
183.2336404792600035
 51
212.9617997329281991
  0
ARC
  5
B1B6
  8
0
 10
4344.5173115221023181
 20
177.9705387457564996
 30
0.0
 40
0.1745354750851838
 50
130.7950853648617056
 51
177.1888152968008114
  0
ARC
  5
B1B7
  8
0
 10
4344.7243021196682093
 20
177.7404255721667141
 30
0.0
 40
0.4840231302988325
 50
108.3165845860105065
 51
131.547576909733408
  0
ARC
  5
B1B8
  8
0
 10
4344.8970820228241791
 20
177.2706267510421014
 30
0.0
 40
0.984454788808212
 50
96.4720109708954254
 51
109.2701593590954019
  0
ARC
  5
B1B9
  8
0
 10
4344.9490012816313538
 20
176.7442498181927988
 30
0.0
 40
1.513349179686893
 50
90.5859366506720534
 51
96.1788315906285334
  0
ARC
  5
B1BA
  8
0
 10
4344.6524869990844309
 20
178.0490249106157989
 30
0.0
 40
0.3578267522708635
 50
150.6855957232266974
 51
174.2223304482160131
  0
ARC
  5
B1BB
  8
0
 10
4344.51004883274436
 20
178.2130541243639925
 30
0.0
 40
0.169934584252981
 50
132.8238181031993861
 51
176.233406064249607
  0
ARC
  5
B1BC
  8
0
 10
4344.7052866126496156
 20
178.0024179709851069
 30
0.0
 40
0.457137264775684
 50
109.6300389589575985
 51
132.8260109363756953
  0
ARC
  5
B1BD
  8
0
 10
4344.8633403811099924
 20
177.61765460670469
 30
0.0
 40
0.8728564578035031
 50
101.6384975090118985
 51
110.9172773120631064
  0
ARC
  5
B1BE
  8
0
 10
4392.561902427075438
 20
180.9818934450248946
 30
0.0
 40
48.3002094251155896
 50
181.1928813904766002
 51
183.2730533525379997
  0
ARC
  5
B1BF
  8
0
 10
4344.9728897981212867
 20
181.8224475219425926
 30
0.0
 40
0.974924732540691
 50
92.3140614648075655
 51
98.8387515858750874
  0
ARC
  5
B1C0
  8
0
 10
4344.9614512875978107
 20
183.7150213451946001
 30
0.0
 40
1.0041562594291471
 50
263.4368697308415221
 51
268.4063731129568851
  0
ARC
  5
B1C1
  8
0
 10
4344.9820929434208665
 20
184.2079548354944052
 30
0.0
 40
1.5248628657193899
 50
265.1271994076954002
 51
268.1747902575493185
  0
ARC
  5
B1C2
  8
0
 10
4344.8725055975901341
 20
182.9344716333428948
 30
0.0
 40
0.2466756869752824
 50
243.2977493729507898
 51
265.3633276771938085
  0
ARC
  5
B1C3
  8
0
 10
4344.8684446381712405
 20
182.9090668995833084
 30
0.0
 40
0.1928533553633179
 50
241.9448013331067955
 51
263.5195326760364196
  0
ARC
  5
B1C4
  8
0
 10
4344.7759120087148403
 20
182.7386699326785049
 30
0.0
 40
0.0284012297099388
 50
207.2549622253200994
 51
239.8822335351788979
  0
ARC
  5
B1C5
  8
0
 10
4344.775148371861178
 20
182.7328446175503132
 30
0.0
 40
0.0255157638018711
 50
164.6411538128917869
 51
196.3459267972912983
  0
ARC
  5
B1C6
  8
0
 10
4344.7902033177670091
 20
182.7600271222609081
 30
0.0
 40
0.024550326728127
 50
206.6981256587272924
 51
239.4956174709452057
  0
ARC
  5
B1C7
  8
0
 10
4344.7912258776559611
 20
182.7286252316974071
 30
0.0
 40
0.0421370642797805
 50
131.7958079011320081
 51
164.8990326053854858
  0
ARC
  5
B1C8
  8
0
 10
4344.7794134878276964
 20
182.7538578596009984
 30
0.0
 40
0.0121571904385895
 50
146.2929341416717079
 51
203.5682641105688049
  0
ARC
  5
B1C9
  8
0
 10
4344.8228519860122105
 20
182.6901085341633859
 30
0.0
 40
0.0919541302737485
 50
108.3010871963049055
 51
130.4918891309505966
  0
ARC
  5
B1CA
  8
0
 10
4344.8157171684106288
 20
182.7189718461960126
 30
0.0
 40
0.0623523769955729
 50
110.4053397811577071
 51
138.1102920312366962
  0
ARC
  5
B1CB
  8
0
 10
4344.8718446356642744
 20
182.5617483552510976
 30
0.0
 40
0.2292900542132006
 50
102.2770729935090941
 51
109.8525873607382977
  0
ARC
  5
B1CC
  8
0
 10
4344.9298248703944409
 20
181.7392605125878049
 30
0.0
 40
1.0342981583714259
 50
99.2739482990446049
 51
139.2499927270756075
  0
ARC
  5
B1CD
  8
0
 10
4344.8838891800141937
 20
181.8218337855136895
 30
0.0
 40
0.9461591130468096
 50
141.2226752999397092
 51
176.7240781374781875
  0
ARC
  5
B1CE
  8
0
 10
4346.0800534001236883
 20
181.9057756898448019
 30
0.0
 40
2.1409856666314981
 50
180.7994997717769934
 51
194.6061749804428018
  0
ARC
  5
B1CF
  8
0
 10
4327.292654202428821
 20
177.9743016265329913
 30
0.0
 40
17.0562086754418694
 50
10.5096747205352994
 51
11.4695358597233898
  0
ARC
  5
B1D0
  8
0
 10
4293.255825640081639
 20
170.9164884963614952
 30
0.0
 40
51.8145529402544298
 50
10.0700490608434201
 51
11.3180769315108005
  0
ARC
  5
B1D1
  8
0
 10
4410.7891225848934482
 20
191.9695768384879955
 30
0.0
 40
67.5895201044621956
 50
190.2207879752259032
 51
191.2473219385971959
  0
ARC
  5
B1D2
  8
0
 10
4345.0124135968862902
 20
178.8785606645795951
 30
0.0
 40
0.5228617017206691
 50
190.128274210033311
 51
220.0698651606471117
  0
ARC
  5
B1D3
  8
0
 10
4344.9825183353432294
 20
178.8666099226215067
 30
0.0
 40
0.4923946770391908
 50
221.2450576992735023
 51
233.1551492593366959
  0
ARC
  5
B1D4
  8
0
 10
4344.9497322822790011
 20
178.8217110594358985
 30
0.0
 40
0.4368041883329594
 50
233.0651435242012894
 51
251.7928099943488007
  0
ARC
  5
B1D5
  8
0
 10
4344.9482175621333226
 20
178.8684008201911979
 30
0.0
 40
0.4809501679340455
 50
253.7025009196538008
 51
268.2494268302032197
  0
ARC
  5
B1D6
  8
0
 10
4344.9800397563985825
 20
173.1785029582958941
 30
0.0
 40
1.3138926653472669
 50
242.975870952505602
 51
267.971187464945217
  0
ARC
  5
B1D7
  8
0
 10
4344.907182460248805
 20
172.9561009915094019
 30
0.0
 40
1.0832730762766409
 50
201.2987620855336104
 51
241.0635235002602883
  0
ARC
  5
B1D8
  8
0
 10
4344.8753472308262644
 20
172.9416510041016863
 30
0.0
 40
1.04836525843484
 50
165.759040044311206
 51
201.1949499110695001
  0
ARC
  5
B1D9
  8
0
 10
4344.9294380252758856
 20
172.9245869735954102
 30
0.0
 40
1.104996316633823
 50
151.1590668928660932
 51
165.5913885238581997
  0
ARC
  5
B1DA
  8
0
 10
4376.6778742042688464
 20
184.6614032203983129
 30
0.0
 40
32.7426297551386369
 50
186.7816020463619964
 51
188.2264972947058936
  0
ARC
  5
B1DB
  8
0
 10
4347.8049255736641499
 20
181.2206261796312106
 30
0.0
 40
3.6653939635952129
 50
172.6805972277149976
 51
186.668459700638607
  0
ARC
  5
B1DC
  8
0
 10
4345.3403946479338629
 20
181.5635558708708004
 30
0.0
 40
1.17754666587839
 50
136.6324948279294915
 51
173.9532167468690886
  0
ARC
  5
B1DD
  8
0
 10
4344.9818189295647244
 20
181.8516953948463879
 30
0.0
 40
0.7199556100165285
 50
110.347994373990403
 51
133.7059355905865914
  0
ARC
  5
B1DE
  8
0
 10
4344.9352757492297314
 20
181.9744998674553926
 30
0.0
 40
0.5886310803104928
 50
90.17038917392982
 51
110.2567816105834027
  0
LINE
  5
B1DF
  8
0
 10
4344.5793354470888517
 20
174.1943125894489128
 30
0.0
 11
4344.5792065584882948
 21
173.7007857640489021
 31
0.0
  0
ARC
  5
B1E0
  8
0
 10
4344.2984112754656962
 20
173.7106188960775057
 30
0.0
 40
0.2809674028308082
 50
314.9877979061417932
 51
357.9943864225197103
  0
ARC
  5
B1E1
  8
0
 10
4344.9095210849100113
 20
173.1234747782361865
 30
0.0
 40
0.5665813612061741
 50
136.7200113999645055
 51
177.9765724958714088
  0
ARC
  5
B1E2
  8
0
 10
4344.9092717509411159
 20
173.1261722575254112
 30
0.0
 40
0.5662433150792312
 50
178.248459120663199
 51
226.4110625303831057
  0
ARC
  5
B1E3
  8
0
 10
4344.9768393975791696
 20
173.2615816932575967
 30
0.0
 40
0.7122941287125445
 50
229.9866544023448967
 51
266.5137296920053132
  0
ARC
  5
B1E4
  8
0
 10
4344.9407453557241752
 20
174.1859946396461112
 30
0.0
 40
0.3615056159292773
 50
129.3267429753479121
 51
178.6815544233263893
  0
ARC
  5
B1E5
  8
0
 10
4344.9353615308136796
 20
174.2006116883572133
 30
0.0
 40
0.3468242043553728
 50
90.3033572302006462
 51
130.1691028410864135
  0
ARC
  5
B1E6
  8
0
 10
4344.9338952969219463
 20
173.1092256915860048
 30
0.0
 40
1.0137783832811631
 50
90.0209139645079546
 51
95.8925054428157466
  0
ARC
  5
B1E7
  8
0
 10
4344.8311056411948812
 20
174.1019988899448947
 30
0.0
 40
0.0157014961779166
 50
94.7026853550396055
 51
175.4880026975588123
  0
ARC
  5
B1E8
  8
0
 10
4344.8285711105427254
 20
174.1001874484497023
 30
0.0
 40
0.0131448529331676
 50
180.6214837330990122
 51
236.9887963619121933
  0
ARC
  5
B1E9
  8
0
 10
4344.8303405907499837
 20
174.102874872379914
 30
0.0
 40
0.0163624600597708
 50
236.9197932414685113
 51
276.6706159066749819
  0
ARC
  5
B1EA
  8
0
 10
4344.9425155340877609
 20
179.0070470313513908
 30
0.0
 40
0.4778348443516422
 50
247.5885997887048973
 51
268.9219377072142834
  0
ARC
  5
B1EB
  8
0
 10
4344.9316260612240512
 20
178.9647666944350135
 30
0.0
 40
0.434638419103936
 50
221.2911972459160097
 51
246.7907001712734996
  0
ARC
  5
B1EC
  8
0
 10
4345.065072103777311
 20
179.0236342729515968
 30
0.0
 40
0.5754226336987506
 50
194.8655181339663045
 51
216.922926714616807
  0
ARC
  5
B1ED
  8
0
 10
4349.8248193183590047
 20
180.3727413467939868
 30
0.0
 40
5.5226004621661211
 50
190.931366260396004
 51
195.7249420638102038
  0
ARC
  5
B1EE
  8
0
 10
3248.2381616435800424
 20
-39.714255262249047
 30
0.0
 40
1117.8347364080871102
 50
11.3002259556800695
 51
11.3342498627170993
  0
LINE
  5
B1EF
  8
0
 10
4345.5240644139876167
 20
177.9790987937487898
 30
0.0
 11
4345.5240644139876167
 21
174.3232737022489118
 31
0.0
  0
LINE
  5
B1F0
  8
0
 10
4345.0515976942888301
 20
174.1032340927488917
 30
0.0
 11
4345.0516234691876889
 21
174.1000448698488867
 31
0.0
  0
ARC
  5
B1F1
  8
0
 10
4344.9229821494500356
 20
172.9197258732565956
 30
0.0
 40
1.1722434132395081
 50
84.5259002417226952
 51
89.484677581272166
  0
ARC
  5
B1F2
  8
0
 10
4344.9335206389878294
 20
181.7979928820489022
 30
0.0
 40
1.1252149734000001
 50
320.7050865869974245
 51
89.9997652059940521
  0
ARC
  5
B1F3
  8
0
 10
4344.9334028223429414
 20
181.7980564488617006
 30
0.0
 40
1.0674983549548629
 50
327.073662225633484
 51
89.9934289450827549
  0
ARC
  5
B1F4
  8
0
 10
4344.9312804621185933
 20
172.8337721900066128
 30
0.0
 40
1.1154665932971941
 50
270.1153032832132794
 51
317.4569027848756946
  0
ARC
  5
B1F5
  8
0
 10
4344.8925218981021317
 20
172.8708813328767064
 30
0.0
 40
1.1691143966299991
 50
317.4013047849098825
 51
1.6427431942256121
  0
ARC
  5
B1F6
  8
0
 10
4344.8935603865429584
 20
172.8744709922262075
 30
0.0
 40
1.1679788496000021
 50
1.468183201049631
 51
40.5680812478469335
  0
ARC
  5
B1F7
  8
0
 10
4346.5762437119356036
 20
174.3227946388608132
 30
0.0
 40
1.0521794070074451
 50
179.9739128982932925
 51
220.8872116281605997
  0
ARC
  5
B1F8
  8
0
 10
4345.2792204265751934
 20
178.1015075228521027
 30
0.0
 40
0.2918166990884213
 50
327.0382002670717725
 51
356.766359520739627
  0
ARC
  5
B1F9
  8
0
 10
4345.3497389779749938
 20
177.9705387457564996
 30
0.0
 40
0.1745354750851838
 50
2.811184703199193
 51
49.2049146351382305
  0
ARC
  5
B1FA
  8
0
 10
4345.1427483804109215
 20
177.7404255721667141
 30
0.0
 40
0.4840231302988325
 50
48.452423090266592
 51
71.6834154139894366
  0
ARC
  5
B1FB
  8
0
 10
4344.9699684772531327
 20
177.2706267510421014
 30
0.0
 40
0.984454788808212
 50
70.7298406409046265
 51
83.5279890291045888
  0
ARC
  5
B1FC
  8
0
 10
4344.9180492184459581
 20
176.7442498181927988
 30
0.0
 40
1.513349179686893
 50
83.821168409371495
 51
89.4140633493279466
  0
ARC
  5
B1FD
  8
0
 10
4345.2145635009919715
 20
178.0490249106157989
 30
0.0
 40
0.3578267522708635
 50
5.777669551783946
 51
29.3144042767733204
  0
ARC
  5
B1FE
  8
0
 10
4345.3570016673329519
 20
178.2130541243639925
 30
0.0
 40
0.169934584252981
 50
3.7665939357503739
 51
47.1761818968005713
  0
ARC
  5
B1FF
  8
0
 10
4345.1617638874267868
 20
178.0024179709851069
 30
0.0
 40
0.457137264775684
 50
47.1739890636243189
 51
70.369961041042373
  0
ARC
  5
B200
  8
0
 10
4345.0037101189673194
 20
177.61765460670469
 30
0.0
 40
0.8728564578035031
 50
69.0827226879369221
 51
78.3615024909881299
  0
ARC
  5
B201
  8
0
 10
4297.3051480730027833
 20
180.9818934450248946
 30
0.0
 40
48.3002094251155896
 50
356.726946647460295
 51
358.8071186095233998
  0
ARC
  5
B202
  8
0
 10
4344.8941607019560252
 20
181.8224475219425926
 30
0.0
 40
0.974924732540691
 50
81.1612484141249269
 51
87.6859385351924345
  0
ARC
  5
B203
  8
0
 10
4344.9055992124804106
 20
183.7150213451946001
 30
0.0
 40
1.0041562594291471
 50
271.5936268870430013
 51
276.5631302691584779
  0
ARC
  5
B204
  8
0
 10
4344.8849575566564454
 20
184.2079548354944052
 30
0.0
 40
1.5248628657193899
 50
271.8252097424506815
 51
274.8728005923044861
  0
ARC
  5
B205
  8
0
 10
4344.9945449024880872
 20
182.9344716333428948
 30
0.0
 40
0.2466756869752824
 50
274.6366723228061915
 51
296.7022506270491817
  0
ARC
  5
B206
  8
0
 10
4344.9986058619051619
 20
182.9090668995833084
 30
0.0
 40
0.1928533553633179
 50
276.4804673239635804
 51
298.0551986668933182
  0
ARC
  5
B207
  8
0
 10
4345.091138491363381
 20
182.7386699326785049
 30
0.0
 40
0.0284012297099388
 50
300.1177664648209884
 51
332.7450377746798722
  0
ARC
  5
B208
  8
0
 10
4345.0919021282161339
 20
182.7328446175503132
 30
0.0
 40
0.0255157638018711
 50
343.6540732027086733
 51
15.3588461871082398
  0
ARC
  5
B209
  8
0
 10
4345.0768471823103027
 20
182.7600271222609081
 30
0.0
 40
0.024550326728127
 50
300.5043825290546238
 51
333.3018743412725939
  0
ARC
  5
B20A
  8
0
 10
4345.0758246224213508
 20
182.7286252316974071
 30
0.0
 40
0.0421370642797805
 50
15.1009673946145107
 51
48.2041920988680204
  0
ARC
  5
B20B
  8
0
 10
4345.0876370122477965
 20
182.7538578596009984
 30
0.0
 40
0.0121571904385895
 50
336.4317358894311951
 51
33.7070658583282565
  0
ARC
  5
B20C
  8
0
 10
4345.0441985140660108
 20
182.6901085341633859
 30
0.0
 40
0.0919541302737485
 50
49.5081108690494531
 51
71.6989128036950802
  0
ARC
  5
B20D
  8
0
 10
4345.0513333316666831
 20
182.7189718461960126
 30
0.0
 40
0.0623523769955729
 50
41.889707968763247
 51
69.5946602188423071
  0
ARC
  5
B20E
  8
0
 10
4344.995205864413947
 20
182.5617483552510976
 30
0.0
 40
0.2292900542132006
 50
70.1474126392616597
 51
77.7229270064908917
  0
ARC
  5
B20F
  8
0
 10
4344.9372256296828709
 20
181.7392605125878049
 30
0.0
 40
1.0342981583714259
 50
40.7500072729244422
 51
80.7260517009553951
  0
ARC
  5
B210
  8
0
 10
4344.9831613200640277
 20
181.8218337855136895
 30
0.0
 40
0.9461591130468096
 50
3.2759218625217419
 51
38.7773247000602197
  0
ARC
  5
B211
  8
0
 10
4343.7869970999527141
 20
181.9057756898448019
 30
0.0
 40
2.1409856666314981
 50
345.3938250195571982
 51
359.2005002282230066
  0
ARC
  5
B212
  8
0
 10
4362.5743962976494004
 20
177.9743016265329913
 30
0.0
 40
17.0562086754418694
 50
168.5304641402765924
 51
169.490325279464713
  0
ARC
  5
B213
  8
0
 10
4396.6112248599947634
 20
170.9164884963614952
 30
0.0
 40
51.8145529402544298
 50
168.6819230684891977
 51
169.9299509391566119
  0
ARC
  5
B214
  8
0
 10
4279.0779279151838637
 20
191.9695768384879955
 30
0.0
 40
67.5895201044621956
 50
348.7526780614027757
 51
349.7792120247725052
  0
ARC
  5
B215
  8
0
 10
4344.8546369031928407
 20
178.8785606645795951
 30
0.0
 40
0.5228617017206691
 50
319.9301348393527746
 51
349.8717257899667175
  0
ARC
  5
B216
  8
0
 10
4344.8845321647340825
 20
178.8666099226215067
 30
0.0
 40
0.4923946770391908
 50
306.8448507406632757
 51
318.7549423007264977
  0
ARC
  5
B217
  8
0
 10
4344.9173182177992203
 20
178.8217110594358985
 30
0.0
 40
0.4368041883329594
 50
288.2071900056512277
 51
306.9348564757987106
  0
ARC
  5
B218
  8
0
 10
4344.9188329379458082
 20
178.8684008201911979
 30
0.0
 40
0.4809501679340455
 50
271.7505731697967803
 51
286.2974990803460855
  0
ARC
  5
B219
  8
0
 10
4344.8870107436778198
 20
173.1785029582958941
 30
0.0
 40
1.3138926653472669
 50
272.028812535054783
 51
297.0241290474945117
  0
ARC
  5
B21A
  8
0
 10
4344.9598680398294164
 20
172.9561009915094019
 30
0.0
 40
1.0832730762766409
 50
298.936476499739797
 51
338.7012379144663896
  0
ARC
  5
B21B
  8
0
 10
4344.9917032692510475
 20
172.9416510041016863
 30
0.0
 40
1.04836525843484
 50
338.8050500889304999
 51
14.2409599556888207
  0
ARC
  5
B21C
  8
0
 10
4344.9376124748023358
 20
172.9245869735954102
 30
0.0
 40
1.104996316633823
 50
14.4086114761417896
 51
28.8409331071338215
  0
ARC
  5
B21D
  8
0
 10
4313.189176295807556
 20
184.6614032203983129
 30
0.0
 40
32.7426297551386369
 50
351.7735027052939927
 51
353.2183979536379752
  0
ARC
  5
B21E
  8
0
 10
4342.062124926413162
 20
181.2206261796312106
 30
0.0
 40
3.6653939635952129
 50
353.331540299361393
 51
7.3194027722849393
  0
ARC
  5
B21F
  8
0
 10
4344.526655852143449
 20
181.5635558708708004
 30
0.0
 40
1.17754666587839
 50
6.0467832531309051
 51
43.3675051720704801
  0
ARC
  5
B220
  8
0
 10
4344.885231570511678
 20
181.8516953948463879
 30
0.0
 40
0.7199556100165285
 50
46.2940644094133731
 51
69.6520056260096396
  0
ARC
  5
B221
  8
0
 10
4344.9317747508466709
 20
181.9744998674553926
 30
0.0
 40
0.5886310803104928
 50
69.7432183894165263
 51
89.8296108260701942
  0
LINE
  5
B222
  8
0
 10
4345.2877150529893697
 20
174.1943125894489128
 30
0.0
 11
4345.287843941589017
 21
173.7007857640489021
 31
0.0
  0
ARC
  5
B223
  8
0
 10
4345.5686392246116156
 20
173.7106188960775057
 30
0.0
 40
0.2809674028308082
 50
182.0056135774786128
 51
225.0122020938582068
  0
ARC
  5
B224
  8
0
 10
4344.9575294151673006
 20
173.1234747782361865
 30
0.0
 40
0.5665813612061741
 50
2.023427504128585
 51
43.2799886000355087
  0
ARC
  5
B225
  8
0
 10
4344.9577787491371055
 20
173.1261722575254112
 30
0.0
 40
0.5662433150792312
 50
313.5889374696168943
 51
1.7515408793368219
  0
ARC
  5
B226
  8
0
 10
4344.8902111024981423
 20
173.2615816932575967
 30
0.0
 40
0.7122941287125445
 50
273.4862703079946868
 51
310.0133455976550749
  0
ARC
  5
B227
  8
0
 10
4344.9263051443540462
 20
174.1859946396461112
 30
0.0
 40
0.3615056159292773
 50
1.318445576673551
 51
50.6732570246520311
  0
ARC
  5
B228
  8
0
 10
4344.9316889692627228
 20
174.2006116883572133
 30
0.0
 40
0.3468242043553728
 50
49.8308971589135226
 51
89.696642769799368
  0
ARC
  5
B229
  8
0
 10
4344.9331552031553656
 20
173.1092256915860048
 30
0.0
 40
1.0137783832811631
 50
84.107494557184296
 51
89.9790860354920454
  0
ARC
  5
B22A
  8
0
 10
4345.0359448588824307
 20
174.1019988899448947
 30
0.0
 40
0.0157014961779166
 50
4.5119973024411504
 51
85.2973146449603945
  0
ARC
  5
B22B
  8
0
 10
4345.038479389533677
 20
174.1001874484497023
 30
0.0
 40
0.0131448529331676
 50
303.0112036380878067
 51
359.3785162669011015
  0
ARC
  5
B22C
  8
0
 10
4345.0367099093282377
 20
174.102874872379914
 30
0.0
 40
0.0163624600597708
 50
263.3293840933250181
 51
303.0802067585315172
  0
ARC
  5
B22D
  8
0
 10
4344.9245349659886415
 20
179.0070470313513908
 30
0.0
 40
0.4778348443516422
 50
271.0780622927857166
 51
292.4114002112950743
  0
ARC
  5
B22E
  8
0
 10
4344.9354244388532607
 20
178.9647666944350135
 30
0.0
 40
0.434638419103936
 50
293.2092998287266141
 51
318.7088027540838766
  0
ARC
  5
B22F
  8
0
 10
4344.8019783963018199
 20
179.0236342729515968
 30
0.0
 40
0.5754226336987506
 50
323.0770732853831078
 51
345.1344818660325018
  0
ARC
  5
B230
  8
0
 10
4340.0422311817183072
 20
180.3727413467939868
 30
0.0
 40
5.5226004621661211
 50
344.2750579361896826
 51
349.0686337396039107
  0
ARC
  5
B231
  8
0
 10
5441.6288888565004527
 20
-39.714255262249047
 30
0.0
 40
1117.8347364080871102
 50
168.6657501372829131
 51
168.699774044319895
  0
ARC
  5
B232
  8
0
 10
4344.8386659188172416
 20
174.3230534015962121
 30
0.0
 40
0.0166623770354874
 50
217.1957125037810954
 51
316.7389210519444873
  0
ARC
  5
B233
  8
0
 10
4344.8383167442452759
 20
174.3224055010331881
 30
0.0
 40
0.0164879801631874
 50
319.2108449922811815
 51
1.7413961236788089
  0
ARC
  5
B234
  8
0
 10
4344.8369594503856206
 20
174.3203774363879006
 30
0.0
 40
0.0137294551498396
 50
174.1684375737297898
 51
212.6003501219931877
  0
ARC
  5
B235
  8
0
 10
4344.8384841901788604
 20
174.3220862126094062
 30
0.0
 40
0.015186385984123
 50
119.2221526171685042
 51
181.184016524215707
  0
ARC
  5
B236
  8
0
 10
4344.8393351279064518
 20
174.3216677926916134
 30
0.0
 40
0.0159760541045793
 50
42.0161313198019499
 51
121.1533047402543986
  0
ARC
  5
B237
  8
0
 10
4344.8406174131887383
 20
174.3229285502484061
 30
0.0
 40
0.0141797135755079
 50
359.9110822317982752
 51
41.6993264672741475
  0
ARC
  5
B238
  8
0
 10
4344.8381910461121151
 20
174.2660741761457928
 30
0.0
 40
0.0166623770354874
 50
217.1957125037810954
 51
316.7389210519444873
  0
ARC
  5
B239
  8
0
 10
4344.8378418715410589
 20
174.2654262755827972
 30
0.0
 40
0.0164879801631874
 50
319.2108449922811815
 51
1.7413961236788089
  0
ARC
  5
B23A
  8
0
 10
4344.8364845776823131
 20
174.2633982109375097
 30
0.0
 40
0.0137294551498396
 50
174.1684375737297898
 51
212.6003501219931877
  0
ARC
  5
B23B
  8
0
 10
4344.838009317473734
 20
174.2651069871589868
 30
0.0
 40
0.015186385984123
 50
119.2221526171685042
 51
181.184016524215707
  0
ARC
  5
B23C
  8
0
 10
4344.8388602552004158
 20
174.2646885672411941
 30
0.0
 40
0.0159760541045793
 50
42.0161313198019499
 51
121.1533047402543986
  0
ARC
  5
B23D
  8
0
 10
4344.8401425404836118
 20
174.2659493247979015
 30
0.0
 40
0.0141797135755079
 50
359.9110822317982752
 51
41.6993264672741475
  0
ARC
  5
B23E
  8
0
 10
4344.8388394780004091
 20
174.2090432681227128
 30
0.0
 40
0.0166623770354874
 50
217.1957125037810954
 51
316.7389210519444873
  0
ARC
  5
B23F
  8
0
 10
4344.8384903034302624
 20
174.2083953675598025
 30
0.0
 40
0.0164879801631874
 50
319.2108449922811815
 51
1.7413961236788089
  0
ARC
  5
B240
  8
0
 10
4344.8371330095724261
 20
174.2063673029144013
 30
0.0
 40
0.0137294551498396
 50
174.1684375737297898
 51
212.6003501219931877
  0
ARC
  5
B241
  8
0
 10
4344.838657749362028
 20
174.2080760791359921
 30
0.0
 40
0.015186385984123
 50
119.2221526171685042
 51
181.184016524215707
  0
ARC
  5
B242
  8
0
 10
4344.8395086870896193
 20
174.2076576592181141
 30
0.0
 40
0.0159760541045793
 50
42.0161313198019499
 51
121.1533047402543986
  0
ARC
  5
B243
  8
0
 10
4344.8407909723719058
 20
174.2089184167749067
 30
0.0
 40
0.0141797135755079
 50
359.9110822317982752
 51
41.6993264672741475
  0
ARC
  5
B244
  8
0
 10
4344.8399306110813995
 20
174.1520489182263987
 30
0.0
 40
0.0166623770354874
 50
217.1957125037810954
 51
316.7389210519444873
  0
ARC
  5
B245
  8
0
 10
4344.8395814365103433
 20
174.1514010176634031
 30
0.0
 40
0.0164879801631874
 50
319.2108449922811815
 51
1.7413961236788089
  0
ARC
  5
B246
  8
0
 10
4344.838224142650688
 20
174.1493729530180872
 30
0.0
 40
0.0137294551498396
 50
174.1684375737297898
 51
212.6003501219931877
  0
ARC
  5
B247
  8
0
 10
4344.8397488824430184
 20
174.1510817292395927
 30
0.0
 40
0.015186385984123
 50
119.2221526171685042
 51
181.184016524215707
  0
ARC
  5
B248
  8
0
 10
4344.8405998201697003
 20
174.1506633093217999
 30
0.0
 40
0.0159760541045793
 50
42.0161313198019499
 51
121.1533047402543986
  0
ARC
  5
B249
  8
0
 10
4344.8418821054538057
 20
174.1519240668785073
 30
0.0
 40
0.0141797135755079
 50
359.9110822317982752
 51
41.6993264672741475
  0
ARC
  5
B24A
  8
0
 10
4344.9029227371729576
 20
174.335097928030109
 30
0.0
 40
0.0166623770354874
 50
217.1957125037810954
 51
316.7389210519444873
  0
ARC
  5
B24B
  8
0
 10
4344.9025735626019014
 20
174.3344500274671134
 30
0.0
 40
0.0164879801631874
 50
319.2108449922811815
 51
1.7413961236788089
  0
ARC
  5
B24C
  8
0
 10
4344.901216268744065
 20
174.3324219628217975
 30
0.0
 40
0.0137294551498396
 50
174.1684375737297898
 51
212.6003501219931877
  0
ARC
  5
B24D
  8
0
 10
4344.9027410085345764
 20
174.334130739043303
 30
0.0
 40
0.015186385984123
 50
119.2221526171685042
 51
181.184016524215707
  0
ARC
  5
B24E
  8
0
 10
4344.9035919462621678
 20
174.3337123191255102
 30
0.0
 40
0.0159760541045793
 50
42.0161313198019499
 51
121.1533047402543986
  0
ARC
  5
B24F
  8
0
 10
4344.9048742315453637
 20
174.3349730766823029
 30
0.0
 40
0.0141797135755079
 50
359.9110822317982752
 51
41.6993264672741475
  0
ARC
  5
B250
  8
0
 10
4344.9029227371729576
 20
174.2780937225300875
 30
0.0
 40
0.0166623770354874
 50
217.1957125037810954
 51
316.7389210519444873
  0
ARC
  5
B251
  8
0
 10
4344.9025735626019014
 20
174.2774458219670919
 30
0.0
 40
0.0164879801631874
 50
319.2108449922811815
 51
1.7413961236788089
  0
ARC
  5
B252
  8
0
 10
4344.901216268744065
 20
174.2754177573218044
 30
0.0
 40
0.0137294551498396
 50
174.1684375737297898
 51
212.6003501219931877
  0
ARC
  5
B253
  8
0
 10
4344.9027410085345764
 20
174.27712653354331
 30
0.0
 40
0.015186385984123
 50
119.2221526171685042
 51
181.184016524215707
  0
ARC
  5
B254
  8
0
 10
4344.9035919462621678
 20
174.2767081136254887
 30
0.0
 40
0.0159760541045793
 50
42.0161313198019499
 51
121.1533047402543986
  0
ARC
  5
B255
  8
0
 10
4344.9048742315453637
 20
174.2779688711823098
 30
0.0
 40
0.0141797135755079
 50
359.9110822317982752
 51
41.6993264672741475
  0
ARC
  5
B256
  8
0
 10
4344.9029227371729576
 20
174.2210895171301104
 30
0.0
 40
0.0166623770354874
 50
217.1957125037810954
 51
316.7389210519444873
  0
ARC
  5
B257
  8
0
 10
4344.9025735626019014
 20
174.2204416165670864
 30
0.0
 40
0.0164879801631874
 50
319.2108449922811815
 51
1.7413961236788089
  0
ARC
  5
B258
  8
0
 10
4344.901216268744065
 20
174.2184135519217989
 30
0.0
 40
0.0137294551498396
 50
174.1684375737297898
 51
212.6003501219931877
  0
ARC
  5
B259
  8
0
 10
4344.9027410085345764
 20
174.2201223281433045
 30
0.0
 40
0.015186385984123
 50
119.2221526171685042
 51
181.184016524215707
  0
ARC
  5
B25A
  8
0
 10
4344.9035919462621678
 20
174.2197039082255117
 30
0.0
 40
0.0159760541045793
 50
42.0161313198019499
 51
121.1533047402543986
  0
ARC
  5
B25B
  8
0
 10
4344.9048742315453637
 20
174.2209646657823043
 30
0.0
 40
0.0141797135755079
 50
359.9110822317982752
 51
41.6993264672741475
  0
ARC
  5
B25C
  8
0
 10
4344.9029227371729576
 20
174.1640853117301049
 30
0.0
 40
0.0166623770354874
 50
217.1957125037810954
 51
316.7389210519444873
  0
ARC
  5
B25D
  8
0
 10
4344.9025735626019014
 20
174.1634374111671093
 30
0.0
 40
0.0164879801631874
 50
319.2108449922811815
 51
1.7413961236788089
  0
ARC
  5
B25E
  8
0
 10
4344.901216268744065
 20
174.1614093465217934
 30
0.0
 40
0.0137294551498396
 50
174.1684375737297898
 51
212.6003501219931877
  0
ARC
  5
B25F
  8
0
 10
4344.9027410085345764
 20
174.163118122743299
 30
0.0
 40
0.015186385984123
 50
119.2221526171685042
 51
181.184016524215707
  0
ARC
  5
B260
  8
0
 10
4344.9035919462621678
 20
174.1626997028255062
 30
0.0
 40
0.0159760541045793
 50
42.0161313198019499
 51
121.1533047402543986
  0
ARC
  5
B261
  8
0
 10
4344.9048742315453637
 20
174.1639604603822988
 30
0.0
 40
0.0141797135755079
 50
359.9110822317982752
 51
41.6993264672741475
  0
ARC
  5
B262
  8
0
 10
4345.0283845812618893
 20
174.3230534015962121
 30
0.0
 40
0.0166623770354874
 50
223.2610789480555127
 51
322.8042874962188762
  0
ARC
  5
B263
  8
0
 10
4345.0287337558329455
 20
174.3224055010331881
 30
0.0
 40
0.0164879801631874
 50
178.2586038763211889
 51
220.7891550077187901
  0
ARC
  5
B264
  8
0
 10
4345.0300910496898723
 20
174.3203774363879006
 30
0.0
 40
0.0137294551498396
 50
327.3996498780068123
 51
5.831562426270203
  0
ARC
  5
B265
  8
0
 10
4345.0285663098993609
 20
174.3220862126094062
 30
0.0
 40
0.015186385984123
 50
358.8159834757842077
 51
60.7778473828315029
  0
ARC
  5
B266
  8
0
 10
4345.0277153721726791
 20
174.3216677926916134
 30
0.0
 40
0.0159760541045793
 50
58.8466952597455872
 51
137.9838686801979861
  0
ARC
  5
B267
  8
0
 10
4345.0264330868885736
 20
174.3229285502484061
 30
0.0
 40
0.0141797135755079
 50
138.3006735327257957
 51
180.0889177682016964
  0
ARC
  5
B268
  8
0
 10
4345.0288594539661062
 20
174.2660741761457928
 30
0.0
 40
0.0166623770354874
 50
223.2610789480555127
 51
322.8042874962188762
  0
ARC
  5
B269
  8
0
 10
4345.0292086285371624
 20
174.2654262755827972
 30
0.0
 40
0.0164879801631874
 50
178.2586038763211889
 51
220.7891550077187901
  0
ARC
  5
B26A
  8
0
 10
4345.0305659223949988
 20
174.2633982109375097
 30
0.0
 40
0.0137294551498396
 50
327.3996498780068123
 51
5.831562426270203
  0
ARC
  5
B26B
  8
0
 10
4345.0290411826035779
 20
174.2651069871589868
 30
0.0
 40
0.015186385984123
 50
358.8159834757842077
 51
60.7778473828315029
  0
ARC
  5
B26C
  8
0
 10
4345.028190244876896
 20
174.2646885672411941
 30
0.0
 40
0.0159760541045793
 50
58.8466952597455872
 51
137.9838686801979861
  0
ARC
  5
B26D
  8
0
 10
4345.0269079595937001
 20
174.2659493247979015
 30
0.0
 40
0.0141797135755079
 50
138.3006735327257957
 51
180.0889177682016964
  0
ARC
  5
B26E
  8
0
 10
4345.0282110220769027
 20
174.2090432681227128
 30
0.0
 40
0.0166623770354874
 50
223.2610789480555127
 51
322.8042874962188762
  0
ARC
  5
B26F
  8
0
 10
4345.0285601966479589
 20
174.2083953675598025
 30
0.0
 40
0.0164879801631874
 50
178.2586038763211889
 51
220.7891550077187901
  0
ARC
  5
B270
  8
0
 10
4345.0299174905057953
 20
174.2063673029144013
 30
0.0
 40
0.0137294551498396
 50
327.3996498780068123
 51
5.831562426270203
  0
ARC
  5
B271
  8
0
 10
4345.0283927507152839
 20
174.2080760791359921
 30
0.0
 40
0.015186385984123
 50
358.8159834757842077
 51
60.7778473828315029
  0
ARC
  5
B272
  8
0
 10
4345.0275418129876925
 20
174.2076576592181141
 30
0.0
 40
0.0159760541045793
 50
58.8466952597455872
 51
137.9838686801979861
  0
ARC
  5
B273
  8
0
 10
4345.0262595277035871
 20
174.2089184167749067
 30
0.0
 40
0.0141797135755079
 50
138.3006735327257957
 51
180.0889177682016964
  0
ARC
  5
B274
  8
0
 10
4345.0271198889968218
 20
174.1520489182263987
 30
0.0
 40
0.0166623770354874
 50
223.2610789480555127
 51
322.8042874962188762
  0
ARC
  5
B275
  8
0
 10
4345.027469063567878
 20
174.1514010176634031
 30
0.0
 40
0.0164879801631874
 50
178.2586038763211889
 51
220.7891550077187901
  0
ARC
  5
B276
  8
0
 10
4345.0288263574266239
 20
174.1493729530180872
 30
0.0
 40
0.0137294551498396
 50
327.3996498780068123
 51
5.831562426270203
  0
ARC
  5
B277
  8
0
 10
4345.0273016176342935
 20
174.1510817292395927
 30
0.0
 40
0.015186385984123
 50
358.8159834757842077
 51
60.7778473828315029
  0
ARC
  5
B278
  8
0
 10
4345.0264506799076116
 20
174.1506633093217999
 30
0.0
 40
0.0159760541045793
 50
58.8466952597455872
 51
137.9838686801979861
  0
ARC
  5
B279
  8
0
 10
4345.0251683946244157
 20
174.1519240668785073
 30
0.0
 40
0.0141797135755079
 50
138.3006735327257957
 51
180.0889177682016964
  0
ARC
  5
B27A
  8
0
 10
4344.9641277629061733
 20
174.335097928030109
 30
0.0
 40
0.0166623770354874
 50
223.2610789480555127
 51
322.8042874962188762
  0
ARC
  5
B27B
  8
0
 10
4344.96447693747632
 20
174.3344500274671134
 30
0.0
 40
0.0164879801631874
 50
178.2586038763211889
 51
220.7891550077187901
  0
ARC
  5
B27C
  8
0
 10
4344.9658342313332469
 20
174.3324219628217975
 30
0.0
 40
0.0137294551498396
 50
327.3996498780068123
 51
5.831562426270203
  0
ARC
  5
B27D
  8
0
 10
4344.9643094915427355
 20
174.334130739043303
 30
0.0
 40
0.015186385984123
 50
358.8159834757842077
 51
60.7778473828315029
  0
ARC
  5
B27E
  8
0
 10
4344.9634585538160536
 20
174.3337123191255102
 30
0.0
 40
0.0159760541045793
 50
58.8466952597455872
 51
137.9838686801979861
  0
ARC
  5
B27F
  8
0
 10
4344.9621762685310387
 20
174.3349730766823029
 30
0.0
 40
0.0141797135755079
 50
138.3006735327257957
 51
180.0889177682016964
  0
ARC
  5
B280
  8
0
 10
4344.9641277629061733
 20
174.2780937225300875
 30
0.0
 40
0.0166623770354874
 50
223.2610789480555127
 51
322.8042874962188762
  0
ARC
  5
B281
  8
0
 10
4344.96447693747632
 20
174.2774458219670919
 30
0.0
 40
0.0164879801631874
 50
178.2586038763211889
 51
220.7891550077187901
  0
ARC
  5
B282
  8
0
 10
4344.9658342313332469
 20
174.2754177573218044
 30
0.0
 40
0.0137294551498396
 50
327.3996498780068123
 51
5.831562426270203
  0
ARC
  5
B283
  8
0
 10
4344.9643094915427355
 20
174.27712653354331
 30
0.0
 40
0.015186385984123
 50
358.8159834757842077
 51
60.7778473828315029
  0
ARC
  5
B284
  8
0
 10
4344.9634585538160536
 20
174.2767081136254887
 30
0.0
 40
0.0159760541045793
 50
58.8466952597455872
 51
137.9838686801979861
  0
ARC
  5
B285
  8
0
 10
4344.9621762685310387
 20
174.2779688711823098
 30
0.0
 40
0.0141797135755079
 50
138.3006735327257957
 51
180.0889177682016964
  0
ARC
  5
B286
  8
0
 10
4344.9641277629061733
 20
174.2210895171301104
 30
0.0
 40
0.0166623770354874
 50
223.2610789480555127
 51
322.8042874962188762
  0
ARC
  5
B287
  8
0
 10
4344.96447693747632
 20
174.2204416165670864
 30
0.0
 40
0.0164879801631874
 50
178.2586038763211889
 51
220.7891550077187901
  0
ARC
  5
B288
  8
0
 10
4344.9658342313332469
 20
174.2184135519217989
 30
0.0
 40
0.0137294551498396
 50
327.3996498780068123
 51
5.831562426270203
  0
ARC
  5
B289
  8
0
 10
4344.9643094915427355
 20
174.2201223281433045
 30
0.0
 40
0.015186385984123
 50
358.8159834757842077
 51
60.7778473828315029
  0
ARC
  5
B28A
  8
0
 10
4344.9634585538160536
 20
174.2197039082255117
 30
0.0
 40
0.0159760541045793
 50
58.8466952597455872
 51
137.9838686801979861
  0
ARC
  5
B28B
  8
0
 10
4344.9621762685310387
 20
174.2209646657823043
 30
0.0
 40
0.0141797135755079
 50
138.3006735327257957
 51
180.0889177682016964
  0
ARC
  5
B28C
  8
0
 10
4344.9641277629061733
 20
174.1640853117301049
 30
0.0
 40
0.0166623770354874
 50
223.2610789480555127
 51
322.8042874962188762
  0
ARC
  5
B28D
  8
0
 10
4344.96447693747632
 20
174.1634374111671093
 30
0.0
 40
0.0164879801631874
 50
178.2586038763211889
 51
220.7891550077187901
  0
ARC
  5
B28E
  8
0
 10
4344.9658342313332469
 20
174.1614093465217934
 30
0.0
 40
0.0137294551498396
 50
327.3996498780068123
 51
5.831562426270203
  0
ARC
  5
B28F
  8
0
 10
4344.9643094915427355
 20
174.163118122743299
 30
0.0
 40
0.015186385984123
 50
358.8159834757842077
 51
60.7778473828315029
  0
ARC
  5
B290
  8
0
 10
4344.9634585538160536
 20
174.1626997028255062
 30
0.0
 40
0.0159760541045793
 50
58.8466952597455872
 51
137.9838686801979861
  0
ARC
  5
B291
  8
0
 10
4344.9621762685310387
 20
174.1639604603822988
 30
0.0
 40
0.0141797135755079
 50
138.3006735327257957
 51
180.0889177682016964
  0
LINE
  5
B309
  8
0
 10
4344.925650681739171
 20
173.0692030728394002
 30
0.0
 11
4344.925650681739171
 21
173.2999766175393859
 31
0.0
  0
ARC
  5
B30A
  8
0
 10
4285.3513697343387321
 20
168.8829083447394055
 30
0.0
 40
59.6858587356000072
 50
4.0224822604996069
 51
4.2419988771987818
  0
ARC
  5
B30B
  8
0
 10
4285.8572573529390866
 20
168.9171946365393921
 30
0.0
 40
59.1629161647000004
 50
4.0216943462992196
 51
4.2431417802005642
  0
ARC
  5
B30C
  8
0
 10
4315.449652052438978
 20
168.905852181839407
 30
0.0
 40
29.6800386305999986
 50
8.0532986561988302
 51
8.4943200457012544
  0
ARC
  5
B30D
  8
0
 10
4315.7139065360388486
 20
168.9418922908394052
 30
0.0
 40
29.397284410200001
 50
8.051677842796785
 51
8.4969151291963207
  0
ARC
  5
B30E
  8
0
 10
4344.9336998292401404
 20
172.3727274790394119
 30
0.0
 40
0.6739273062000001
 50
90.0148423292661874
 51
100.8227370269998033
  0
ARC
  5
B30F
  8
0
 10
4344.9336617697390466
 20
172.3733725570394029
 30
0.0
 40
0.6407008229
 50
90.0122085097186471
 51
100.7937917703221018
  0
ARC
  5
B310
  8
0
 10
4344.8108521535832551
 20
173.0187011327776929
 30
0.0
 40
0.0162109169570783
 50
181.5586844478690125
 51
280.0267424443920845
  0
ARC
  5
B311
  8
0
 10
4344.810105531912086
 20
173.0194469323251099
 30
0.0
 40
0.0155037841660497
 50
100.9680664919924027
 51
184.390046316392386
  0
ARC
  5
B312
  8
0
 10
4344.8289883186507723
 20
173.0605420329771107
 30
0.0
 40
0.0076686291175232
 50
188.1216080090779883
 51
283.7934162483356886
  0
ARC
  5
B313
  8
0
 10
4344.8285877432153939
 20
173.0615252561237014
 30
0.0
 40
0.0087203742625067
 50
284.8092538769038811
 51
15.4898168959919094
  0
ARC
  5
B314
  8
0
 10
4344.7982389776161654
 20
173.287538140128504
 30
0.0
 40
0.0099248119502878
 50
123.2597372552720003
 51
191.7196355330686117
  0
ARC
  5
B315
  8
0
 10
4344.7963127591783632
 20
173.2887765532757953
 30
0.0
 40
0.0078880469529543
 50
8.4172551660720316
 51
116.4778439403300041
  0
ARC
  5
B316
  8
0
 10
4344.8824653241072156
 20
173.0673866527590974
 30
0.0
 40
0.0080216360034022
 50
186.0766298117302995
 51
296.0329208082001173
  0
ARC
  5
B317
  8
0
 10
4344.8799550310095583
 20
173.0685453266353022
 30
0.0
 40
0.010313540670864
 50
305.7856453934414844
 51
6.6860083745259242
  0
ARC
  5
B318
  8
0
 10
4344.8677358732920766
 20
173.2958922132903865
 30
0.0
 40
0.0098096194976098
 50
115.4032032299483035
 51
187.5297118057324894
  0
ARC
  5
B319
  8
0
 10
4344.8656089456590053
 20
173.2968533264620135
 30
0.0
 40
0.0081695816049952
 50
6.8322998060592077
 51
104.759187603880207
  0
ARC
  5
B31A
  8
0
 10
4344.9343224533176908
 20
173.2991104611438971
 30
0.0
 40
0.0087149210669114
 50
95.2485071628803013
 51
174.2960845042740914
  0
ARC
  5
B31B
  8
0
 10
4344.9338892703954116
 20
173.0696150782115978
 30
0.0
 40
0.0082488842554178
 50
182.862932034261803
 51
267.4707361181293095
  0
LINE
  5
B31C
  8
0
 10
4344.9413998183563308
 20
173.0692030728394002
 30
0.0
 11
4344.9413998183563308
 21
173.2999766175393859
 31
0.0
  0
ARC
  5
B31D
  8
0
 10
4404.5156807657558602
 20
168.8829083447394055
 30
0.0
 40
59.6858587356000072
 50
175.758001122801204
 51
175.9775177395003993
  0
ARC
  5
B31E
  8
0
 10
4404.0097931471564152
 20
168.9171946365393921
 30
0.0
 40
59.1629161647000004
 50
175.7568582197993976
 51
175.9783056537008008
  0
ARC
  5
B31F
  8
0
 10
4374.4173984476547048
 20
168.905852181839407
 30
0.0
 40
29.6800386305999986
 50
171.5056799542986994
 51
171.9467013438012088
  0
ARC
  5
B320
  8
0
 10
4374.1531439640557437
 20
168.9418922908394052
 30
0.0
 40
29.397284410200001
 50
171.5030848708036899
 51
171.9483221572031937
  0
ARC
  5
B321
  8
0
 10
4344.9333506708562709
 20
172.3727274790394119
 30
0.0
 40
0.6739273062000001
 50
79.1772629730002393
 51
89.9851576707337983
  0
ARC
  5
B322
  8
0
 10
4344.9333887303555457
 20
172.3733725570394029
 30
0.0
 40
0.6407008229
 50
79.206208229677884
 51
89.9877914902813529
  0
ARC
  5
B323
  8
0
 10
4345.0561983465122466
 20
173.0187011327776929
 30
0.0
 40
0.0162109169570783
 50
259.9732575556079155
 51
358.4413155521310159
  0
ARC
  5
B324
  8
0
 10
4345.0569449681834158
 20
173.0194469323251099
 30
0.0
 40
0.0155037841660497
 50
355.6099536836075004
 51
79.0319335080076115
  0
ARC
  5
B325
  8
0
 10
4345.03806218144382
 20
173.0605420329771107
 30
0.0
 40
0.0076686291175232
 50
256.2065837516643114
 51
351.878391990921898
  0
ARC
  5
B326
  8
0
 10
4345.0384627568801079
 20
173.0615252561237014
 30
0.0
 40
0.0087203742625067
 50
164.5101831040080924
 51
255.1907461230960905
  0
ARC
  5
B327
  8
0
 10
4345.0688115224793364
 20
173.287538140128504
 30
0.0
 40
0.0099248119502878
 50
348.2803644669314167
 51
56.7402627447279571
  0
ARC
  5
B328
  8
0
 10
4345.0707377409171386
 20
173.2887765532757953
 30
0.0
 40
0.0078880469529543
 50
63.5221560596699391
 51
171.5827448339279897
  0
ARC
  5
B329
  8
0
 10
4344.9845851759882862
 20
173.0673866527590974
 30
0.0
 40
0.0080216360034022
 50
243.9670791917999111
 51
353.9233701882697005
  0
ARC
  5
B32A
  8
0
 10
4344.987095469085034
 20
173.0685453266353022
 30
0.0
 40
0.010313540670864
 50
173.3139916254739887
 51
234.2143546065584871
  0
ARC
  5
B32B
  8
0
 10
4344.9993146268034252
 20
173.2958922132903865
 30
0.0
 40
0.0098096194976098
 50
352.4702881942674821
 51
64.5967967700517107
  0
ARC
  5
B32C
  8
0
 10
4345.001441554435587
 20
173.2968533264620135
 30
0.0
 40
0.0081695816049952
 50
75.240812396119793
 51
173.1677001939407887
  0
ARC
  5
B32D
  8
0
 10
4344.9327280467769015
 20
173.2991104611438971
 30
0.0
 40
0.0087149210669114
 50
5.7039154957258722
 51
84.7514928371197129
  0
ARC
  5
B32E
  8
0
 10
4344.9331612296991807
 20
173.0696150782115978
 30
0.0
 40
0.0082488842554178
 50
272.5292638818706905
 51
357.137067965738197
  0
ENDSEC
  0
EOF
