  0
SECTION
  2
HEADER
  9
$ACADVER
  1
AC1009
  9
$INSBASE
 10
4334.7267259449236008
 20
175.1646482054972012
 30
0.0
  9
$EXTMIN
 10
4333.6015155825716647
 20
175.1589688521337109
 30
0.0
  9
$EXTMAX
 10
4335.8519363072737178
 20
181.6400313000499125
 30
0.0
  9
$LIMMIN
 10
0.0
 20
0.0
  9
$LIMMAX
 10
11.6929133858000007
 20
8.2677165353999982
  9
$ORTHOMODE
 70
     1
  9
$REGENMODE
 70
     1
  9
$FILLMODE
 70
     1
  9
$QTEXTMODE
 70
     0
  9
$MIRRTEXT
 70
     0
  9
$DRAGMODE
 70
     2
  9
$LTSCALE
 40
0.6431102362
  9
$OSMODE
 70
  4095
  9
$ATTMODE
 70
     1
  9
$TEXTSIZE
 40
0.2
  9
$TRACEWID
 40
0.05
  9
$TEXTSTYLE
  7
STANDARD
  9
$CLAYER
  8
0
  9
$CELTYPE
  6
BYLAYER
  9
$CECOLOR
 62
   256
  9
$DIMSCALE
 40
1.0
  9
$DIMASZ
 40
0.1875
  9
$DIMEXO
 40
0.0625
  9
$DIMDLI
 40
0.4443307087
  9
$DIMRND
 40
0.0
  9
$DIMDLE
 40
0.0
  9
$DIMEXE
 40
0.125
  9
$DIMTP
 40
0.01
  9
$DIMTM
 40
0.01
  9
$DIMTXT
 40
2.0
  9
$DIMCEN
 40
0.1052362205
  9
$DIMTSZ
 40
0.0
  9
$DIMTOL
 70
     1
  9
$DIMLIM
 70
     0
  9
$DIMTIH
 70
     1
  9
$DIMTOH
 70
     1
  9
$DIMSE1
 70
     0
  9
$DIMSE2
 70
     0
  9
$DIMTAD
 70
     0
  9
$DIMZIN
 70
     0
  9
$DIMBLK
  1

  9
$DIMASO
 70
     1
  9
$DIMSHO
 70
     1
  9
$DIMPOST
  1
\X
  9
$DIMAPOST
  1

  9
$DIMALT
 70
     1
  9
$DIMALTD
 70
     2
  9
$DIMALTF
 40
25.3999999999999986
  9
$DIMLFAC
 40
1.0
  9
$DIMTOFL
 70
     0
  9
$DIMTVP
 40
0.0
  9
$DIMTIX
 70
     0
  9
$DIMSOXD
 70
     0
  9
$DIMSAH
 70
     0
  9
$DIMBLK1
  1

  9
$DIMBLK2
  1

  9
$DIMSTYLE
  2
STANDARD
  9
$DIMCLRD
 70
     0
  9
$DIMCLRE
 70
     0
  9
$DIMCLRT
 70
     0
  9
$DIMTFAC
 40
1.0
  9
$DIMGAP
 40
0.09
  9
$LUNITS
 70
     2
  9
$LUPREC
 70
     4
  9
$SKETCHINC
 40
0.1
  9
$FILLETRAD
 40
0.0
  9
$AUNITS
 70
     0
  9
$AUPREC
 70
     0
  9
$MENU
  1
.
  9
$ELEVATION
 40
0.0
  9
$PELEVATION
 40
0.0
  9
$THICKNESS
 40
0.0
  9
$LIMCHECK
 70
     0
  9
$BLIPMODE
 70
     0
  9
$CHAMFERA
 40
0.0
  9
$CHAMFERB
 40
0.0
  9
$SKPOLY
 70
     0
  9
$TDCREATE
 40
2458060.468368056230247
  9
$TDUPDATE
 40
2459124.7400347217917442
  9
$TDINDWG
 40
0.3296482639
  9
$TDUSRTIMER
 40
0.3296482639
  9
$USRTIMER
 70
     1
  9
$ANGBASE
 50
0.0
  9
$ANGDIR
 70
     0
  9
$PDMODE
 70
     0
  9
$PDSIZE
 40
0.3125
  9
$PLINEWID
 40
0.0
  9
$COORDS
 70
     1
  9
$SPLFRAME
 70
     0
  9
$SPLINETYPE
 70
     6
  9
$SPLINESEGS
 70
     8
  9
$ATTDIA
 70
     1
  9
$ATTREQ
 70
     1
  9
$HANDLING
 70
     1
  9
$HANDSEED
  5
B187
  9
$SURFTAB1
 70
     6
  9
$SURFTAB2
 70
     6
  9
$SURFTYPE
 70
     6
  9
$SURFU
 70
     6
  9
$SURFV
 70
     6
  9
$UCSNAME
  2

  9
$UCSORG
 10
0.0
 20
0.0
 30
0.0
  9
$UCSXDIR
 10
1.0
 20
0.0
 30
0.0
  9
$UCSYDIR
 10
0.0
 20
1.0
 30
0.0
  9
$PUCSNAME
  2

  9
$PUCSORG
 10
0.0
 20
0.0
 30
0.0
  9
$PUCSXDIR
 10
1.0
 20
0.0
 30
0.0
  9
$PUCSYDIR
 10
0.0
 20
1.0
 30
0.0
  9
$USERI1
 70
     0
  9
$USERI2
 70
     0
  9
$USERI3
 70
     0
  9
$USERI4
 70
     0
  9
$USERI5
 70
     0
  9
$USERR1
 40
0.0
  9
$USERR2
 40
0.0
  9
$USERR3
 40
0.0
  9
$USERR4
 40
0.0
  9
$USERR5
 40
0.0
  9
$WORLDVIEW
 70
     1
  9
$SHADEDGE
 70
     3
  9
$SHADEDIF
 70
    70
  9
$TILEMODE
 70
     1
  9
$MAXACTVP
 70
    64
  9
$PLIMCHECK
 70
     0
  9
$PEXTMIN
 10
1.0000000000000000E+20
 20
1.0000000000000000E+20
 30
1.0000000000000000E+20
  9
$PEXTMAX
 10
-1.0000000000000000E+20
 20
-1.0000000000000000E+20
 30
-1.0000000000000000E+20
  9
$PLIMMIN
 10
0.0
 20
0.0
  9
$PLIMMAX
 10
12.0
 20
9.0
  9
$UNITMODE
 70
     0
  9
$VISRETAIN
 70
     1
  9
$PLINEGEN
 70
     0
  9
$PSLTSCALE
 70
     1
  0
ENDSEC
  0
SECTION
  2
TABLES
  0
TABLE
  2
VPORT
 70
     1
  0
VPORT
  2
*ACTIVE
 70
     0
 10
0.0
 20
0.0
 11
1.0
 21
1.0
 12
0.0
 22
0.0
 13
0.0
 23
0.0
 14
1.0
 24
1.0
 15
0.0
 25
0.0
 16
0.0
 26
0.0
 36
19.439560052896919
 17
4334.726806640625
 27
178.3994993796800941
 37
0.0
 40
6.8630759332797719
 41
2.1186252771618621
 42
50.0
 43
0.0
 44
0.0
 50
0.0
 51
0.0
 71
     0
 72
   100
 73
     1
 74
     1
 75
     0
 76
     0
 77
     0
 78
     0
  0
ENDTAB
  0
TABLE
  2
LTYPE
 70
     2
  0
LTYPE
  2
CONTINUOUS
 70
     0
  3
Solid line
 72
    65
 73
     0
 40
0.0
  0
LTYPE
  2
PHANTOM2
 70
     0
  3
___ _ _ ___ _ _ ___ _ _ ___ _ _
 72
    65
 73
     6
 40
1.25
 49
0.625
 49
-0.125
 49
0.125
 49
-0.125
 49
0.125
 49
-0.125
  0
ENDTAB
  0
TABLE
  2
LAYER
 70
     2
  0
LAYER
  2
0
 70
     0
 62
   255
  6
CONTINUOUS
  0
LAYER
  2
DEFPOINTS
 70
     0
 62
     7
  6
CONTINUOUS
  0
ENDTAB
  0
TABLE
  2
STYLE
 70
     1
  0
STYLE
  2
STANDARD
 70
     0
 40
0.0
 41
0.8
 50
0.0
 71
     0
 42
0.2
  3
txt
  4

  0
ENDTAB
  0
TABLE
  2
VIEW
 70
     0
  0
ENDTAB
  0
TABLE
  2
UCS
 70
     0
  0
ENDTAB
  0
TABLE
  2
APPID
 70
     9
  0
APPID
  2
ACAD
 70
     0
  0
APPID
  2
ACAD_MLEADERVER
 70
     0
  0
APPID
  2
ACAD_EXEMPT_FROM_CAD_STANDARDS
 70
     0
  0
APPID
  2
ACAD_NAV_VCDISPLAY
 70
     0
  0
APPID
  2
ACAECLAYERSTANDARD
 70
     0
  0
APPID
  2
ACCMTRANSPARENCY
 70
     0
  0
APPID
  2
ACAD_DSTYLE_DIMJAG
 70
     0
  0
APPID
  2
ACAD_DSTYLE_DIMTALN
 70
     0
  0
APPID
  2
ACDBATTR
 70
     0
  0
ENDTAB
  0
TABLE
  2
DIMSTYLE
 70
     1
  0
DIMSTYLE
  2
STANDARD
 70
     0
  3

  4

  5

  6

  7

 40
1.0
 41
0.1875
 42
0.0625
 43
0.38
 44
0.125
 45
0.0
 46
0.0
 47
0.01
 48
0.01
140
0.15625
141
0.09
142
0.0
143
25.3999999999999986
144
1.0
145
0.0
146
1.0
147
0.09
 71
     1
 72
     0
 73
     1
 74
     1
 75
     0
 76
     0
 77
     0
 78
     4
170
     0
171
     2
172
     0
173
     0
174
     0
175
     0
176
     0
177
     0
178
     0
  0
ENDTAB
  0
ENDSEC
  0
SECTION
  2
BLOCKS
  0
BLOCK
  8
0
  2
$MODEL_SPACE
 70
     0
 10
0.0
 20
0.0
 30
0.0
  3
$MODEL_SPACE
  1

  0
ENDBLK
  5
21
  8
0
  0
BLOCK
 67
     1
  8
0
  2
$PAPER_SPACE
 70
     0
 10
0.0
 20
0.0
 30
0.0
  3
$PAPER_SPACE
  1

  0
ENDBLK
  5
1D
 67
     1
  8
0
  0
ENDSEC
  0
SECTION
  2
ENTITIES
  0
ATTDEF
  5
3930
  8
DEFPOINTS
 10
4334.7218616082791414
 20
175.1623021854670128
 30
0.0
 40
0.001
  1
24277
  3

  2
MODELNUMBER
 70
     0
1001
ACDBATTR
1070
     0
1070
     1
  0
ATTDEF
  5
3931
  8
DEFPOINTS
 10
4334.7218616082791414
 20
175.1606355188002908
 30
0.0
 40
0.001
  1
VALTON
  3

  2
TRADENAME
 70
     0
1001
ACDBATTR
1070
     0
1070
     1
  0
ATTDEF
  5
3932
  8
DEFPOINTS
 10
4334.7218616082791414
 20
175.1589688521337109
 30
0.0
 40
0.001
  1
KITCHEN SINK FAUCET
  3

  2
PRODUCT
 70
     0
1001
ACDBATTR
1070
     0
1070
     1
  0
LINE
  5
AE3E
  8
0
 10
4334.1413633250722341
 20
179.3132967011972028
 30
0.0
 11
4334.1410350264732187
 21
179.3245440929972006
 31
0.0
  0
LINE
  5
AE3F
  8
0
 10
4334.1361867809719115
 20
178.2100289064972003
 30
0.0
 11
4334.1361867809719115
 21
179.085226595397188
 31
0.0
  0
LINE
  5
AE40
  8
0
 10
4334.1826116126730994
 20
179.3482038171972022
 30
0.0
 11
4334.1826116126730994
 21
179.3584665370815117
 31
0.0
  0
LINE
  5
AE41
  8
0
 10
4334.2572487728730266
 20
179.2568963264972979
 30
0.0
 11
4334.2573434159894532
 21
179.3971560866939114
 31
0.0
  0
LINE
  5
AE42
  8
0
 10
4334.374375757272901
 20
179.2454082942971922
 30
0.0
 11
4334.374375757272901
 21
179.2795341110972061
 31
0.0
  0
LINE
  5
AE43
  8
0
 10
4334.4141888692729481
 20
179.2831978679971883
 30
0.0
 11
4334.4141888692729481
 21
179.2940809027973046
 31
0.0
  0
LINE
  5
AE44
  8
0
 10
4334.619004781872718
 20
179.3247687680971865
 30
0.0
 11
4334.6188664138717286
 21
179.3261494402972005
 31
0.0
  0
LINE
  5
AE45
  8
0
 10
4334.5003600092732086
 20
179.2866053928972008
 30
0.0
 11
4334.5003600092732086
 21
179.2807980773972076
 31
0.0
  0
LINE
  5
AE46
  8
0
 10
4334.5220135525732985
 20
179.2778944196973043
 30
0.0
 11
4334.5220135525732985
 21
179.289509050597303
 31
0.0
  0
LINE
  5
AE47
  8
0
 10
4334.5436670958733885
 20
179.2807980773972076
 30
0.0
 11
4334.5436670958733885
 21
179.2866053928972008
 31
0.0
  0
LINE
  5
AE48
  8
0
 10
4334.5454378693730177
 20
179.4274174870971876
 30
0.0
 11
4334.5454378693730177
 21
179.3574819803972105
 31
0.0
  0
LINE
  5
AE49
  8
0
 10
4334.6086277257718393
 20
177.6952430836973065
 30
0.0
 11
4334.6086277257718393
 21
177.5930942857810919
 31
0.0
  0
LINE
  5
AE4A
  8
0
 10
4334.6207806035727117
 20
179.3234606283972994
 30
0.0
 11
4334.6207829675777248
 21
179.3262757591396905
 31
0.0
  0
LINE
  5
AE4B
  8
0
 10
4334.4089506162717953
 20
179.2838312127973097
 30
0.0
 11
4334.4065530248326468
 21
179.2916327668357894
 31
0.0
  0
LINE
  5
AE4C
  8
0
 10
4334.5613083407733939
 20
179.1715985543972067
 30
0.0
 11
4334.5610409586379319
 21
179.1730884816091987
 31
0.0
  0
LINE
  5
AE4D
  8
0
 10
4334.5610725584865577
 20
179.3212052178319027
 30
0.0
 11
4334.5613083407733939
 21
179.3192180340971902
 31
0.0
  0
LINE
  5
AE4E
  8
0
 10
4334.3850519678717319
 20
179.2203860329973111
 30
0.0
 11
4334.3823985842518596
 21
179.2279233428743908
 31
0.0
  0
LINE
  5
AE4F
  8
0
 10
4334.374375757272901
 20
179.2507133130972079
 30
0.0
 11
4334.3655368814588655
 21
179.2756706590436977
 31
0.0
  0
LINE
  5
AE50
  8
0
 10
4334.3810849304300064
 20
179.2823017128752099
 30
0.0
 11
4334.3850519678717319
 21
179.2704305554973132
 31
0.0
  0
LINE
  5
AE51
  8
0
 10
4334.6207806035727117
 20
179.1673559600972112
 30
0.0
 11
4334.619004781872718
 21
179.1660478203972104
 31
0.0
  0
LINE
  5
AE52
  8
0
 10
4334.5613083407733939
 20
179.1715985543972067
 30
0.0
 11
4334.5640352026730397
 21
179.1728151984972044
 31
0.0
  0
LINE
  5
AE53
  8
0
 10
4334.619004781872718
 20
179.3247687680971865
 30
0.0
 11
4334.6207806035727117
 21
179.3234606283972994
 31
0.0
  0
LINE
  5
AE54
  8
0
 10
4334.1647379708729204
 20
179.3563513147971946
 30
0.0
 11
4334.1826116126730994
 21
179.3482038171972022
 31
0.0
  0
LINE
  5
AE55
  8
0
 10
4334.5640352026730397
 20
179.3180013899971925
 30
0.0
 11
4334.5613083407733939
 21
179.3192180340971902
 31
0.0
  0
LINE
  5
AE56
  8
0
 10
4334.1730221948728285
 20
179.3186390657972993
 30
0.0
 11
4334.1498810431730817
 21
179.3260368388972097
 31
0.0
  0
LINE
  5
AE57
  8
0
 10
4334.1092365919730582
 20
178.297854439441295
 30
0.0
 11
4333.6593500176641101
 21
178.2978549276903095
 31
0.0
  0
LINE
  5
AE58
  8
0
 10
4334.4089506162717953
 20
179.2838312127973097
 30
0.0
 11
4334.4141888692729481
 21
179.2831978679971883
 31
0.0
  0
LINE
  5
AE59
  8
0
 10
4334.5003600092732086
 20
179.2807980773972076
 30
0.0
 11
4334.5220135525732985
 21
179.2778944196973043
 31
0.0
  0
LINE
  5
AE5A
  8
0
 10
4334.5436670958733885
 20
179.2866053928972008
 30
0.0
 11
4334.5220135525732985
 21
179.289509050597303
 31
0.0
  0
LINE
  5
AE5B
  8
0
 10
4334.3906841545722273
 20
179.2700181006972002
 30
0.0
 11
4334.3850519678717319
 21
179.2704305554973132
 31
0.0
  0
LINE
  5
AE5C
  8
0
 10
4334.7716282863066226
 20
179.3383352598972067
 30
0.0
 11
4334.6818236036733651
 21
179.3383352598972067
 31
0.0
  0
LINE
  5
AE5D
  8
0
 10
4334.5220135525732985
 20
179.2778944196973043
 30
0.0
 11
4334.5436670958733885
 21
179.2807980773972076
 31
0.0
  0
LINE
  5
AE5E
  8
0
 10
4334.5220135525732985
 20
179.289509050597303
 30
0.0
 11
4334.5003600092732086
 21
179.2866053928972008
 31
0.0
  0
LINE
  5
AE5F
  8
0
 10
4334.4141888692729481
 20
179.2076187204972086
 30
0.0
 11
4334.4089506162717953
 21
179.2069853756972009
 31
0.0
  0
LINE
  5
AE60
  8
0
 10
4334.2176906096728999
 20
179.3523551745973066
 30
0.0
 11
4334.1826116126730994
 21
179.3482038171972022
 31
0.0
  0
LINE
  5
AE61
  8
0
 10
4334.2001197733734443
 20
179.3605385071973046
 30
0.0
 11
4334.1647379708729204
 21
179.3563513147971946
 31
0.0
  0
LINE
  5
AE62
  8
0
 10
4334.3850519678717319
 20
179.2203860329973111
 30
0.0
 11
4334.3906841545722273
 21
179.2207984877971967
 31
0.0
  0
LINE
  5
AE63
  8
0
 10
4334.1413633249730992
 20
179.3132967011972028
 30
0.0
 11
4334.1730221948728285
 21
179.3186390657972993
 31
0.0
  0
LINE
  5
AE64
  8
0
 10
4334.1182221733733968
 20
179.3206944742973121
 30
0.0
 11
4334.1498810431730817
 21
179.3260368388972097
 31
0.0
  0
ARC
  5
AE65
  8
0
 10
4334.8553073719040185
 20
171.877157345344898
 30
0.0
 40
7.4406860562614874
 50
90.9901694221916273
 51
91.4139673348832247
  0
ARC
  5
AE66
  8
0
 10
4334.7267379620743668
 20
180.3635767678972002
 30
0.0
 40
1.062992125999999
 50
90.0006477300926662
 51
119.2839183387932991
  0
LINE
  5
AE67
  8
0
 10
4333.6440176798732864
 20
178.0389952768722992
 30
0.0
 11
4333.6440176798732864
 21
175.1646482054972012
 31
0.0
  0
ARC
  5
AE68
  8
0
 10
4333.5805701108811263
 20
178.0473691561016096
 30
0.0
 40
0.063997780151087
 50
352.4814946601986776
 51
40.4792955047389498
  0
ARC
  5
AE69
  8
0
 10
4333.7093303942474449
 20
178.1609178200928056
 30
0.0
 40
0.1076912113309023
 50
126.349444375578301
 51
221.9595866772787076
  0
ARC
  5
AE6A
  8
0
 10
4333.5331966854801067
 20
178.3056467313963083
 30
0.0
 40
0.1263937317519576
 50
332.6887050904703074
 51
356.4656417982284893
  0
ARC
  5
AE6B
  8
0
 10
4345.5153674914527073
 20
177.9098454270773004
 30
0.0
 40
11.86236492910853
 50
172.7567390611143878
 51
178.1255615518566913
  0
ARC
  5
AE6C
  8
0
 10
4335.7095689493207828
 20
180.203481273729011
 30
0.0
 40
2.1179865186429172
 50
202.1339836405961137
 51
207.725858348010803
  0
ARC
  5
AE6D
  8
0
 10
4333.9787489225618629
 20
179.3146174386619975
 30
0.0
 40
0.1733401347603011
 50
213.8331086792834981
 51
248.0911834027290865
  0
ARC
  5
AE6E
  8
0
 10
4334.2978526369952306
 20
180.0029426357513955
 30
0.0
 40
0.931846864955242
 50
245.6788248995787001
 51
260.0092186114550259
  0
ARC
  5
AE6F
  8
0
 10
4334.616377754048699
 20
181.5124436082651016
 30
0.0
 40
2.47426065687903
 50
258.8093347355613787
 51
265.9366303644964091
  0
ARC
  5
AE70
  8
0
 10
4334.7296480678523949
 20
182.873381340547013
 30
0.0
 40
3.8398393559774791
 50
265.6896821635262995
 51
269.9563978302888927
  0
ARC
  5
AE71
  8
0
 10
4333.9234884157967826
 20
179.2507160694810864
 30
0.0
 40
0.0945296474945407
 50
179.4115840019429129
 51
200.1801680007712037
  0
ARC
  5
AE72
  8
0
 10
4333.9188804434052145
 20
179.2275161758159925
 30
0.0
 40
0.093108714915658
 50
121.437589453678001
 51
164.953891293893804
  0
ARC
  5
AE73
  8
0
 10
4334.1525399469383046
 20
178.8667205508214124
 30
0.0
 40
0.5229319199716178
 50
104.7739888508287009
 51
122.6626738493391002
  0
ARC
  5
AE74
  8
0
 10
4334.5779979585449837
 20
177.2850538703908967
 30
0.0
 40
2.1608172335653411
 50
93.7213512294481319
 51
104.9876078280670981
  0
ARC
  5
AE75
  8
0
 10
4334.7924881767248735
 20
173.965945023989093
 30
0.0
 40
5.4868492285061157
 50
90.6867308344826455
 51
93.7068774618355746
  0
ARC
  5
AE76
  8
0
 10
4334.7062886729190723
 20
177.6490712689123939
 30
0.0
 40
0.1125659061977226
 50
209.8203316073600035
 51
250.8394661364073102
  0
ARC
  5
AE77
  8
0
 10
4334.732364519643852
 20
177.731159608106509
 30
0.0
 40
0.1986787285008574
 50
251.5060513711846113
 51
268.3737065316003054
  0
ARC
  5
AE78
  8
0
 10
4334.7455394048529342
 20
178.5493626633200108
 30
0.0
 40
0.8650231581660134
 50
260.8932054779224927
 51
268.7537711089099162
  0
ARC
  5
AE79
  8
0
 10
4334.6830455164863452
 20
178.2377220018834976
 30
0.0
 40
0.5475594801034953
 50
182.8989995797570884
 51
262.188863483062903
  0
ARC
  5
AE7A
  8
0
 10
4334.6782391415117672
 20
177.6758785708194068
 30
0.0
 40
0.0719661231072943
 50
194.6971585791580992
 51
243.7176221313017948
  0
ARC
  5
AE7B
  8
0
 10
4334.7321975336781179
 20
177.7849270522652034
 30
0.0
 40
0.1936340157347575
 50
243.6897644258274909
 51
268.3807562063091154
  0
ARC
  5
AE7C
  8
0
 10
4334.6296847543708282
 20
178.1538396672686133
 30
0.0
 40
0.5400060595461044
 50
156.0464471744996047
 51
225.6636234182498129
  0
ARC
  5
AE7D
  8
0
 10
4334.729690636810119
 20
178.2532832313528957
 30
0.0
 40
0.6810270792525844
 50
225.4927482385546114
 51
260.3925604011897121
  0
ARC
  5
AE7E
  8
0
 10
4334.7525401806933587
 20
176.8098176743679915
 30
0.0
 40
0.4949157760784312
 50
92.9898384541651666
 51
100.1410718092865011
  0
ARC
  5
AE7F
  8
0
 10
4334.6809916279116806
 20
177.2192273139231986
 30
0.0
 40
0.0793217948046021
 50
101.3365826975339985
 51
129.532323002961391
  0
ARC
  5
AE80
  8
0
 10
4334.6496790011860867
 20
177.2581781260161051
 30
0.0
 40
0.0293564939496616
 50
130.7861371400063888
 51
173.2155971891951083
  0
ARC
  5
AE81
  8
0
 10
4334.6550975788159121
 20
177.2602429254249046
 30
0.0
 40
0.0345979750267864
 50
177.6756167394420061
 51
222.4471708306552955
  0
ARC
  5
AE82
  8
0
 10
4334.7042380334833069
 20
177.3024998932245069
 30
0.0
 40
0.0993981710048396
 50
221.303477842071004
 51
253.0684119377380057
  0
ARC
  5
AE83
  8
0
 10
4334.7368520988993623
 20
177.4222027737885981
 30
0.0
 40
0.2234404831099161
 50
254.0071445970791046
 51
267.4025088823120768
  0
ARC
  5
AE84
  8
0
 10
4334.7402531237421499
 20
177.5141810526212112
 30
0.0
 40
0.2297173866805009
 50
250.9827759435144969
 51
266.6241176094922025
  0
ARC
  5
AE85
  8
0
 10
4334.7726289417505541
 20
177.2624212300827935
 30
0.0
 40
1.1824728978811749
 50
254.3449079915610014
 51
267.7752479587426251
  0
ARC
  5
AE86
  8
0
 10
4334.6234076621167333
 20
176.6813775927340942
 30
0.0
 40
0.5828645592755533
 50
215.5005433139108959
 51
253.0564267576833117
  0
ARC
  5
AE87
  8
0
 10
4334.697830046047784
 20
176.6894291297757036
 30
0.0
 40
0.6491643218415709
 50
176.8889861093155957
 51
212.2629107352574067
  0
ARC
  5
AE88
  8
0
 10
4351.4754820772177482
 20
176.3661994248477924
 30
0.0
 40
17.4295461330440489
 50
177.3023893433407068
 51
178.8215577794109947
  0
ARC
  5
AE89
  8
0
 10
4350.5370732620158378
 20
176.4839732419667087
 30
0.0
 40
16.4867979609783006
 50
174.792540185349992
 51
177.5577422828874887
  0
ARC
  5
AE8A
  8
0
 10
4334.7366605581783006
 20
182.545176672108596
 30
0.0
 40
3.504783075860276
 50
261.3109893865312188
 51
269.8375898991483268
  0
ARC
  5
AE8B
  8
0
 10
4334.4299774493410951
 20
180.4339823938987877
 30
0.0
 40
1.371578981838423
 50
251.5378717469554033
 51
260.6518948491108745
  0
ARC
  5
AE8C
  8
0
 10
4334.0921138157827954
 20
179.4493205330005878
 30
0.0
 40
0.330713891712016
 50
228.9893065817111903
 51
253.0373997770221877
  0
ARC
  5
AE8D
  8
0
 10
4333.9150343470319058
 20
179.2476149722629089
 30
0.0
 40
0.0623227413328602
 50
181.3411081333474897
 51
230.1502581091764057
  0
ARC
  5
AE8E
  8
0
 10
4333.9206163663093321
 20
179.2389639211820054
 30
0.0
 40
0.0682676282994767
 50
128.3340037423423894
 51
173.9523164258918939
  0
ARC
  5
AE8F
  8
0
 10
4334.030254521493589
 20
179.1227456085393897
 30
0.0
 40
0.2278581543492652
 50
111.2437512832087947
 51
131.835740569320194
  0
ARC
  5
AE90
  8
0
 10
4334.3177544819445757
 20
178.4559693897315924
 30
0.0
 40
0.9538613614056924
 50
100.6013082305325952
 51
112.8277027814395979
  0
ARC
  5
AE91
  8
0
 10
4334.5621940854571221
 20
177.3606580575049065
 30
0.0
 40
2.0758093441923311
 50
96.6983575341855328
 51
101.6711753069910031
  0
ARC
  5
AE92
  8
0
 10
4334.7593434905465983
 20
175.2974206794926886
 30
0.0
 40
4.1482015444142384
 50
90.4505246287068871
 51
96.0787714078096258
  0
ARC
  5
AE93
  8
0
 10
4334.7778606094825591
 20
183.4742131305337978
 30
0.0
 40
4.4003252462326472
 50
265.2150909503898788
 51
269.3341704883054035
  0
ARC
  5
AE94
  8
0
 10
4334.5479863214713987
 20
180.7559712519488073
 30
0.0
 40
1.672383381978787
 50
253.3876792825221003
 51
265.2949157386896104
  0
ARC
  5
AE95
  8
0
 10
4334.173716164533289
 20
179.5118237327164081
 30
0.0
 40
0.3731751224565794
 50
233.3751909150516042
 51
253.841180920978303
  0
ARC
  5
AE96
  8
0
 10
4333.9971218965492881
 20
179.2720035913851007
 30
0.0
 40
0.0753659422382807
 50
195.4897469629368914
 51
232.3543503278453102
  0
ARC
  5
AE97
  8
0
 10
4333.9564105601020856
 20
179.2596127146522065
 30
0.0
 40
0.0328415082773183
 50
142.3439374521510956
 51
193.6258075405320938
  0
ARC
  5
AE98
  8
0
 10
4334.0561603731293872
 20
179.1728460114906909
 30
0.0
 40
0.1650024494317322
 50
113.5201819855008978
 51
139.6506535033925047
  0
ARC
  5
AE99
  8
0
 10
4334.2828557215952969
 20
178.6949108690930075
 30
0.0
 40
0.6939098029243568
 50
103.9052854006738045
 51
114.9348098090560057
  0
ARC
  5
AE9A
  8
0
 10
4334.6380251352984487
 20
177.1594801125935987
 30
0.0
 40
2.2698264992025612
 50
92.337769768144554
 51
103.2936492574060026
  0
ARC
  5
AE9B
  8
0
 10
4335.6831713885230783
 20
139.347595700283108
 30
0.0
 40
40.0959667800063997
 50
91.3668578153805271
 51
91.6260009402546558
  0
ARC
  5
AE9C
  8
0
 10
4334.2912763061476653
 20
179.2588313139146976
 30
0.0
 40
0.0340825057344699
 50
183.2546391459050028
 51
221.2063679833368042
  0
ARC
  5
AE9D
  8
0
 10
4334.4013074514250548
 20
179.3813907565723866
 30
0.0
 40
0.1985840416956067
 50
226.9057025447810929
 51
249.0582468346366056
  0
ARC
  5
AE9E
  8
0
 10
4334.5903037219886755
 20
179.8289841392260939
 30
0.0
 40
0.6843618629068703
 50
247.6738829338702033
 51
265.6070455801705066
  0
ARC
  5
AE9F
  8
0
 10
4334.7440396143192629
 20
181.3702746634556036
 30
0.0
 40
2.2331778280926642
 50
264.7032050146592042
 51
269.5557854328059193
  0
ARC
  5
AEA0
  8
0
 10
4334.2983224861982308
 20
179.252148443053386
 30
0.0
 40
0.041347216635444
 50
129.1215474348759926
 51
173.4062045216149102
  0
ARC
  5
AEA1
  8
0
 10
4334.46225113051878
 20
178.9908673937528931
 30
0.0
 40
0.3495223592432648
 50
102.1836098427323947
 51
122.9323732415363963
  0
ARC
  5
AEA2
  8
0
 10
4334.6506411047548681
 20
178.1902215999151906
 30
0.0
 40
1.1719916879304351
 50
95.1500584848452888
 51
102.9254644129958933
  0
ARC
  5
AEA3
  8
0
 10
4334.7365702752686047
 20
180.2236303532222053
 30
0.0
 40
0.8869862458520165
 50
257.5560057074176257
 51
266.4613337569962255
  0
ARC
  5
AEA4
  8
0
 10
4334.7464177599404138
 20
181.0728910985490927
 30
0.0
 40
1.927140690288029
 50
263.669051894816505
 51
269.4145328715646883
  0
ARC
  5
AEA5
  8
0
 10
4334.5914717236573779
 20
179.7419929041749924
 30
0.0
 40
0.5873174893994585
 50
247.7992780717679864
 51
264.3755038812171279
  0
ARC
  5
AEA6
  8
0
 10
4334.3935623649758782
 20
179.2645454459294001
 30
0.0
 40
0.0705415717862753
 50
211.7259361965197968
 51
250.1007888495541067
  0
ARC
  5
AEA7
  8
0
 10
4334.3537178060596489
 20
179.2377779185983115
 30
0.0
 40
0.0226478362394452
 50
150.3420593257962992
 51
207.1287828181170028
  0
ARC
  5
AEA8
  8
0
 10
4334.4052474114241704
 20
179.1968627833566075
 30
0.0
 40
0.0882474218342308
 50
110.4769581031744963
 51
143.798125019039901
  0
ARC
  5
AEA9
  8
0
 10
4334.5414269159618925
 20
178.8840874661366058
 30
0.0
 40
0.4292832848251423
 50
101.3127099163466056
 51
112.900978165168496
  0
ARC
  5
AEAA
  8
0
 10
4334.6652995842823657
 20
178.3104854501964098
 30
0.0
 40
1.016079584282215
 50
95.8876207548157282
 51
101.8171781569937053
  0
ARC
  5
AEAB
  8
0
 10
4334.7207433279590987
 20
177.7950397014386112
 30
0.0
 40
1.5344953366014771
 50
92.1432880837993764
 51
95.9726809062436956
  0
ARC
  5
AEAC
  8
0
 10
4334.7955765166670972
 20
173.9606947144729077
 30
0.0
 40
5.3693950485788191
 50
90.7347113138148984
 51
91.4110510137869738
  0
ARC
  5
AEAD
  8
0
 10
4334.7302571093387087
 20
180.7459233557904099
 30
0.0
 40
1.5823590389227
 50
266.0327861947018846
 51
269.8721396467209956
  0
ARC
  5
AEAE
  8
0
 10
4334.7077322533687038
 20
180.3909496648986135
 30
0.0
 40
1.2281111891278
 50
263.152512040710576
 51
265.8569365427886169
  0
ARC
  5
AEAF
  8
0
 10
4334.6126654140816754
 20
179.7221752104931909
 30
0.0
 40
0.5515082231811789
 50
248.9071995188635924
 51
264.941273582561621
  0
ARC
  5
AEB0
  8
0
 10
4334.4607239953938915
 20
179.3273283748270046
 30
0.0
 40
0.1310073288984324
 50
234.7169084903108001
 51
246.7218933595447936
  0
ARC
  5
AEB1
  8
0
 10
4334.401989645141839
 20
179.2474956209493087
 30
0.0
 40
0.0276926657400342
 50
184.3227525549858115
 51
224.9725208340389884
  0
ARC
  5
AEB2
  8
0
 10
4334.4348088145743532
 20
179.2804916445523986
 30
0.0
 40
0.0742311160066772
 50
225.086273017948713
 51
233.5285117577440133
  0
ARC
  5
AEB3
  8
0
 10
4334.4085279683868066
 20
179.2404848654499006
 30
0.0
 40
0.0345052702586178
 50
121.1401343297622049
 51
171.7966800212014107
  0
ARC
  5
AEB4
  8
0
 10
4334.4613346190308221
 20
179.1623992312929943
 30
0.0
 40
0.1322490448999718
 50
113.3346695590110045
 51
125.2265285911854988
  0
ARC
  5
AEB5
  8
0
 10
4334.6217793910091132
 20
178.7294012107975902
 30
0.0
 40
0.5914258721434111
 50
95.6030309185690044
 51
110.5484959805659031
  0
ARC
  5
AEB6
  8
0
 10
4334.7086113089371793
 20
178.0907296855720858
 30
0.0
 40
1.2372880775680579
 50
94.153094572878814
 51
96.8374568436549197
  0
ARC
  5
AEB7
  8
0
 10
4334.7971481029981078
 20
175.873894217013401
 30
0.0
 40
3.454072078200082
 50
91.1682361972006277
 51
92.9268380333583934
  0
ARC
  5
AEB8
  8
0
 10
4334.7121305473137909
 20
178.2675821868816115
 30
0.0
 40
1.048775077085955
 50
92.2092110152894264
 51
98.7770905965022052
  0
ARC
  5
AEB9
  8
0
 10
4334.6131523310887133
 20
178.8713004849819868
 30
0.0
 40
0.4370606201169234
 50
98.0301855940462303
 51
110.8692102834716025
  0
ARC
  5
AEBA
  8
0
 10
4334.4859131637313112
 20
179.2007621484353876
 30
0.0
 40
0.0838996562294124
 50
109.8272430861502045
 51
137.5047326374595116
  0
ARC
  5
AEBB
  8
0
 10
4334.4384501780396022
 20
179.2455033971118041
 30
0.0
 40
0.0187025656014494
 50
140.3444579129422891
 51
208.3020973052811087
  0
ARC
  5
AEBC
  8
0
 10
4334.4754521712557107
 20
179.2751442242712017
 30
0.0
 40
0.0658922741951933
 50
215.7613113599597909
 51
248.8972773577301894
  0
ARC
  5
AEBD
  8
0
 10
4334.6214905896222263
 20
179.6373479296418054
 30
0.0
 40
0.4564224600949454
 50
248.1646098603698931
 51
264.5565455912026778
  0
ARC
  5
AEBE
  8
0
 10
4334.7413942056646192
 20
180.6628217198311859
 30
0.0
 40
1.48880991746725
 50
263.7066654452457897
 51
269.4354933960008225
  0
ARC
  5
AEBF
  8
0
 10
4334.800094407429242
 20
181.6339321562564919
 30
0.0
 40
2.4226659643505659
 50
264.6367215688135843
 51
268.2645787175842997
  0
ARC
  5
AEC0
  8
0
 10
4334.6401567796901872
 20
179.775792163264299
 30
0.0
 40
0.5578983538824965
 50
252.5778815244898112
 51
263.153235451014325
  0
ARC
  5
AEC1
  8
0
 10
4334.5132727348409389
 20
179.3768282421002027
 30
0.0
 40
0.1392560373588231
 50
233.8753769351471021
 51
253.2402229553703989
  0
ARC
  5
AEC2
  8
0
 10
4334.3891581361349381
 20
180.2067219649644016
 30
0.0
 40
0.9685188638758766
 50
245.6814208669846948
 51
262.2966686609636895
  0
LINE
  5
AEC3
  8
0
 10
4334.1182221733733968
 20
179.3206944742973121
 30
0.0
 11
4334.1413633249730992
 21
179.3132967011972028
 31
0.0
  0
LINE
  5
AEC4
  8
0
 10
4334.2001197729741762
 20
179.3605385071614933
 30
0.0
 11
4334.2176906096728999
 21
179.3523551745973066
 31
0.0
  0
ARC
  5
AEC5
  8
0
 10
4337.3923662041406715
 20
180.068981490536288
 30
0.0
 40
3.7924803020734732
 50
173.9736037965705862
 51
178.3202573413275047
  0
ARC
  5
AEC6
  8
0
 10
4336.1021789892820379
 20
180.2508093475769044
 30
0.0
 40
2.501661495228495
 50
181.6185358694359024
 51
199.7494292453689866
  0
ARC
  5
AEC7
  8
0
 10
4334.7240110316561186
 20
180.3031350226802942
 30
0.0
 40
1.115291147132941
 50
140.4025647160329129
 51
171.5438553151338112
  0
ARC
  5
AEC8
  8
0
 10
4334.6970534885122106
 20
180.3346243272860931
 30
0.0
 40
1.0744716172612001
 50
117.1476275916180043
 51
140.7801787267638929
  0
ARC
  5
AEC9
  8
0
 10
4334.9281911112366288
 20
180.7480442722371095
 30
0.0
 40
1.096309441153789
 50
148.1353188307074049
 51
165.9599036437456903
  0
ARC
  5
AECA
  8
0
 10
4334.83219991592523
 20
180.7050017052796136
 30
0.0
 40
1.041167827130675
 50
126.7312364121219019
 51
143.329330376688489
  0
ARC
  5
AECB
  8
0
 10
4334.4637544274246466
 20
181.2237781476964926
 30
0.0
 40
0.4053178347765189
 50
92.3163177650420579
 51
128.8478835936874134
  0
ARC
  5
AECC
  8
0
 10
4335.0086214521534203
 20
171.1815088563577092
 30
0.0
 40
10.4623208124300895
 50
91.5439574072240561
 51
93.0750933859744265
  0
ARC
  5
AECD
  8
0
 10
4334.6646986402265611
 20
174.9776487148922968
 30
0.0
 40
6.6216227553832292
 50
89.4632803948938715
 51
91.6416046076817423
  0
ARC
  5
AECE
  8
0
 10
4334.4851533859091433
 20
180.3455972437178048
 30
0.0
 40
1.250997714621582
 50
90.4647653127379385
 51
96.3612768578894929
  0
ARC
  5
AECF
  8
0
 10
4334.3728557045124035
 20
181.3372442337305017
 30
0.0
 40
0.2530199356395722
 50
95.9685034417109364
 51
118.1402274862648056
  0
ARC
  5
AED0
  8
0
 10
4334.4229854494578831
 20
181.1469624988611997
 30
0.0
 40
0.4467791961189726
 50
112.2901175256501034
 51
118.5414531693617022
  0
LINE
  5
AED1
  8
0
 10
4333.6292494208746575
 20
178.0889148013957026
 30
0.0
 11
4334.0935958567633861
 21
178.0889148013957026
 31
0.0
  0
LINE
  5
AED2
  8
0
 10
4335.3120885647731484
 20
179.3132967011972028
 30
0.0
 11
4335.3124168633730733
 21
179.3245440929972006
 31
0.0
  0
LINE
  5
AED3
  8
0
 10
4335.3172651088725615
 20
178.2100289064972003
 30
0.0
 11
4335.3172651088725615
 21
179.085226595397188
 31
0.0
  0
LINE
  5
AED4
  8
0
 10
4335.2708402771731926
 20
179.3482038171972022
 30
0.0
 11
4335.2708402771731926
 21
179.3584665370815117
 31
0.0
  0
LINE
  5
AED5
  8
0
 10
4335.1962031169732654
 20
179.2568963264972979
 30
0.0
 11
4335.1961084738568388
 21
179.3971560866939114
 31
0.0
  0
LINE
  5
AED6
  8
0
 10
4335.0790761325733911
 20
179.2454082942971922
 30
0.0
 11
4335.0790761325733911
 21
179.2795341110972061
 31
0.0
  0
LINE
  5
AED7
  8
0
 10
4335.039263020573344
 20
179.2831978679971883
 30
0.0
 11
4335.039263020573344
 21
179.2940809027973046
 31
0.0
  0
LINE
  5
AED8
  8
0
 10
4334.834447107971755
 20
179.3247687680971865
 30
0.0
 11
4334.8345854759727445
 21
179.3261494402972005
 31
0.0
  0
LINE
  5
AED9
  8
0
 10
4334.9080140204732743
 20
179.4274174870971876
 30
0.0
 11
4334.9080140204732743
 21
179.3574819803972105
 31
0.0
  0
LINE
  5
AEDA
  8
0
 10
4334.8448241640717242
 20
177.6952430836973065
 30
0.0
 11
4334.8448241640717242
 21
177.5930942857810919
 31
0.0
  0
LINE
  5
AEDB
  8
0
 10
4334.8326712862726708
 20
179.3234606283972994
 30
0.0
 11
4334.8326689222676578
 21
179.3262757591396905
 31
0.0
  0
LINE
  5
AEDC
  8
0
 10
4335.0445012735717683
 20
179.2838312127973097
 30
0.0
 11
4335.0468988650109168
 21
179.2916327668357894
 31
0.0
  0
LINE
  5
AEDD
  8
0
 10
4334.8921435490728982
 20
179.1715985543972067
 30
0.0
 11
4334.8924109312092696
 21
179.1730884816091987
 31
0.0
  0
LINE
  5
AEDE
  8
0
 10
4334.8923793313588249
 20
179.3212052178319027
 30
0.0
 11
4334.8921435490728982
 21
179.3192180340971902
 31
0.0
  0
LINE
  5
AEDF
  8
0
 10
4335.0683999219718316
 20
179.2203860329973111
 30
0.0
 11
4335.071053305591704
 21
179.2279233428743908
 31
0.0
  0
LINE
  5
AEE0
  8
0
 10
4335.0790761325733911
 20
179.2507133130972079
 30
0.0
 11
4335.0879150083874265
 21
179.2756706590436977
 31
0.0
  0
LINE
  5
AEE1
  8
0
 10
4335.0723669594162857
 20
179.2823017128752099
 30
0.0
 11
4335.0683999219718316
 21
179.2704305554973132
 31
0.0
  0
LINE
  5
AEE2
  8
0
 10
4334.8326712862726708
 20
179.1673559600972112
 30
0.0
 11
4334.834447107971755
 21
179.1660478203972104
 31
0.0
  0
LINE
  5
AEE3
  8
0
 10
4334.8921435490728982
 20
179.1715985543972067
 30
0.0
 11
4334.8894166871732523
 21
179.1728151984972044
 31
0.0
  0
LINE
  5
AEE4
  8
0
 10
4334.834447107971755
 20
179.3247687680971865
 30
0.0
 11
4334.8326712862726708
 21
179.3234606283972994
 31
0.0
  0
LINE
  5
AEE5
  8
0
 10
4335.2887139189733716
 20
179.3563513147971946
 30
0.0
 11
4335.2708402771731926
 21
179.3482038171972022
 31
0.0
  0
LINE
  5
AEE6
  8
0
 10
4334.8894166871732523
 20
179.3180013899971925
 30
0.0
 11
4334.8921435490728982
 21
179.3192180340971902
 31
0.0
  0
LINE
  5
AEE7
  8
0
 10
4335.280429694972554
 20
179.3186390657972993
 30
0.0
 11
4335.3035708466732103
 21
179.3260368388972097
 31
0.0
  0
LINE
  5
AEE8
  8
0
 10
4335.3442152978723243
 20
178.297854439441295
 30
0.0
 11
4335.794101872180363
 21
178.2978549276903095
 31
0.0
  0
LINE
  5
AEE9
  8
0
 10
4335.0445012735717683
 20
179.2838312127973097
 30
0.0
 11
4335.039263020573344
 21
179.2831978679971883
 31
0.0
  0
LINE
  5
AEEA
  8
0
 10
4335.0627677352731553
 20
179.2700181006972002
 30
0.0
 11
4335.0683999219718316
 21
179.2704305554973132
 31
0.0
  0
LINE
  5
AEEB
  8
0
 10
4335.039263020573344
 20
179.2076187204972086
 30
0.0
 11
4335.0445012735717683
 21
179.2069853756972009
 31
0.0
  0
LINE
  5
AEEC
  8
0
 10
4335.2357612801733922
 20
179.3523551745973066
 30
0.0
 11
4335.2708402771731926
 21
179.3482038171972022
 31
0.0
  0
LINE
  5
AEED
  8
0
 10
4335.2533321164719382
 20
179.3605385071973046
 30
0.0
 11
4335.2887139189733716
 21
179.3563513147971946
 31
0.0
  0
LINE
  5
AEEE
  8
0
 10
4335.0683999219718316
 20
179.2203860329973111
 30
0.0
 11
4335.0627677352731553
 21
179.2207984877971967
 31
0.0
  0
LINE
  5
AEEF
  8
0
 10
4335.3120885648731928
 20
179.3132967011972028
 30
0.0
 11
4335.280429694972554
 21
179.3186390657972993
 31
0.0
  0
LINE
  5
AEF0
  8
0
 10
4335.3352297164728952
 20
179.3206944742973121
 30
0.0
 11
4335.3035708466732103
 21
179.3260368388972097
 31
0.0
  0
ARC
  5
AEF1
  8
0
 10
4334.598144517943183
 20
171.877157345344898
 30
0.0
 40
7.4406860562614874
 50
88.5860326651168037
 51
89.0098305778083869
  0
ARC
  5
AEF2
  8
0
 10
4334.7267139277719252
 20
180.3635767678972002
 30
0.0
 40
1.062992125999999
 50
60.716081661206708
 51
89.9993522699073338
  0
LINE
  5
AEF3
  8
0
 10
4335.8094342099730056
 20
178.0389952768722992
 30
0.0
 11
4335.8094342099730056
 21
175.1646482054972012
 31
0.0
  0
ARC
  5
AEF4
  8
0
 10
4335.8728817789642562
 20
178.0473691561016096
 30
0.0
 40
0.063997780151087
 50
139.5207044952609863
 51
187.5185053397997024
  0
ARC
  5
AEF5
  8
0
 10
4335.7441214955979376
 20
178.1609178200928056
 30
0.0
 40
0.1076912113309023
 50
318.0404133227212924
 51
53.6505556244216422
  0
ARC
  5
AEF6
  8
0
 10
4335.9202552043661854
 20
178.3056467313963083
 30
0.0
 40
0.1263937317519576
 50
183.5343582017715107
 51
207.3112949095296926
  0
ARC
  5
AEF7
  8
0
 10
4323.9380843983935847
 20
177.9098454270773004
 30
0.0
 40
11.86236492910853
 50
1.874438448144927
 51
7.243260938883922
  0
ARC
  5
AEF8
  8
0
 10
4333.7438829405236902
 20
180.203481273729011
 30
0.0
 40
2.1179865186429172
 50
332.2741416519876907
 51
337.866016359404
  0
ARC
  5
AEF9
  8
0
 10
4335.4747029672844292
 20
179.3146174386619975
 30
0.0
 40
0.1733401347603011
 50
291.9088165972709135
 51
326.1668913207163882
  0
ARC
  5
AEFA
  8
0
 10
4335.155599252850152
 20
180.0029426357513955
 30
0.0
 40
0.931846864955242
 50
279.9907813885449741
 51
294.3211751004213284
  0
ARC
  5
AEFB
  8
0
 10
4334.8370741357966835
 20
181.5124436082651016
 30
0.0
 40
2.47426065687903
 50
274.0633696355035909
 51
281.1906652644386213
  0
ARC
  5
AEFC
  8
0
 10
4334.7238038219948066
 20
182.8733813405463877
 30
0.0
 40
3.8398393559768418
 50
270.0436021696589819
 51
274.3103178364735868
  0
ARC
  5
AEFD
  8
0
 10
4335.5299634740504189
 20
179.2507160694810864
 30
0.0
 40
0.0945296474945407
 50
339.8198319992288248
 51
0.5884159980571181
  0
ARC
  5
AEFE
  8
0
 10
4335.5345714464410776
 20
179.2275161758159925
 30
0.0
 40
0.093108714915658
 50
15.0461087061061995
 51
58.5624105463219493
  0
ARC
  5
AEFF
  8
0
 10
4335.3009119429079874
 20
178.8667205508214124
 30
0.0
 40
0.5229319199716178
 50
57.3373261506608785
 51
75.2260111491713275
  0
ARC
  5
AF00
  8
0
 10
4334.8754539313003988
 20
177.2850538703908967
 30
0.0
 40
2.1608172335653411
 50
75.012392171932845
 51
86.2786487705518823
  0
ARC
  5
AF01
  8
0
 10
4334.660963713122328
 20
173.965945023989093
 30
0.0
 40
5.4868492285061157
 50
86.2931225381644254
 51
89.3132691655173545
  0
ARC
  5
AF02
  8
0
 10
4334.7471632169272198
 20
177.6490712689123939
 30
0.0
 40
0.1125659061977226
 50
289.1605338635927183
 51
330.1796683926398828
  0
ARC
  5
AF03
  8
0
 10
4334.7210873702006211
 20
177.731159608106509
 30
0.0
 40
0.1986787285008574
 50
271.6262934683995809
 51
288.4939486288153034
  0
ARC
  5
AF04
  8
0
 10
4334.7079124849933578
 20
178.5493626633200108
 30
0.0
 40
0.8650231581660134
 50
271.2462288910900838
 51
279.1067945220773936
  0
ARC
  5
AF05
  8
0
 10
4334.7704063733599469
 20
178.2377220018834976
 30
0.0
 40
0.5475594801034953
 50
277.8111365169372107
 51
357.1010004202428831
  0
ARC
  5
AF06
  8
0
 10
4334.7752127483336153
 20
177.6758785708194068
 30
0.0
 40
0.0719661231072943
 50
296.2823778686981768
 51
345.3028414208417871
  0
ARC
  5
AF07
  8
0
 10
4334.7212543561690836
 20
177.7849270522652034
 30
0.0
 40
0.1936340157347575
 50
271.6192437936908846
 51
296.3102355741725091
  0
ARC
  5
AF08
  8
0
 10
4334.8237671354745544
 20
178.1538396672686133
 30
0.0
 40
0.5400060595461044
 50
314.3363765817503008
 51
23.9535528255003598
  0
ARC
  5
AF09
  8
0
 10
4334.723761253036173
 20
178.2532832313528957
 30
0.0
 40
0.6810270792525844
 50
279.6074395988101742
 51
314.5072517614455023
  0
ARC
  5
AF0A
  8
0
 10
4334.7009117091538428
 20
176.8098176743679915
 30
0.0
 40
0.4949157760784312
 50
79.8589281907135131
 51
87.0101615458348192
  0
ARC
  5
AF0B
  8
0
 10
4334.7724602619327925
 20
177.2192273139231986
 30
0.0
 40
0.0793217948046021
 50
50.4676769970385521
 51
78.6634173024659304
  0
ARC
  5
AF0C
  8
0
 10
4334.8037728886602054
 20
177.2581781260161051
 30
0.0
 40
0.0293564939496616
 50
6.7844028108065153
 51
49.2138628599935615
  0
ARC
  5
AF0D
  8
0
 10
4334.7983543110285609
 20
177.2602429254249046
 30
0.0
 40
0.0345979750267864
 50
317.5528291693447045
 51
2.3243832605579589
  0
ARC
  5
AF0E
  8
0
 10
4334.7492138563620756
 20
177.3024998932245069
 30
0.0
 40
0.0993981710048396
 50
286.9315880622619943
 51
318.696522157928996
  0
ARC
  5
AF0F
  8
0
 10
4334.7165997909460202
 20
177.4222027737885981
 30
0.0
 40
0.2234404831099161
 50
272.5974911176879232
 51
285.992855402921009
  0
ARC
  5
AF10
  8
0
 10
4334.7131987661041421
 20
177.5141810526212112
 30
0.0
 40
0.2297173866805009
 50
273.3758823905076838
 51
289.0172240564854746
  0
ARC
  5
AF11
  8
0
 10
4334.6808229480948285
 20
177.2624212300827935
 30
0.0
 40
1.1824728978811749
 50
272.2247520412573749
 51
285.6550920084389986
  0
ARC
  5
AF12
  8
0
 10
4334.8300442277295588
 20
176.6813775927340942
 30
0.0
 40
0.5828645592755533
 50
286.9435732423161767
 51
324.4994566860889904
  0
ARC
  5
AF13
  8
0
 10
4334.7556218437994175
 20
176.6894291297757036
 30
0.0
 40
0.6491643218415709
 50
327.7370892647426217
 51
3.111013890684339
  0
ARC
  5
AF14
  8
0
 10
4317.9779698126267249
 20
176.3661994248477924
 30
0.0
 40
17.4295461330440489
 50
1.1784422205889851
 51
2.6976106566593399
  0
ARC
  5
AF15
  8
0
 10
4318.9163786278286352
 20
176.4839732419667087
 30
0.0
 40
16.4867979609783006
 50
2.4422577171125219
 51
5.2074598146499627
  0
ARC
  5
AF16
  8
0
 10
4334.716791331667082
 20
182.545176672108596
 30
0.0
 40
3.504783075860276
 50
270.1624101008516732
 51
278.6890106134687812
  0
ARC
  5
AF17
  8
0
 10
4335.0234744405042875
 20
180.4339823938987877
 30
0.0
 40
1.371578981838423
 50
279.3481051508891255
 51
288.462128253044682
  0
ARC
  5
AF18
  8
0
 10
4335.3613380740625871
 20
179.4493205330005878
 30
0.0
 40
0.330713891712016
 50
286.9626002229778123
 51
311.0106934182887812
  0
ARC
  5
AF19
  8
0
 10
4335.5384175428125673
 20
179.2476149722629089
 30
0.0
 40
0.0623227413328602
 50
309.8497418908236227
 51
358.6588918666524251
  0
ARC
  5
AF1A
  8
0
 10
4335.5328355235360505
 20
179.2389639211820054
 30
0.0
 40
0.0682676282994767
 50
6.0476835741080492
 51
51.665996257657568
  0
ARC
  5
AF1B
  8
0
 10
4335.4231973683517936
 20
179.1227456085393897
 30
0.0
 40
0.2278581543492652
 50
48.1642594306798131
 51
68.7562487167911627
  0
ARC
  5
AF1C
  8
0
 10
4335.1356974079008069
 20
178.4559693897315924
 30
0.0
 40
0.9538613614056924
 50
67.1722972185603737
 51
79.3986917694673622
  0
ARC
  5
AF1D
  8
0
 10
4334.8912578043891699
 20
177.3606580575049065
 30
0.0
 40
2.0758093441923311
 50
78.3288246930089258
 51
83.301642465814453
  0
ARC
  5
AF1E
  8
0
 10
4334.6941083992996937
 20
175.2974206794926886
 30
0.0
 40
4.1482015444142384
 50
83.9212285921903884
 51
89.5494753712931271
  0
ARC
  5
AF1F
  8
0
 10
4334.6755912803637329
 20
183.4742131305337978
 30
0.0
 40
4.4003252462326472
 50
270.6658295116945965
 51
274.7849090496101212
  0
ARC
  5
AF20
  8
0
 10
4334.9054655683739838
 20
180.7559712519488073
 30
0.0
 40
1.672383381978787
 50
274.7050842613103896
 51
286.6123207174778145
  0
ARC
  5
AF21
  8
0
 10
4335.2797357253120936
 20
179.5118237327164081
 30
0.0
 40
0.3731751224565794
 50
286.1588190790217254
 51
306.6248090849484242
  0
ARC
  5
AF22
  8
0
 10
4335.456329993297004
 20
179.2720035913851007
 30
0.0
 40
0.0753659422382807
 50
307.6456496721547182
 51
344.5102530370630802
  0
ARC
  5
AF23
  8
0
 10
4335.4970413297442065
 20
179.2596127146522065
 30
0.0
 40
0.0328415082773183
 50
346.3741924594679062
 51
37.6560625478488404
  0
ARC
  5
AF24
  8
0
 10
4335.3972915167169049
 20
179.1728460114906909
 30
0.0
 40
0.1650024494317322
 50
40.3493464966074313
 51
66.4798180144991164
  0
ARC
  5
AF25
  8
0
 10
4335.1705961682500856
 20
178.6949108690930075
 30
0.0
 40
0.6939098029243568
 50
65.0651901909439943
 51
76.0947145993261955
  0
ARC
  5
AF26
  8
0
 10
4334.8154267545469338
 20
177.1594801125935987
 30
0.0
 40
2.2698264992025612
 50
76.7063507425940401
 51
87.6622302318554745
  0
ARC
  5
AF27
  8
0
 10
4333.7702805013223042
 20
139.347595700283108
 30
0.0
 40
40.0959667800063997
 50
88.3739990597453442
 51
88.6331421846194587
  0
ARC
  5
AF28
  8
0
 10
4335.1621755836977172
 20
179.2588313139146976
 30
0.0
 40
0.0340825057344699
 50
318.7936320166631958
 51
356.7453608540949972
  0
ARC
  5
AF29
  8
0
 10
4335.0521444384203278
 20
179.3813907565723866
 30
0.0
 40
0.1985840416956067
 50
290.9417531653634228
 51
313.0942974552189071
  0
ARC
  5
AF2A
  8
0
 10
4334.863148167856707
 20
179.8289841392260939
 30
0.0
 40
0.6843618629068703
 50
274.3929544198294934
 51
292.3261170661290862
  0
ARC
  5
AF2B
  8
0
 10
4334.7094122755252101
 20
181.3702746634556036
 30
0.0
 40
2.2331778280926642
 50
270.4442145671940807
 51
275.2967949853407958
  0
ARC
  5
AF2C
  8
0
 10
4335.1551294036480613
 20
179.252148443053386
 30
0.0
 40
0.041347216635444
 50
6.593795478385073
 51
50.8784525651239719
  0
ARC
  5
AF2D
  8
0
 10
4334.9912007593266026
 20
178.9908673937528931
 30
0.0
 40
0.3495223592432648
 50
57.067626758463561
 51
77.8163901572675343
  0
ARC
  5
AF2E
  8
0
 10
4334.8028107850914239
 20
178.1902215999151906
 30
0.0
 40
1.1719916879304351
 50
77.0745355870040214
 51
84.8499415151547254
  0
ARC
  5
AF2F
  8
0
 10
4334.7168816145776873
 20
180.2236303532222053
 30
0.0
 40
0.8869862458520165
 50
273.5386662430037745
 51
282.4439942925823743
  0
ARC
  5
AF30
  8
0
 10
4334.7070341299058782
 20
181.0728910985490927
 30
0.0
 40
1.927140690288029
 50
270.5854671284353117
 51
276.330948105183495
  0
ARC
  5
AF31
  8
0
 10
4334.8619801661889142
 20
179.7419929041749924
 30
0.0
 40
0.5873174893994585
 50
275.6244961187828721
 51
292.2007219282319852
  0
ARC
  5
AF32
  8
0
 10
4335.0598895248685949
 20
179.2645454459294001
 30
0.0
 40
0.0705415717862753
 50
289.8992111504459217
 51
328.2740638034800895
  0
ARC
  5
AF33
  8
0
 10
4335.0997340837857337
 20
179.2377779185983115
 30
0.0
 40
0.0226478362394452
 50
332.8712171818830257
 51
29.6579406742036618
  0
ARC
  5
AF34
  8
0
 10
4335.0482044784221216
 20
179.1968627833566075
 30
0.0
 40
0.0882474218342308
 50
36.2018749809600919
 51
69.5230418968254895
  0
ARC
  5
AF35
  8
0
 10
4334.9120249738843995
 20
178.8840874661366058
 30
0.0
 40
0.4292832848251423
 50
67.0990218348314897
 51
78.6872900836533518
  0
ARC
  5
AF36
  8
0
 10
4334.7881523055630169
 20
178.3104854501964098
 30
0.0
 40
1.016079584282215
 50
78.1828218430063089
 51
84.1123792451842576
  0
ARC
  5
AF37
  8
0
 10
4334.7327085618871934
 20
177.7950397014386112
 30
0.0
 40
1.5344953366014771
 50
84.0273190937563044
 51
87.8567119162006662
  0
ARC
  5
AF38
  8
0
 10
4334.6578753731782854
 20
173.9606947144729077
 30
0.0
 40
5.3693950485788191
 50
88.5889489862130262
 51
89.2652886861850874
  0
ARC
  5
AF39
  8
0
 10
4334.7231947805066739
 20
180.7459233557904099
 30
0.0
 40
1.5823590389227
 50
270.127860353279118
 51
273.9672138052981154
  0
ARC
  5
AF3A
  8
0
 10
4334.7457196364757692
 20
180.3909496648986135
 30
0.0
 40
1.2281111891278
 50
274.1430634572113831
 51
276.8474879592893103
  0
ARC
  5
AF3B
  8
0
 10
4334.8407864757637071
 20
179.7221752104931909
 30
0.0
 40
0.5515082231811789
 50
275.058726417438379
 51
291.0928004811364076
  0
ARC
  5
AF3C
  8
0
 10
4334.9927278944524005
 20
179.3273283748270046
 30
0.0
 40
0.1310073288984324
 50
293.2781066404551211
 51
305.2830915096891999
  0
ARC
  5
AF3D
  8
0
 10
4335.051462244704453
 20
179.2474956209493087
 30
0.0
 40
0.0276926657400342
 50
315.0274791659609264
 51
355.6772474450140749
  0
ARC
  5
AF3E
  8
0
 10
4335.0186430752710294
 20
179.2804916445523986
 30
0.0
 40
0.0742311160066772
 50
306.4714882422559867
 51
314.913726982051287
  0
ARC
  5
AF3F
  8
0
 10
4335.0449239214576664
 20
179.2404848654499006
 30
0.0
 40
0.0345052702586178
 50
8.2033199787986248
 51
58.8598656702378165
  0
ARC
  5
AF40
  8
0
 10
4334.9921172708145605
 20
179.1623992312929943
 30
0.0
 40
0.1322490448999718
 50
54.7734714088144585
 51
66.6653304409889671
  0
ARC
  5
AF41
  8
0
 10
4334.8316724988362694
 20
178.7294012107975902
 30
0.0
 40
0.5914258721434111
 50
69.4515040194341253
 51
84.3969690814310241
  0
ARC
  5
AF42
  8
0
 10
4334.7448405809091128
 20
178.0907296855720858
 30
0.0
 40
1.2372880775680579
 50
83.1625431563450661
 51
85.846905427121186
  0
ARC
  5
AF43
  8
0
 10
4334.6563037868481842
 20
175.873894217013401
 30
0.0
 40
3.454072078200082
 50
87.0731619666415924
 51
88.8317638027993723
  0
ARC
  5
AF44
  8
0
 10
4334.7413213425315917
 20
178.2675821868816115
 30
0.0
 40
1.048775077085955
 50
81.2229094034977948
 51
87.7907889847106162
  0
ARC
  5
AF45
  8
0
 10
4334.8402995587575788
 20
178.8713004849819868
 30
0.0
 40
0.4370606201169234
 50
69.1307897165283975
 51
81.9698144059537839
  0
ARC
  5
AF46
  8
0
 10
4334.9675387261149808
 20
179.2007621484353876
 30
0.0
 40
0.0838996562294124
 50
42.4952673625404884
 51
70.1727569138497955
  0
ARC
  5
AF47
  8
0
 10
4335.0150017118048709
 20
179.2455033971118041
 30
0.0
 40
0.0187025656014494
 50
331.6979026947188913
 51
39.6555420870576327
  0
ARC
  5
AF48
  8
0
 10
4334.9779997185896718
 20
179.2751442242712017
 30
0.0
 40
0.0658922741951933
 50
291.1027226422698959
 51
324.2386886400402091
  0
ARC
  5
AF49
  8
0
 10
4334.8319613002231563
 20
179.6373479296418054
 30
0.0
 40
0.4564224600949454
 50
275.4434544087973222
 51
291.8353901396301922
  0
ARC
  5
AF4A
  8
0
 10
4334.7120576841807633
 20
180.6628217198311859
 30
0.0
 40
1.48880991746725
 50
270.5645066039991775
 51
276.2933345547540966
  0
ARC
  5
AF4B
  8
0
 10
4334.6533574824161406
 20
181.6339321562564919
 30
0.0
 40
2.4226659643505659
 50
271.7354212824158139
 51
275.363278431186302
  0
ARC
  5
AF4C
  8
0
 10
4334.8132951101551953
 20
179.775792163264299
 30
0.0
 40
0.5578983538824965
 50
276.846764548985675
 51
287.4221184755102172
  0
ARC
  5
AF4D
  8
0
 10
4334.9401791550053531
 20
179.3768282421002027
 30
0.0
 40
0.1392560373588231
 50
286.7597770446295726
 51
306.1246230648529831
  0
ARC
  5
AF4E
  8
0
 10
4335.0642937537122634
 20
180.2067219649644016
 30
0.0
 40
0.9685188638758766
 50
277.7033313390363105
 51
294.3185791330153052
  0
LINE
  5
AF4F
  8
0
 10
4335.3352297164728952
 20
179.3206944742973121
 30
0.0
 11
4335.3120885648731928
 21
179.3132967011972028
 31
0.0
  0
LINE
  5
AF50
  8
0
 10
4335.2533321168721159
 20
179.3605385071614933
 30
0.0
 11
4335.2357612801733922
 21
179.3523551745973066
 31
0.0
  0
ARC
  5
AF51
  8
0
 10
4332.0610856857047111
 20
180.068981490536288
 30
0.0
 40
3.7924803020734732
 50
1.6797426586725199
 51
6.0263962034294023
  0
ARC
  5
AF52
  8
0
 10
4333.3512729005633446
 20
180.2508093475769044
 30
0.0
 40
2.501661495228495
 50
340.250570754630985
 51
358.3814641305640976
  0
ARC
  5
AF53
  8
0
 10
4334.729440858189264
 20
180.3031350226802942
 30
0.0
 40
1.115291147132941
 50
8.4561446848661941
 51
39.5974352839670374
  0
ARC
  5
AF54
  8
0
 10
4334.7563984013340814
 20
180.3346243272860931
 30
0.0
 40
1.0744716172612001
 50
39.2198212732361071
 51
62.8523724083820383
  0
ARC
  5
AF55
  8
0
 10
4334.5252607786069348
 20
180.7480442722371095
 30
0.0
 40
1.096309441153789
 50
14.0400963562543009
 51
31.8646811692925809
  0
ARC
  5
AF56
  8
0
 10
4334.6212519739219715
 20
180.7050017052796136
 30
0.0
 40
1.041167827130675
 50
36.6706696233114613
 51
53.2687635878780696
  0
ARC
  5
AF57
  8
0
 10
4334.9896974624198265
 20
181.2237781476964926
 30
0.0
 40
0.4053178347765189
 50
51.1521164063125369
 51
87.6836822349579563
  0
ARC
  5
AF58
  8
0
 10
4334.4448304376928718
 20
171.1815088563571976
 30
0.0
 40
10.4623208124306206
 50
86.9249066140255735
 51
88.4560425927759582
  0
ARC
  5
AF59
  8
0
 10
4334.7887532496179119
 20
174.9776487148922968
 30
0.0
 40
6.6216227553832292
 50
88.3583953923182861
 51
90.5367196051061143
  0
ARC
  5
AF5A
  8
0
 10
4334.9682985039371488
 20
180.3455972437178048
 30
0.0
 40
1.250997714621582
 50
83.6387231421104786
 51
89.5352346872620473
  0
ARC
  5
AF5B
  8
0
 10
4335.0805961853338886
 20
181.3372442337305017
 30
0.0
 40
0.2530199356395722
 50
61.8597725137351375
 51
84.0314965582890636
  0
ARC
  5
AF5C
  8
0
 10
4335.0304664403893184
 20
181.1469624988611997
 30
0.0
 40
0.4467791961189726
 50
61.4585468306382765
 51
67.7098824743498824
  0
LINE
  5
AF5D
  8
0
 10
4335.824202468970725
 20
178.0889148013957026
 30
0.0
 11
4335.3598560330829059
 21
178.0889148013957026
 31
0.0
  0
LINE
  5
AF5E
  8
0
 10
4333.6440176798732864
 20
175.1646482054972012
 30
0.0
 11
4335.8094342099730056
 21
175.1646482054972012
 31
0.0
  0
LINE
  5
AF5F
  8
0
 10
4334.551541111673032
 20
179.2866053928972008
 30
0.0
 11
4334.551541111673032
 21
179.2807980773972076
 31
0.0
  0
LINE
  5
AF60
  8
0
 10
4334.5731946549731219
 20
179.2778944196973043
 30
0.0
 11
4334.5731946549731219
 21
179.289509050597303
 31
0.0
  0
LINE
  5
AF61
  8
0
 10
4334.5948481982732119
 20
179.2807980773972076
 30
0.0
 11
4334.5948481982732119
 21
179.2866053928972008
 31
0.0
  0
LINE
  5
AF62
  8
0
 10
4334.551541111673032
 20
179.2807980773972076
 30
0.0
 11
4334.5731946549731219
 21
179.2778944196973043
 31
0.0
  0
LINE
  5
AF63
  8
0
 10
4334.5948481982732119
 20
179.2866053928972008
 30
0.0
 11
4334.5731946549731219
 21
179.289509050597303
 31
0.0
  0
LINE
  5
AF64
  8
0
 10
4334.5731946549731219
 20
179.2778944196973043
 30
0.0
 11
4334.5948481982732119
 21
179.2807980773972076
 31
0.0
  0
LINE
  5
AF65
  8
0
 10
4334.5731946549731219
 20
179.289509050597303
 30
0.0
 11
4334.551541111673032
 21
179.2866053928972008
 31
0.0
  0
LINE
  5
AF66
  8
0
 10
4334.5516547211727811
 20
179.3040128948244103
 30
0.0
 11
4334.5516547211727811
 21
179.3013724156971875
 31
0.0
  0
LINE
  5
AF67
  8
0
 10
4334.5733082644728711
 20
179.2984687579973127
 30
0.0
 11
4334.5733082644728711
 21
179.3071289804908872
 31
0.0
  0
LINE
  5
AF68
  8
0
 10
4334.594961807772961
 20
179.3013724156971875
 30
0.0
 11
4334.594961807772961
 21
179.3071797311972944
 31
0.0
  0
LINE
  5
AF69
  8
0
 10
4334.5516547211727811
 20
179.3013724156971875
 30
0.0
 11
4334.5733082644728711
 21
179.2984687579973127
 31
0.0
  0
LINE
  5
AF6A
  8
0
 10
4334.594961807772961
 20
179.3071797311972944
 30
0.0
 11
4334.584579150540776
 21
179.3085720059949892
 31
0.0
  0
LINE
  5
AF6B
  8
0
 10
4334.5733082644728711
 20
179.2984687579973127
 30
0.0
 11
4334.594961807772961
 21
179.3013724156971875
 31
0.0
  0
LINE
  5
AF6C
  8
0
 10
4334.4749398724743514
 20
179.25574388549731
 30
0.0
 11
4334.4749398724743514
 21
179.2499365699972032
 31
0.0
  0
LINE
  5
AF6D
  8
0
 10
4334.4965934157726224
 20
179.2470329122971862
 30
0.0
 11
4334.4965934157726224
 21
179.2586475431972133
 31
0.0
  0
LINE
  5
AF6E
  8
0
 10
4334.5182469590718028
 20
179.2499365699972032
 30
0.0
 11
4334.5182469590718028
 21
179.25574388549731
 31
0.0
  0
LINE
  5
AF6F
  8
0
 10
4334.4749398724743514
 20
179.2499365699972032
 30
0.0
 11
4334.4965934157726224
 21
179.2470329122971862
 31
0.0
  0
LINE
  5
AF70
  8
0
 10
4334.5182469590718028
 20
179.25574388549731
 30
0.0
 11
4334.4965934157726224
 21
179.2586475431972133
 31
0.0
  0
LINE
  5
AF71
  8
0
 10
4334.4965934157726224
 20
179.2470329122971862
 30
0.0
 11
4334.5182469590718028
 21
179.2499365699972032
 31
0.0
  0
LINE
  5
AF72
  8
0
 10
4334.4965934157726224
 20
179.2586475431972133
 30
0.0
 11
4334.4749398724743514
 21
179.25574388549731
 31
0.0
  0
LINE
  5
AF73
  8
0
 10
4334.5516547211727811
 20
179.2660310545973061
 30
0.0
 11
4334.5516547211727811
 21
179.260223739097313
 31
0.0
  0
LINE
  5
AF74
  8
0
 10
4334.5733082644728711
 20
179.2573200813972107
 30
0.0
 11
4334.5733082644728711
 21
179.2689347122972947
 31
0.0
  0
LINE
  5
AF75
  8
0
 10
4334.594961807772961
 20
179.260223739097313
 30
0.0
 11
4334.594961807772961
 21
179.2660310545973061
 31
0.0
  0
LINE
  5
AF76
  8
0
 10
4334.5516547211727811
 20
179.260223739097313
 30
0.0
 11
4334.5733082644728711
 21
179.2573200813972107
 31
0.0
  0
LINE
  5
AF77
  8
0
 10
4334.594961807772961
 20
179.2660310545973061
 30
0.0
 11
4334.5733082644728711
 21
179.2689347122972947
 31
0.0
  0
LINE
  5
AF78
  8
0
 10
4334.5733082644728711
 20
179.2573200813972107
 30
0.0
 11
4334.594961807772961
 21
179.260223739097313
 31
0.0
  0
LINE
  5
AF79
  8
0
 10
4334.5733082644728711
 20
179.2689347122972947
 30
0.0
 11
4334.5516547211727811
 21
179.2660310545973061
 31
0.0
  0
LINE
  5
AF7A
  8
0
 10
4334.5771316628733985
 20
179.2351314606972039
 30
0.0
 11
4334.5771316628733985
 21
179.2293241451972108
 31
0.0
  0
LINE
  5
AF7B
  8
0
 10
4334.5987852061725789
 20
179.2264204874973075
 30
0.0
 11
4334.5987852061725789
 21
179.2380351183973062
 31
0.0
  0
LINE
  5
AF7C
  8
0
 10
4334.6204387494726689
 20
179.2293241451972108
 30
0.0
 11
4334.6204387494726689
 21
179.2351314606972039
 31
0.0
  0
LINE
  5
AF7D
  8
0
 10
4334.5771316628733985
 20
179.2293241451972108
 30
0.0
 11
4334.5987852061725789
 21
179.2264204874973075
 31
0.0
  0
LINE
  5
AF7E
  8
0
 10
4334.6204387494726689
 20
179.2351314606972039
 30
0.0
 11
4334.5987852061725789
 21
179.2380351183973062
 31
0.0
  0
LINE
  5
AF7F
  8
0
 10
4334.5987852061725789
 20
179.2264204874973075
 30
0.0
 11
4334.6204387494726689
 21
179.2293241451972108
 31
0.0
  0
LINE
  5
AF80
  8
0
 10
4334.5987852061725789
 20
179.2380351183973062
 30
0.0
 11
4334.5771316628733985
 21
179.2351314606972039
 31
0.0
  0
LINE
  5
AF81
  8
0
 10
4334.602722213972811
 20
179.2454262470972139
 30
0.0
 11
4334.602722213972811
 21
179.2396189315971924
 31
0.0
  0
LINE
  5
AF82
  8
0
 10
4334.624375757272901
 20
179.2367152738972038
 30
0.0
 11
4334.624375757272901
 21
179.2483299047972025
 31
0.0
  0
LINE
  5
AF83
  8
0
 10
4334.6460293005729909
 20
179.2396189315971924
 30
0.0
 11
4334.6460293005729909
 21
179.2454262470972139
 31
0.0
  0
LINE
  5
AF84
  8
0
 10
4334.602722213972811
 20
179.2396189315971924
 30
0.0
 11
4334.624375757272901
 21
179.2367152738972038
 31
0.0
  0
LINE
  5
AF85
  8
0
 10
4334.6460293005729909
 20
179.2454262470972139
 30
0.0
 11
4334.624375757272901
 21
179.2483299047972025
 31
0.0
  0
LINE
  5
AF86
  8
0
 10
4334.624375757272901
 20
179.2367152738972038
 30
0.0
 11
4334.6460293005729909
 21
179.2396189315971924
 31
0.0
  0
LINE
  5
AF87
  8
0
 10
4334.624375757272901
 20
179.2483299047972025
 30
0.0
 11
4334.602722213972811
 21
179.2454262470972139
 31
0.0
  0
LINE
  5
AF88
  8
0
 10
4334.6283127651731775
 20
179.2557210335972968
 30
0.0
 11
4334.6283127651731775
 21
179.2499137180973037
 31
0.0
  0
LINE
  5
AF89
  8
0
 10
4334.6499663084732674
 20
179.2470100603972014
 30
0.0
 11
4334.6499663084732674
 21
179.2586246912972001
 31
0.0
  0
LINE
  5
AF8A
  8
0
 10
4334.6716198517733574
 20
179.2499137180973037
 30
0.0
 11
4334.6716198517733574
 21
179.2557210335972968
 31
0.0
  0
LINE
  5
AF8B
  8
0
 10
4334.6283127651731775
 20
179.2499137180973037
 30
0.0
 11
4334.6499663084732674
 21
179.2470100603972014
 31
0.0
  0
LINE
  5
AF8C
  8
0
 10
4334.6716198517733574
 20
179.2557210335972968
 30
0.0
 11
4334.6499663084732674
 21
179.2586246912972001
 31
0.0
  0
LINE
  5
AF8D
  8
0
 10
4334.6499663084732674
 20
179.2470100603972014
 30
0.0
 11
4334.6716198517733574
 21
179.2499137180973037
 31
0.0
  0
LINE
  5
AF8E
  8
0
 10
4334.6499663084732674
 20
179.2586246912972001
 30
0.0
 11
4334.6283127651731775
 21
179.2557210335972968
 31
0.0
  0
LINE
  5
AF8F
  8
0
 10
4334.602722213972811
 20
179.2866053928972008
 30
0.0
 11
4334.602722213972811
 21
179.2807980773972076
 31
0.0
  0
LINE
  5
AF90
  8
0
 10
4334.624375757272901
 20
179.2778944196973043
 30
0.0
 11
4334.624375757272901
 21
179.289509050597303
 31
0.0
  0
LINE
  5
AF91
  8
0
 10
4334.6460293005729909
 20
179.2807980773972076
 30
0.0
 11
4334.6460293005729909
 21
179.2866053928972008
 31
0.0
  0
LINE
  5
AF92
  8
0
 10
4334.602722213972811
 20
179.2807980773972076
 30
0.0
 11
4334.624375757272901
 21
179.2778944196973043
 31
0.0
  0
LINE
  5
AF93
  8
0
 10
4334.6460293005729909
 20
179.2866053928972008
 30
0.0
 11
4334.624375757272901
 21
179.289509050597303
 31
0.0
  0
LINE
  5
AF94
  8
0
 10
4334.624375757272901
 20
179.2778944196973043
 30
0.0
 11
4334.6460293005729909
 21
179.2807980773972076
 31
0.0
  0
LINE
  5
AF95
  8
0
 10
4334.624375757272901
 20
179.289509050597303
 30
0.0
 11
4334.602722213972811
 21
179.2866053928972008
 31
0.0
  0
LINE
  5
AF96
  8
0
 10
4334.6283695699730742
 20
179.2968925620972129
 30
0.0
 11
4334.6283695699730742
 21
179.2910852465971914
 31
0.0
  0
LINE
  5
AF97
  8
0
 10
4334.6500231132722547
 20
179.2881815888972028
 30
0.0
 11
4334.6500231132722547
 21
179.2997962197972015
 31
0.0
  0
LINE
  5
AF98
  8
0
 10
4334.6716766565732541
 20
179.2910852465971914
 30
0.0
 11
4334.6716766565732541
 21
179.2968925620972129
 31
0.0
  0
LINE
  5
AF99
  8
0
 10
4334.6283695699730742
 20
179.2910852465971914
 30
0.0
 11
4334.6500231132722547
 21
179.2881815888972028
 31
0.0
  0
LINE
  5
AF9A
  8
0
 10
4334.6716766565732541
 20
179.2968925620972129
 30
0.0
 11
4334.6500231132722547
 21
179.2997962197972015
 31
0.0
  0
LINE
  5
AF9B
  8
0
 10
4334.6500231132722547
 20
179.2881815888972028
 30
0.0
 11
4334.6716766565732541
 21
179.2910852465971914
 31
0.0
  0
LINE
  5
AF9C
  8
0
 10
4334.6500231132722547
 20
179.2997962197972015
 30
0.0
 11
4334.6283695699730742
 21
179.2968925620972129
 31
0.0
  0
LINE
  5
AF9D
  8
0
 10
4334.6283127651731775
 20
179.3130025529131046
 30
0.0
 11
4334.6283127651731775
 21
179.3116824367972129
 31
0.0
  0
LINE
  5
AF9E
  8
0
 10
4334.6499663084732674
 20
179.3087787790971959
 30
0.0
 11
4334.6499663084732674
 21
179.314513306739002
 31
0.0
  0
LINE
  5
AF9F
  8
0
 10
4334.6716198517733574
 20
179.3116824367972129
 30
0.0
 11
4334.6716198517733574
 21
179.3155745751475934
 31
0.0
  0
LINE
  5
AFA0
  8
0
 10
4334.6283127651731775
 20
179.3116824367972129
 30
0.0
 11
4334.6499663084732674
 21
179.3087787790971959
 31
0.0
  0
LINE
  5
AFA1
  8
0
 10
4334.6499663084732674
 20
179.3087787790971959
 30
0.0
 11
4334.6716198517733574
 21
179.3116824367972129
 31
0.0
  0
LINE
  5
AFA2
  8
0
 10
4334.6539033163726344
 20
179.3071949657972937
 30
0.0
 11
4334.6539033163726344
 21
179.3013876502973005
 31
0.0
  0
LINE
  5
AFA3
  8
0
 10
4334.6755568596718149
 20
179.2984839925971983
 30
0.0
 11
4334.6755568596718149
 21
179.310098623497197
 31
0.0
  0
LINE
  5
AFA4
  8
0
 10
4334.6972104029728143
 20
179.3013876502973005
 30
0.0
 11
4334.6972104029728143
 21
179.3071949657972937
 31
0.0
  0
LINE
  5
AFA5
  8
0
 10
4334.6539033163726344
 20
179.3013876502973005
 30
0.0
 11
4334.6755568596718149
 21
179.2984839925971983
 31
0.0
  0
LINE
  5
AFA6
  8
0
 10
4334.6972104029728143
 20
179.3071949657972937
 30
0.0
 11
4334.6755568596718149
 21
179.310098623497197
 31
0.0
  0
LINE
  5
AFA7
  8
0
 10
4334.6755568596718149
 20
179.2984839925971983
 30
0.0
 11
4334.6972104029728143
 21
179.3013876502973005
 31
0.0
  0
LINE
  5
AFA8
  8
0
 10
4334.6755568596718149
 20
179.310098623497197
 30
0.0
 11
4334.6539033163726344
 21
179.3071949657972937
 31
0.0
  0
LINE
  5
AFA9
  8
0
 10
4334.6539033163726344
 20
179.2866053928972008
 30
0.0
 11
4334.6539033163726344
 21
179.2807980773972076
 31
0.0
  0
LINE
  5
AFAA
  8
0
 10
4334.6755568596718149
 20
179.2778944196973043
 30
0.0
 11
4334.6755568596718149
 21
179.289509050597303
 31
0.0
  0
LINE
  5
AFAB
  8
0
 10
4334.6972104029728143
 20
179.2807980773972076
 30
0.0
 11
4334.6972104029728143
 21
179.2866053928972008
 31
0.0
  0
LINE
  5
AFAC
  8
0
 10
4334.6539033163726344
 20
179.2807980773972076
 30
0.0
 11
4334.6755568596718149
 21
179.2778944196973043
 31
0.0
  0
LINE
  5
AFAD
  8
0
 10
4334.6972104029728143
 20
179.2866053928972008
 30
0.0
 11
4334.6755568596718149
 21
179.289509050597303
 31
0.0
  0
LINE
  5
AFAE
  8
0
 10
4334.6755568596718149
 20
179.2778944196973043
 30
0.0
 11
4334.6972104029728143
 21
179.2807980773972076
 31
0.0
  0
LINE
  5
AFAF
  8
0
 10
4334.6755568596718149
 20
179.289509050597303
 30
0.0
 11
4334.6539033163726344
 21
179.2866053928972008
 31
0.0
  0
LINE
  5
AFB0
  8
0
 10
4334.6283695699730742
 20
179.2763182237972046
 30
0.0
 11
4334.6283695699730742
 21
179.2705109082972115
 31
0.0
  0
LINE
  5
AFB1
  8
0
 10
4334.6500231132722547
 20
179.2676072505973082
 30
0.0
 11
4334.6500231132722547
 21
179.2792218814971932
 31
0.0
  0
LINE
  5
AFB2
  8
0
 10
4334.6716766565732541
 20
179.2705109082972115
 30
0.0
 11
4334.6716766565732541
 21
179.2763182237972046
 31
0.0
  0
LINE
  5
AFB3
  8
0
 10
4334.6283695699730742
 20
179.2705109082972115
 30
0.0
 11
4334.6500231132722547
 21
179.2676072505973082
 31
0.0
  0
LINE
  5
AFB4
  8
0
 10
4334.6716766565732541
 20
179.2763182237972046
 30
0.0
 11
4334.6500231132722547
 21
179.2792218814971932
 31
0.0
  0
LINE
  5
AFB5
  8
0
 10
4334.6500231132722547
 20
179.2676072505973082
 30
0.0
 11
4334.6716766565732541
 21
179.2705109082972115
 31
0.0
  0
LINE
  5
AFB6
  8
0
 10
4334.6500231132722547
 20
179.2792218814971932
 30
0.0
 11
4334.6283695699730742
 21
179.2763182237972046
 31
0.0
  0
LINE
  5
AFB7
  8
0
 10
4334.6539033163726344
 20
179.2660158199971931
 30
0.0
 11
4334.6539033163726344
 21
179.2602085044972
 31
0.0
  0
LINE
  5
AFB8
  8
0
 10
4334.6755568596718149
 20
179.2573048467972114
 30
0.0
 11
4334.6755568596718149
 21
179.2689194776972101
 31
0.0
  0
LINE
  5
AFB9
  8
0
 10
4334.6972104029728143
 20
179.2602085044972
 30
0.0
 11
4334.6972104029728143
 21
179.2660158199971931
 31
0.0
  0
LINE
  5
AFBA
  8
0
 10
4334.6539033163726344
 20
179.2602085044972
 30
0.0
 11
4334.6755568596718149
 21
179.2573048467972114
 31
0.0
  0
LINE
  5
AFBB
  8
0
 10
4334.6972104029728143
 20
179.2660158199971931
 30
0.0
 11
4334.6755568596718149
 21
179.2689194776972101
 31
0.0
  0
LINE
  5
AFBC
  8
0
 10
4334.6755568596718149
 20
179.2573048467972114
 30
0.0
 11
4334.6972104029728143
 21
179.2602085044972
 31
0.0
  0
LINE
  5
AFBD
  8
0
 10
4334.6755568596718149
 20
179.2689194776972101
 30
0.0
 11
4334.6539033163726344
 21
179.2660158199971931
 31
0.0
  0
LINE
  5
AFBE
  8
0
 10
4334.6794938675730009
 20
179.2763106064971907
 30
0.0
 11
4334.6794938675730009
 21
179.2705032909973113
 31
0.0
  0
LINE
  5
AFBF
  8
0
 10
4334.7011474108730908
 20
179.267599633297209
 30
0.0
 11
4334.7011474108730908
 21
179.2792142641972077
 31
0.0
  0
LINE
  5
AFC0
  8
0
 10
4334.7228009541731808
 20
179.2705032909973113
 30
0.0
 11
4334.7228009541731808
 21
179.2763106064971907
 31
0.0
  0
LINE
  5
AFC1
  8
0
 10
4334.6794938675730009
 20
179.2705032909973113
 30
0.0
 11
4334.7011474108730908
 21
179.267599633297209
 31
0.0
  0
LINE
  5
AFC2
  8
0
 10
4334.7228009541731808
 20
179.2763106064971907
 30
0.0
 11
4334.7011474108730908
 21
179.2792142641972077
 31
0.0
  0
LINE
  5
AFC3
  8
0
 10
4334.7011474108730908
 20
179.267599633297209
 30
0.0
 11
4334.7228009541731808
 21
179.2705032909973113
 31
0.0
  0
LINE
  5
AFC4
  8
0
 10
4334.7011474108730908
 20
179.2792142641972077
 30
0.0
 11
4334.6794938675730009
 21
179.2763106064971907
 31
0.0
  0
LINE
  5
AFC5
  8
0
 10
4334.6794938675730009
 20
179.2969001793971984
 30
0.0
 11
4334.6794938675730009
 21
179.2910928638972052
 31
0.0
  0
LINE
  5
AFC6
  8
0
 10
4334.7011474108730908
 20
179.2881892061971882
 30
0.0
 11
4334.7011474108730908
 21
179.2998038370971869
 31
0.0
  0
LINE
  5
AFC7
  8
0
 10
4334.7228009541731808
 20
179.2910928638972052
 30
0.0
 11
4334.7228009541731808
 21
179.2969001793971984
 31
0.0
  0
LINE
  5
AFC8
  8
0
 10
4334.6794938675730009
 20
179.2910928638972052
 30
0.0
 11
4334.7011474108730908
 21
179.2881892061971882
 31
0.0
  0
LINE
  5
AFC9
  8
0
 10
4334.7228009541731808
 20
179.2969001793971984
 30
0.0
 11
4334.7011474108730908
 21
179.2998038370971869
 31
0.0
  0
LINE
  5
AFCA
  8
0
 10
4334.7011474108730908
 20
179.2881892061971882
 30
0.0
 11
4334.7228009541731808
 21
179.2910928638972052
 31
0.0
  0
LINE
  5
AFCB
  8
0
 10
4334.7011474108730908
 20
179.2998038370971869
 30
0.0
 11
4334.6794938675730009
 21
179.2969001793971984
 31
0.0
  0
LINE
  5
AFCC
  8
0
 10
4334.7050844187733674
 20
179.3071797311972944
 30
0.0
 11
4334.7050844187733674
 21
179.3013724156971875
 31
0.0
  0
LINE
  5
AFCD
  8
0
 10
4334.7267379620743668
 20
179.2984687579973127
 30
0.0
 11
4334.7267379620743668
 21
179.3100833888973114
 31
0.0
  0
LINE
  5
AFCE
  8
0
 10
4334.7483915053726378
 20
179.3013724156971875
 30
0.0
 11
4334.7483915053726378
 21
179.3071797311972944
 31
0.0
  0
LINE
  5
AFCF
  8
0
 10
4334.7050844187733674
 20
179.3013724156971875
 30
0.0
 11
4334.7267379620743668
 21
179.2984687579973127
 31
0.0
  0
LINE
  5
AFD0
  8
0
 10
4334.7483915053726378
 20
179.3071797311972944
 30
0.0
 11
4334.7267379620743668
 21
179.3100833888973114
 31
0.0
  0
LINE
  5
AFD1
  8
0
 10
4334.7267379620743668
 20
179.2984687579973127
 30
0.0
 11
4334.7483915053726378
 21
179.3013724156971875
 31
0.0
  0
LINE
  5
AFD2
  8
0
 10
4334.7267379620743668
 20
179.3100833888973114
 30
0.0
 11
4334.7050844187733674
 21
179.3071797311972944
 31
0.0
  0
LINE
  5
AFD3
  8
0
 10
4334.7306749698727799
 20
179.2969001793971984
 30
0.0
 11
4334.7306749698727799
 21
179.2910928638972052
 31
0.0
  0
LINE
  5
AFD4
  8
0
 10
4334.7523285131728699
 20
179.2881892061971882
 30
0.0
 11
4334.7523285131728699
 21
179.2998038370971869
 31
0.0
  0
LINE
  5
AFD5
  8
0
 10
4334.7739820564729598
 20
179.2910928638972052
 30
0.0
 11
4334.7739820564729598
 21
179.2969001793971984
 31
0.0
  0
LINE
  5
AFD6
  8
0
 10
4334.7306749698727799
 20
179.2910928638972052
 30
0.0
 11
4334.7523285131728699
 21
179.2881892061971882
 31
0.0
  0
LINE
  5
AFD7
  8
0
 10
4334.7739820564729598
 20
179.2969001793971984
 30
0.0
 11
4334.7523285131728699
 21
179.2998038370971869
 31
0.0
  0
LINE
  5
AFD8
  8
0
 10
4334.7523285131728699
 20
179.2881892061971882
 30
0.0
 11
4334.7739820564729598
 21
179.2910928638972052
 31
0.0
  0
LINE
  5
AFD9
  8
0
 10
4334.7523285131728699
 20
179.2998038370971869
 30
0.0
 11
4334.7306749698727799
 21
179.2969001793971984
 31
0.0
  0
LINE
  5
AFDA
  8
0
 10
4334.7050844187733674
 20
179.2660310545973061
 30
0.0
 11
4334.7050844187733674
 21
179.260223739097313
 31
0.0
  0
LINE
  5
AFDB
  8
0
 10
4334.7267379620743668
 20
179.2573200813972107
 30
0.0
 11
4334.7267379620743668
 21
179.2689347122972947
 31
0.0
  0
LINE
  5
AFDC
  8
0
 10
4334.7483915053726378
 20
179.260223739097313
 30
0.0
 11
4334.7483915053726378
 21
179.2660310545973061
 31
0.0
  0
LINE
  5
AFDD
  8
0
 10
4334.7050844187733674
 20
179.260223739097313
 30
0.0
 11
4334.7267379620743668
 21
179.2573200813972107
 31
0.0
  0
LINE
  5
AFDE
  8
0
 10
4334.7483915053726378
 20
179.2660310545973061
 30
0.0
 11
4334.7267379620743668
 21
179.2689347122972947
 31
0.0
  0
LINE
  5
AFDF
  8
0
 10
4334.7267379620743668
 20
179.2573200813972107
 30
0.0
 11
4334.7483915053726378
 21
179.260223739097313
 31
0.0
  0
LINE
  5
AFE0
  8
0
 10
4334.7267379620743668
 20
179.2689347122972947
 30
0.0
 11
4334.7050844187733674
 21
179.2660310545973061
 31
0.0
  0
LINE
  5
AFE1
  8
0
 10
4334.7306749698727799
 20
179.2763106064971907
 30
0.0
 11
4334.7306749698727799
 21
179.2705032909973113
 31
0.0
  0
LINE
  5
AFE2
  8
0
 10
4334.7523285131728699
 20
179.267599633297209
 30
0.0
 11
4334.7523285131728699
 21
179.2792142641972077
 31
0.0
  0
LINE
  5
AFE3
  8
0
 10
4334.7739820564729598
 20
179.2705032909973113
 30
0.0
 11
4334.7739820564729598
 21
179.2763106064971907
 31
0.0
  0
LINE
  5
AFE4
  8
0
 10
4334.7306749698727799
 20
179.2705032909973113
 30
0.0
 11
4334.7523285131728699
 21
179.267599633297209
 31
0.0
  0
LINE
  5
AFE5
  8
0
 10
4334.7739820564729598
 20
179.2763106064971907
 30
0.0
 11
4334.7523285131728699
 21
179.2792142641972077
 31
0.0
  0
LINE
  5
AFE6
  8
0
 10
4334.7523285131728699
 20
179.267599633297209
 30
0.0
 11
4334.7739820564729598
 21
179.2705032909973113
 31
0.0
  0
LINE
  5
AFE7
  8
0
 10
4334.7523285131728699
 20
179.2792142641972077
 30
0.0
 11
4334.7306749698727799
 21
179.2763106064971907
 31
0.0
  0
LINE
  5
AFE8
  8
0
 10
4334.7562655210731464
 20
179.2660158199971931
 30
0.0
 11
4334.7562655210731464
 21
179.2602085044972
 31
0.0
  0
LINE
  5
AFE9
  8
0
 10
4334.7779190643732363
 20
179.2573048467972114
 30
0.0
 11
4334.7779190643732363
 21
179.2689194776972101
 31
0.0
  0
LINE
  5
AFEA
  8
0
 10
4334.7995726076733263
 20
179.2602085044972
 30
0.0
 11
4334.7995726076733263
 21
179.2660158199971931
 31
0.0
  0
LINE
  5
AFEB
  8
0
 10
4334.7562655210731464
 20
179.2602085044972
 30
0.0
 11
4334.7779190643732363
 21
179.2573048467972114
 31
0.0
  0
LINE
  5
AFEC
  8
0
 10
4334.7995726076733263
 20
179.2660158199971931
 30
0.0
 11
4334.7779190643732363
 21
179.2689194776972101
 31
0.0
  0
LINE
  5
AFED
  8
0
 10
4334.7779190643732363
 20
179.2573048467972114
 30
0.0
 11
4334.7995726076733263
 21
179.2602085044972
 31
0.0
  0
LINE
  5
AFEE
  8
0
 10
4334.7779190643732363
 20
179.2689194776972101
 30
0.0
 11
4334.7562655210731464
 21
179.2660158199971931
 31
0.0
  0
LINE
  5
AFEF
  8
0
 10
4334.7818560722726033
 20
179.2557210335972968
 30
0.0
 11
4334.7818560722726033
 21
179.2499137180973037
 31
0.0
  0
LINE
  5
AFF0
  8
0
 10
4334.8035096155717838
 20
179.2470100603972014
 30
0.0
 11
4334.8035096155717838
 21
179.2586246912972001
 31
0.0
  0
LINE
  5
AFF1
  8
0
 10
4334.8251631588727832
 20
179.2499137180973037
 30
0.0
 11
4334.8251631588727832
 21
179.2557210335972968
 31
0.0
  0
LINE
  5
AFF2
  8
0
 10
4334.7818560722726033
 20
179.2499137180973037
 30
0.0
 11
4334.8035096155717838
 21
179.2470100603972014
 31
0.0
  0
LINE
  5
AFF3
  8
0
 10
4334.8251631588727832
 20
179.2557210335972968
 30
0.0
 11
4334.8035096155717838
 21
179.2586246912972001
 31
0.0
  0
LINE
  5
AFF4
  8
0
 10
4334.8035096155717838
 20
179.2470100603972014
 30
0.0
 11
4334.8251631588727832
 21
179.2499137180973037
 31
0.0
  0
LINE
  5
AFF5
  8
0
 10
4334.8035096155717838
 20
179.2586246912972001
 30
0.0
 11
4334.7818560722726033
 21
179.2557210335972968
 31
0.0
  0
LINE
  5
AFF6
  8
0
 10
4334.8074466234720603
 20
179.2454262470972139
 30
0.0
 11
4334.8074466234720603
 21
179.2396189315971924
 31
0.0
  0
LINE
  5
AFF7
  8
0
 10
4334.8291001667730598
 20
179.2367152738972038
 30
0.0
 11
4334.8291001667730598
 21
179.2483299047972025
 31
0.0
  0
LINE
  5
AFF8
  8
0
 10
4334.8507537100731497
 20
179.2396189315971924
 30
0.0
 11
4334.8507537100731497
 21
179.2454262470972139
 31
0.0
  0
LINE
  5
AFF9
  8
0
 10
4334.8074466234720603
 20
179.2396189315971924
 30
0.0
 11
4334.8291001667730598
 21
179.2367152738972038
 31
0.0
  0
LINE
  5
AFFA
  8
0
 10
4334.8507537100731497
 20
179.2454262470972139
 30
0.0
 11
4334.8291001667730598
 21
179.2483299047972025
 31
0.0
  0
LINE
  5
AFFB
  8
0
 10
4334.8291001667730598
 20
179.2367152738972038
 30
0.0
 11
4334.8507537100731497
 21
179.2396189315971924
 31
0.0
  0
LINE
  5
AFFC
  8
0
 10
4334.8291001667730598
 20
179.2483299047972025
 30
0.0
 11
4334.8074466234720603
 21
179.2454262470972139
 31
0.0
  0
LINE
  5
AFFD
  8
0
 10
4334.7817992674727066
 20
179.2763182237972046
 30
0.0
 11
4334.7817992674727066
 21
179.2705109082972115
 31
0.0
  0
LINE
  5
AFFE
  8
0
 10
4334.8034528107727965
 20
179.2676072505973082
 30
0.0
 11
4334.8034528107727965
 21
179.2792218814971932
 31
0.0
  0
LINE
  5
AFFF
  8
0
 10
4334.8251063540728865
 20
179.2705109082972115
 30
0.0
 11
4334.8251063540728865
 21
179.2763182237972046
 31
0.0
  0
LINE
  5
B000
  8
0
 10
4334.7817992674727066
 20
179.2705109082972115
 30
0.0
 11
4334.8034528107727965
 21
179.2676072505973082
 31
0.0
  0
LINE
  5
B001
  8
0
 10
4334.8251063540728865
 20
179.2763182237972046
 30
0.0
 11
4334.8034528107727965
 21
179.2792218814971932
 31
0.0
  0
LINE
  5
B002
  8
0
 10
4334.8034528107727965
 20
179.2676072505973082
 30
0.0
 11
4334.8251063540728865
 21
179.2705109082972115
 31
0.0
  0
LINE
  5
B003
  8
0
 10
4334.8034528107727965
 20
179.2792218814971932
 30
0.0
 11
4334.7817992674727066
 21
179.2763182237972046
 31
0.0
  0
LINE
  5
B004
  8
0
 10
4334.7562655210731464
 20
179.2866053928972008
 30
0.0
 11
4334.7562655210731464
 21
179.2807980773972076
 31
0.0
  0
LINE
  5
B005
  8
0
 10
4334.7779190643732363
 20
179.2778944196973043
 30
0.0
 11
4334.7779190643732363
 21
179.289509050597303
 31
0.0
  0
LINE
  5
B006
  8
0
 10
4334.7995726076733263
 20
179.2807980773972076
 30
0.0
 11
4334.7995726076733263
 21
179.2866053928972008
 31
0.0
  0
LINE
  5
B007
  8
0
 10
4334.7562655210731464
 20
179.2807980773972076
 30
0.0
 11
4334.7779190643732363
 21
179.2778944196973043
 31
0.0
  0
LINE
  5
B008
  8
0
 10
4334.7995726076733263
 20
179.2866053928972008
 30
0.0
 11
4334.7779190643732363
 21
179.289509050597303
 31
0.0
  0
LINE
  5
B009
  8
0
 10
4334.7779190643732363
 20
179.2778944196973043
 30
0.0
 11
4334.7995726076733263
 21
179.2807980773972076
 31
0.0
  0
LINE
  5
B00A
  8
0
 10
4334.7779190643732363
 20
179.289509050597303
 30
0.0
 11
4334.7562655210731464
 21
179.2866053928972008
 31
0.0
  0
LINE
  5
B00B
  8
0
 10
4334.7562655210731464
 20
179.3071949657972937
 30
0.0
 11
4334.7562655210731464
 21
179.3013876502973005
 31
0.0
  0
LINE
  5
B00C
  8
0
 10
4334.7779190643732363
 20
179.2984839925971983
 30
0.0
 11
4334.7779190643732363
 21
179.310098623497197
 31
0.0
  0
LINE
  5
B00D
  8
0
 10
4334.7995726076733263
 20
179.3013876502973005
 30
0.0
 11
4334.7995726076733263
 21
179.3071949657972937
 31
0.0
  0
LINE
  5
B00E
  8
0
 10
4334.7562655210731464
 20
179.3013876502973005
 30
0.0
 11
4334.7779190643732363
 21
179.2984839925971983
 31
0.0
  0
LINE
  5
B00F
  8
0
 10
4334.7995726076733263
 20
179.3071949657972937
 30
0.0
 11
4334.7779190643732363
 21
179.310098623497197
 31
0.0
  0
LINE
  5
B010
  8
0
 10
4334.7779190643732363
 20
179.2984839925971983
 30
0.0
 11
4334.7995726076733263
 21
179.3013876502973005
 31
0.0
  0
LINE
  5
B011
  8
0
 10
4334.7779190643732363
 20
179.310098623497197
 30
0.0
 11
4334.7562655210731464
 21
179.3071949657972937
 31
0.0
  0
LINE
  5
B012
  8
0
 10
4334.7818560722726033
 20
179.3155736458168974
 30
0.0
 11
4334.7818560722726033
 21
179.3116824367972129
 31
0.0
  0
LINE
  5
B013
  8
0
 10
4334.8035096155717838
 20
179.3087787790971959
 30
0.0
 11
4334.8035096155717838
 21
179.3145118793694905
 31
0.0
  0
LINE
  5
B014
  8
0
 10
4334.8251631588727832
 20
179.3116824367972129
 30
0.0
 11
4334.8251631588727832
 21
179.3130006256654099
 31
0.0
  0
LINE
  5
B015
  8
0
 10
4334.7818560722726033
 20
179.3116824367972129
 30
0.0
 11
4334.8035096155717838
 21
179.3087787790971959
 31
0.0
  0
LINE
  5
B016
  8
0
 10
4334.8035096155717838
 20
179.3087787790971959
 30
0.0
 11
4334.8251631588727832
 21
179.3116824367972129
 31
0.0
  0
LINE
  5
B017
  8
0
 10
4334.8585141162720902
 20
179.3071797311972944
 30
0.0
 11
4334.8585141162720902
 21
179.3013724156971875
 31
0.0
  0
LINE
  5
B018
  8
0
 10
4334.8801676595730896
 20
179.2984687579973127
 30
0.0
 11
4334.8801676595730896
 21
179.3071257706531867
 31
0.0
  0
LINE
  5
B019
  8
0
 10
4334.9018212028731796
 20
179.3013724156971875
 30
0.0
 11
4334.9018212028731796
 21
179.304009478374013
 31
0.0
  0
LINE
  5
B01A
  8
0
 10
4334.8585141162720902
 20
179.3013724156971875
 30
0.0
 11
4334.8801676595730896
 21
179.2984687579973127
 31
0.0
  0
LINE
  5
B01B
  8
0
 10
4334.8801676595730896
 20
179.2984687579973127
 30
0.0
 11
4334.9018212028731796
 21
179.3013724156971875
 31
0.0
  0
LINE
  5
B01C
  8
0
 10
4334.8688852977693386
 20
179.3085704671424878
 30
0.0
 11
4334.8585141162720902
 21
179.3071797311972944
 31
0.0
  0
LINE
  5
B01D
  8
0
 10
4334.7817992674727066
 20
179.2968925620972129
 30
0.0
 11
4334.7817992674727066
 21
179.2910852465971914
 31
0.0
  0
LINE
  5
B01E
  8
0
 10
4334.8034528107727965
 20
179.2881815888972028
 30
0.0
 11
4334.8034528107727965
 21
179.2997962197972015
 31
0.0
  0
LINE
  5
B01F
  8
0
 10
4334.8251063540728865
 20
179.2910852465971914
 30
0.0
 11
4334.8251063540728865
 21
179.2968925620972129
 31
0.0
  0
LINE
  5
B020
  8
0
 10
4334.7817992674727066
 20
179.2910852465971914
 30
0.0
 11
4334.8034528107727965
 21
179.2881815888972028
 31
0.0
  0
LINE
  5
B021
  8
0
 10
4334.8251063540728865
 20
179.2968925620972129
 30
0.0
 11
4334.8034528107727965
 21
179.2997962197972015
 31
0.0
  0
LINE
  5
B022
  8
0
 10
4334.8034528107727965
 20
179.2881815888972028
 30
0.0
 11
4334.8251063540728865
 21
179.2910852465971914
 31
0.0
  0
LINE
  5
B023
  8
0
 10
4334.8034528107727965
 20
179.2997962197972015
 30
0.0
 11
4334.7817992674727066
 21
179.2968925620972129
 31
0.0
  0
LINE
  5
B024
  8
0
 10
4334.8074466234720603
 20
179.2866053928972008
 30
0.0
 11
4334.8074466234720603
 21
179.2807980773972076
 31
0.0
  0
LINE
  5
B025
  8
0
 10
4334.8291001667730598
 20
179.2778944196973043
 30
0.0
 11
4334.8291001667730598
 21
179.289509050597303
 31
0.0
  0
LINE
  5
B026
  8
0
 10
4334.8507537100731497
 20
179.2807980773972076
 30
0.0
 11
4334.8507537100731497
 21
179.2866053928972008
 31
0.0
  0
LINE
  5
B027
  8
0
 10
4334.8074466234720603
 20
179.2807980773972076
 30
0.0
 11
4334.8291001667730598
 21
179.2778944196973043
 31
0.0
  0
LINE
  5
B028
  8
0
 10
4334.8507537100731497
 20
179.2866053928972008
 30
0.0
 11
4334.8291001667730598
 21
179.289509050597303
 31
0.0
  0
LINE
  5
B029
  8
0
 10
4334.8291001667730598
 20
179.2778944196973043
 30
0.0
 11
4334.8507537100731497
 21
179.2807980773972076
 31
0.0
  0
LINE
  5
B02A
  8
0
 10
4334.8291001667730598
 20
179.289509050597303
 30
0.0
 11
4334.8074466234720603
 21
179.2866053928972008
 31
0.0
  0
LINE
  5
B02B
  8
0
 10
4334.8586277257727488
 20
179.2866053928972008
 30
0.0
 11
4334.8586277257727488
 21
179.2807980773972076
 31
0.0
  0
LINE
  5
B02C
  8
0
 10
4334.8802812690719293
 20
179.2778944196973043
 30
0.0
 11
4334.8802812690719293
 21
179.289509050597303
 31
0.0
  0
LINE
  5
B02D
  8
0
 10
4334.9019348123729287
 20
179.2807980773972076
 30
0.0
 11
4334.9019348123729287
 21
179.2866053928972008
 31
0.0
  0
LINE
  5
B02E
  8
0
 10
4334.8586277257727488
 20
179.2807980773972076
 30
0.0
 11
4334.8802812690719293
 21
179.2778944196973043
 31
0.0
  0
LINE
  5
B02F
  8
0
 10
4334.9019348123729287
 20
179.2866053928972008
 30
0.0
 11
4334.8802812690719293
 21
179.289509050597303
 31
0.0
  0
LINE
  5
B030
  8
0
 10
4334.8802812690719293
 20
179.2778944196973043
 30
0.0
 11
4334.9019348123729287
 21
179.2807980773972076
 31
0.0
  0
LINE
  5
B031
  8
0
 10
4334.8802812690719293
 20
179.289509050597303
 30
0.0
 11
4334.8586277257727488
 21
179.2866053928972008
 31
0.0
  0
LINE
  5
B032
  8
0
 10
4334.9098088281725722
 20
179.2866053928972008
 30
0.0
 11
4334.9098088281725722
 21
179.2807980773972076
 31
0.0
  0
LINE
  5
B033
  8
0
 10
4334.9314623714717527
 20
179.2778944196973043
 30
0.0
 11
4334.9314623714717527
 21
179.289509050597303
 31
0.0
  0
LINE
  5
B034
  8
0
 10
4334.9531159147727521
 20
179.2807980773972076
 30
0.0
 11
4334.9531159147727521
 21
179.2866053928972008
 31
0.0
  0
LINE
  5
B035
  8
0
 10
4334.9098088281725722
 20
179.2807980773972076
 30
0.0
 11
4334.9314623714717527
 21
179.2778944196973043
 31
0.0
  0
LINE
  5
B036
  8
0
 10
4334.9531159147727521
 20
179.2866053928972008
 30
0.0
 11
4334.9314623714717527
 21
179.289509050597303
 31
0.0
  0
LINE
  5
B037
  8
0
 10
4334.9314623714717527
 20
179.2778944196973043
 30
0.0
 11
4334.9531159147727521
 21
179.2807980773972076
 31
0.0
  0
LINE
  5
B038
  8
0
 10
4334.9314623714717527
 20
179.289509050597303
 30
0.0
 11
4334.9098088281725722
 21
179.2866053928972008
 31
0.0
  0
LINE
  5
B039
  8
0
 10
4334.9609899305733052
 20
179.2866053928972008
 30
0.0
 11
4334.9609899305733052
 21
179.2807980773972076
 31
0.0
  0
LINE
  5
B03A
  8
0
 10
4334.9826434738743046
 20
179.2778944196973043
 30
0.0
 11
4334.9826434738743046
 21
179.2845318916859867
 31
0.0
  0
LINE
  5
B03B
  8
0
 10
4334.9609899305733052
 20
179.2807980773972076
 30
0.0
 11
4334.9826434738743046
 21
179.2778944196973043
 31
0.0
  0
LINE
  5
B03C
  8
0
 10
4334.9826434738743046
 20
179.2778944196973043
 30
0.0
 11
4334.9960027672295837
 21
179.2796858500643964
 31
0.0
  0
LINE
  5
B03D
  8
0
 10
4334.9719208575061202
 20
179.2880711885740936
 30
0.0
 11
4334.9609899305733052
 21
179.2866053928972008
 31
0.0
  0
LINE
  5
B03E
  8
0
 10
4334.9352289649732484
 20
179.25574388549731
 30
0.0
 11
4334.9352289649732484
 21
179.2499365699972032
 31
0.0
  0
LINE
  5
B03F
  8
0
 10
4334.9568825082733383
 20
179.2470329122971862
 30
0.0
 11
4334.9568825082733383
 21
179.2586475431972133
 31
0.0
  0
LINE
  5
B040
  8
0
 10
4334.9785360515734283
 20
179.2499365699972032
 30
0.0
 11
4334.9785360515734283
 21
179.25574388549731
 31
0.0
  0
LINE
  5
B041
  8
0
 10
4334.9352289649732484
 20
179.2499365699972032
 30
0.0
 11
4334.9568825082733383
 21
179.2470329122971862
 31
0.0
  0
LINE
  5
B042
  8
0
 10
4334.9785360515734283
 20
179.25574388549731
 30
0.0
 11
4334.9568825082733383
 21
179.2586475431972133
 31
0.0
  0
LINE
  5
B043
  8
0
 10
4334.9568825082733383
 20
179.2470329122971862
 30
0.0
 11
4334.9785360515734283
 21
179.2499365699972032
 31
0.0
  0
LINE
  5
B044
  8
0
 10
4334.9568825082733383
 20
179.2586475431972133
 30
0.0
 11
4334.9352289649732484
 21
179.25574388549731
 31
0.0
  0
LINE
  5
B045
  8
0
 10
4334.8585141162720902
 20
179.2660310545973061
 30
0.0
 11
4334.8585141162720902
 21
179.260223739097313
 31
0.0
  0
LINE
  5
B046
  8
0
 10
4334.8801676595730896
 20
179.2573200813972107
 30
0.0
 11
4334.8801676595730896
 21
179.2689347122972947
 31
0.0
  0
LINE
  5
B047
  8
0
 10
4334.9018212028731796
 20
179.260223739097313
 30
0.0
 11
4334.9018212028731796
 21
179.2660310545973061
 31
0.0
  0
LINE
  5
B048
  8
0
 10
4334.8585141162720902
 20
179.260223739097313
 30
0.0
 11
4334.8801676595730896
 21
179.2573200813972107
 31
0.0
  0
LINE
  5
B049
  8
0
 10
4334.9018212028731796
 20
179.2660310545973061
 30
0.0
 11
4334.8801676595730896
 21
179.2689347122972947
 31
0.0
  0
LINE
  5
B04A
  8
0
 10
4334.8801676595730896
 20
179.2573200813972107
 30
0.0
 11
4334.9018212028731796
 21
179.260223739097313
 31
0.0
  0
LINE
  5
B04B
  8
0
 10
4334.8801676595730896
 20
179.2689347122972947
 30
0.0
 11
4334.8585141162720902
 21
179.2660310545973061
 31
0.0
  0
LINE
  5
B04C
  8
0
 10
4334.8330371746733363
 20
179.2351314606972039
 30
0.0
 11
4334.8330371746733363
 21
179.2293241451972108
 31
0.0
  0
LINE
  5
B04D
  8
0
 10
4334.8546907179743357
 20
179.2264204874973075
 30
0.0
 11
4334.8546907179743357
 21
179.2380351183973062
 31
0.0
  0
LINE
  5
B04E
  8
0
 10
4334.8763442612744257
 20
179.2293241451972108
 30
0.0
 11
4334.8763442612744257
 21
179.2351314606972039
 31
0.0
  0
LINE
  5
B04F
  8
0
 10
4334.8330371746733363
 20
179.2293241451972108
 30
0.0
 11
4334.8546907179743357
 21
179.2264204874973075
 31
0.0
  0
LINE
  5
B050
  8
0
 10
4334.8763442612744257
 20
179.2351314606972039
 30
0.0
 11
4334.8546907179743357
 21
179.2380351183973062
 31
0.0
  0
LINE
  5
B051
  8
0
 10
4334.8546907179743357
 20
179.2264204874973075
 30
0.0
 11
4334.8763442612744257
 21
179.2293241451972108
 31
0.0
  0
LINE
  5
B052
  8
0
 10
4334.8546907179743357
 20
179.2380351183973062
 30
0.0
 11
4334.8330371746733363
 21
179.2351314606972039
 31
0.0
  0
LINE
  5
B053
  8
0
 10
4334.7050844187733674
 20
179.2248823780973055
 30
0.0
 11
4334.7050844187733674
 21
179.2190750625971987
 31
0.0
  0
LINE
  5
B054
  8
0
 10
4334.7267379620743668
 20
179.2161714048972101
 30
0.0
 11
4334.7267379620743668
 21
179.2277860357972088
 31
0.0
  0
LINE
  5
B055
  8
0
 10
4334.7483915053726378
 20
179.2190750625971987
 30
0.0
 11
4334.7483915053726378
 21
179.2248823780973055
 31
0.0
  0
LINE
  5
B056
  8
0
 10
4334.7050844187733674
 20
179.2190750625971987
 30
0.0
 11
4334.7267379620743668
 21
179.2161714048972101
 31
0.0
  0
LINE
  5
B057
  8
0
 10
4334.7483915053726378
 20
179.2248823780973055
 30
0.0
 11
4334.7267379620743668
 21
179.2277860357972088
 31
0.0
  0
LINE
  5
B058
  8
0
 10
4334.7267379620743668
 20
179.2161714048972101
 30
0.0
 11
4334.7483915053726378
 21
179.2190750625971987
 31
0.0
  0
LINE
  5
B059
  8
0
 10
4334.7267379620743668
 20
179.2277860357972088
 30
0.0
 11
4334.7050844187733674
 21
179.2248823780973055
 31
0.0
  0
LINE
  5
B05A
  8
0
 10
4334.7050844187733674
 20
179.2454567162972126
 30
0.0
 11
4334.7050844187733674
 21
179.2396494007973047
 31
0.0
  0
LINE
  5
B05B
  8
0
 10
4334.7267379620743668
 20
179.2367457430972024
 30
0.0
 11
4334.7267379620743668
 21
179.2483603739972011
 31
0.0
  0
LINE
  5
B05C
  8
0
 10
4334.7483915053726378
 20
179.2396494007973047
 30
0.0
 11
4334.7483915053726378
 21
179.2454567162972126
 31
0.0
  0
LINE
  5
B05D
  8
0
 10
4334.7050844187733674
 20
179.2396494007973047
 30
0.0
 11
4334.7267379620743668
 21
179.2367457430972024
 31
0.0
  0
LINE
  5
B05E
  8
0
 10
4334.7483915053726378
 20
179.2454567162972126
 30
0.0
 11
4334.7267379620743668
 21
179.2483603739972011
 31
0.0
  0
LINE
  5
B05F
  8
0
 10
4334.7267379620743668
 20
179.2367457430972024
 30
0.0
 11
4334.7483915053726378
 21
179.2396494007973047
 31
0.0
  0
LINE
  5
B060
  8
0
 10
4334.7267379620743668
 20
179.2483603739972011
 30
0.0
 11
4334.7050844187733674
 21
179.2454567162972126
 31
0.0
  0
LINE
  5
B061
  8
0
 10
4334.47083245027261
 20
179.2778944196973043
 30
0.0
 11
4334.47083245027261
 21
179.2845401698884871
 31
0.0
  0
LINE
  5
B062
  8
0
 10
4334.4924859935727
 20
179.2807980773972076
 30
0.0
 11
4334.4924859935727
 21
179.2866053928972008
 31
0.0
  0
LINE
  5
B063
  8
0
 10
4334.4574556374645908
 20
179.2796881993560021
 30
0.0
 11
4334.47083245027261
 21
179.2778944196973043
 31
0.0
  0
LINE
  5
B064
  8
0
 10
4334.4924859935727
 20
179.2866053928972008
 30
0.0
 11
4334.4815381959651859
 21
179.2880734508673015
 31
0.0
  0
LINE
  5
B065
  8
0
 10
4334.47083245027261
 20
179.2778944196973043
 30
0.0
 11
4334.4924859935727
 21
179.2807980773972076
 31
0.0
  0
LINE
  5
B066
  8
0
 10
4334.5731946549731219
 20
179.2219269746867099
 30
0.0
 11
4334.5731946549731219
 21
179.2277403318973086
 31
0.0
  0
LINE
  5
B067
  8
0
 10
4334.5948481982732119
 20
179.2199759908612862
 30
0.0
 11
4334.5948481982732119
 21
179.2248366741972063
 31
0.0
  0
LINE
  5
B068
  8
0
 10
4334.5948481982732119
 20
179.2248366741972063
 30
0.0
 11
4334.5731946549731219
 21
179.2277403318973086
 31
0.0
  0
LINE
  5
B069
  8
0
 10
4334.5731946549731219
 20
179.2277403318973086
 30
0.0
 11
4334.552016025577359
 21
179.2249003583432909
 31
0.0
  0
LINE
  5
B06A
  8
0
 10
4334.8586409750087114
 20
179.224982552361098
 30
0.0
 11
4334.8586409750087114
 21
179.2199791611691069
 31
0.0
  0
LINE
  5
B06B
  8
0
 10
4334.8802945183088013
 20
179.2219314835155046
 30
0.0
 11
4334.8802945183088013
 21
179.2278862100610866
 31
0.0
  0
LINE
  5
B06C
  8
0
 10
4334.9019480616088913
 20
179.224982552361098
 30
0.0
 11
4334.8802945183088013
 21
179.2278862100610866
 31
0.0
  0
LINE
  5
B06D
  8
0
 10
4334.8802945183088013
 20
179.2278862100610866
 30
0.0
 11
4334.8586409750087114
 21
179.224982552361098
 31
0.0
  0
LINE
  5
B06E
  8
0
 10
4334.5883484095529639
 20
181.4175220187009074
 30
0.0
 11
4334.587925733371776
 21
181.4206279036972091
 31
0.0
  0
ARC
  5
B06F
  8
0
 10
4334.7382466526523785
 20
180.0709122316885953
 30
0.0
 40
1.36643930449485
 50
90.4830772566059522
 51
96.0409077523741388
  0
ARC
  5
B070
  8
0
 10
4334.5970049755142099
 20
181.4210430701515122
 30
0.0
 40
0.0090887293410207
 50
106.3620271110194011
 51
182.6181399970186874
  0
LINE
  5
B071
  8
0
 10
4334.8651034803542643
 20
181.4175220186926936
 30
0.0
 11
4334.8655261565363617
 21
181.4206279036972091
 31
0.0
  0
ARC
  5
B072
  8
0
 10
4334.7152052372557591
 20
180.0709122316885953
 30
0.0
 40
1.36643930449485
 50
83.9590922476258754
 51
89.5169227433940478
  0
ARC
  5
B073
  8
0
 10
4334.8564469143957467
 20
181.4210430701515122
 30
0.0
 40
0.0090887293410207
 50
357.3818600029812842
 51
73.6379728889805705
  0
ENDSEC
  0
EOF
