  0
SECTION
  2
HEADER
  9
$ACADVER
  1
AC1009
  9
$INSBASE
 10
4322.5376732294362228
 20
176.399973663709801
 30
0.0
  9
$EXTMIN
 10
4313.1980321294349778
 20
176.399973663709801
 30
0.0
  9
$EXTMAX
 10
4323.7320602430036161
 20
185.6472876450810077
 30
0.0
  9
$LIMMIN
 10
0.0
 20
0.0
  9
$LIMMAX
 10
11.6929133858000007
 20
8.2677165353999982
  9
$ORTHOMODE
 70
     1
  9
$REGENMODE
 70
     1
  9
$FILLMODE
 70
     1
  9
$QTEXTMODE
 70
     0
  9
$MIRRTEXT
 70
     0
  9
$DRAGMODE
 70
     2
  9
$LTSCALE
 40
0.6431102362
  9
$OSMODE
 70
  4095
  9
$ATTMODE
 70
     1
  9
$TEXTSIZE
 40
0.2
  9
$TRACEWID
 40
0.05
  9
$TEXTSTYLE
  7
STANDARD
  9
$CLAYER
  8
0
  9
$CELTYPE
  6
BYLAYER
  9
$CECOLOR
 62
   256
  9
$DIMSCALE
 40
1.0
  9
$DIMASZ
 40
0.1875
  9
$DIMEXO
 40
0.0625
  9
$DIMDLI
 40
0.4443307087
  9
$DIMRND
 40
0.0
  9
$DIMDLE
 40
0.0
  9
$DIMEXE
 40
0.125
  9
$DIMTP
 40
0.01
  9
$DIMTM
 40
0.01
  9
$DIMTXT
 40
2.0
  9
$DIMCEN
 40
0.1052362205
  9
$DIMTSZ
 40
0.0
  9
$DIMTOL
 70
     1
  9
$DIMLIM
 70
     0
  9
$DIMTIH
 70
     1
  9
$DIMTOH
 70
     1
  9
$DIMSE1
 70
     0
  9
$DIMSE2
 70
     0
  9
$DIMTAD
 70
     0
  9
$DIMZIN
 70
     0
  9
$DIMBLK
  1

  9
$DIMASO
 70
     1
  9
$DIMSHO
 70
     1
  9
$DIMPOST
  1
\X
  9
$DIMAPOST
  1

  9
$DIMALT
 70
     1
  9
$DIMALTD
 70
     2
  9
$DIMALTF
 40
25.3999999999999986
  9
$DIMLFAC
 40
1.0
  9
$DIMTOFL
 70
     0
  9
$DIMTVP
 40
0.0
  9
$DIMTIX
 70
     0
  9
$DIMSOXD
 70
     0
  9
$DIMSAH
 70
     0
  9
$DIMBLK1
  1

  9
$DIMBLK2
  1

  9
$DIMSTYLE
  2
STANDARD
  9
$DIMCLRD
 70
     0
  9
$DIMCLRE
 70
     0
  9
$DIMCLRT
 70
     0
  9
$DIMTFAC
 40
1.0
  9
$DIMGAP
 40
0.09
  9
$LUNITS
 70
     2
  9
$LUPREC
 70
     4
  9
$SKETCHINC
 40
0.1
  9
$FILLETRAD
 40
0.0
  9
$AUNITS
 70
     0
  9
$AUPREC
 70
     0
  9
$MENU
  1
.
  9
$ELEVATION
 40
0.0
  9
$PELEVATION
 40
0.0
  9
$THICKNESS
 40
0.0
  9
$LIMCHECK
 70
     0
  9
$BLIPMODE
 70
     0
  9
$CHAMFERA
 40
0.0
  9
$CHAMFERB
 40
0.0
  9
$SKPOLY
 70
     0
  9
$TDCREATE
 40
2458060.468368056230247
  9
$TDUPDATE
 40
2459123.4882870367728174
  9
$TDINDWG
 40
0.3301922454
  9
$TDUSRTIMER
 40
0.3301922454
  9
$USRTIMER
 70
     1
  9
$ANGBASE
 50
0.0
  9
$ANGDIR
 70
     0
  9
$PDMODE
 70
     0
  9
$PDSIZE
 40
0.3125
  9
$PLINEWID
 40
0.0
  9
$COORDS
 70
     1
  9
$SPLFRAME
 70
     0
  9
$SPLINETYPE
 70
     6
  9
$SPLINESEGS
 70
     8
  9
$ATTDIA
 70
     1
  9
$ATTREQ
 70
     1
  9
$HANDLING
 70
     1
  9
$HANDSEED
  5
A52F
  9
$SURFTAB1
 70
     6
  9
$SURFTAB2
 70
     6
  9
$SURFTYPE
 70
     6
  9
$SURFU
 70
     6
  9
$SURFV
 70
     6
  9
$UCSNAME
  2

  9
$UCSORG
 10
0.0
 20
0.0
 30
0.0
  9
$UCSXDIR
 10
1.0
 20
0.0
 30
0.0
  9
$UCSYDIR
 10
0.0
 20
1.0
 30
0.0
  9
$PUCSNAME
  2

  9
$PUCSORG
 10
0.0
 20
0.0
 30
0.0
  9
$PUCSXDIR
 10
1.0
 20
0.0
 30
0.0
  9
$PUCSYDIR
 10
0.0
 20
1.0
 30
0.0
  9
$USERI1
 70
     0
  9
$USERI2
 70
     0
  9
$USERI3
 70
     0
  9
$USERI4
 70
     0
  9
$USERI5
 70
     0
  9
$USERR1
 40
0.0
  9
$USERR2
 40
0.0
  9
$USERR3
 40
0.0
  9
$USERR4
 40
0.0
  9
$USERR5
 40
0.0
  9
$WORLDVIEW
 70
     1
  9
$SHADEDGE
 70
     3
  9
$SHADEDIF
 70
    70
  9
$TILEMODE
 70
     1
  9
$MAXACTVP
 70
    64
  9
$PLIMCHECK
 70
     0
  9
$PEXTMIN
 10
1.0000000000000000E+20
 20
1.0000000000000000E+20
 30
1.0000000000000000E+20
  9
$PEXTMAX
 10
-1.0000000000000000E+20
 20
-1.0000000000000000E+20
 30
-1.0000000000000000E+20
  9
$PLIMMIN
 10
0.0
 20
0.0
  9
$PLIMMAX
 10
12.0
 20
9.0
  9
$UNITMODE
 70
     0
  9
$VISRETAIN
 70
     1
  9
$PLINEGEN
 70
     0
  9
$PSLTSCALE
 70
     1
  0
ENDSEC
  0
SECTION
  2
TABLES
  0
TABLE
  2
VPORT
 70
     1
  0
VPORT
  2
*ACTIVE
 70
     0
 10
0.0
 20
0.0
 11
1.0
 21
1.0
 12
0.0
 22
0.0
 13
0.0
 23
0.0
 14
1.0
 24
1.0
 15
0.0
 25
0.0
 16
0.0
 26
0.0
 36
39.7162420152407023
 17
4318.465087890625
 27
181.0236053466796875
 37
0.0
 40
14.0217628348469301
 41
2.1186252771618621
 42
50.0
 43
0.0
 44
0.0
 50
0.0
 51
0.0
 71
     0
 72
   100
 73
     1
 74
     1
 75
     0
 76
     0
 77
     0
 78
     0
  0
ENDTAB
  0
TABLE
  2
LTYPE
 70
     2
  0
LTYPE
  2
CONTINUOUS
 70
     0
  3
Solid line
 72
    65
 73
     0
 40
0.0
  0
LTYPE
  2
PHANTOM2
 70
     0
  3
___ _ _ ___ _ _ ___ _ _ ___ _ _
 72
    65
 73
     6
 40
1.25
 49
0.625
 49
-0.125
 49
0.125
 49
-0.125
 49
0.125
 49
-0.125
  0
ENDTAB
  0
TABLE
  2
LAYER
 70
     2
  0
LAYER
  2
0
 70
     0
 62
   255
  6
CONTINUOUS
  0
LAYER
  2
DEFPOINTS
 70
     0
 62
     7
  6
CONTINUOUS
  0
ENDTAB
  0
TABLE
  2
STYLE
 70
     1
  0
STYLE
  2
STANDARD
 70
     0
 40
0.0
 41
0.8
 50
0.0
 71
     0
 42
0.2
  3
txt
  4

  0
ENDTAB
  0
TABLE
  2
VIEW
 70
     0
  0
ENDTAB
  0
TABLE
  2
UCS
 70
     0
  0
ENDTAB
  0
TABLE
  2
APPID
 70
     9
  0
APPID
  2
ACAD
 70
     0
  0
APPID
  2
ACAD_MLEADERVER
 70
     0
  0
APPID
  2
ACAD_EXEMPT_FROM_CAD_STANDARDS
 70
     0
  0
APPID
  2
ACAD_NAV_VCDISPLAY
 70
     0
  0
APPID
  2
ACAECLAYERSTANDARD
 70
     0
  0
APPID
  2
ACCMTRANSPARENCY
 70
     0
  0
APPID
  2
ACAD_DSTYLE_DIMJAG
 70
     0
  0
APPID
  2
ACAD_DSTYLE_DIMTALN
 70
     0
  0
APPID
  2
ACDBATTR
 70
     0
  0
ENDTAB
  0
TABLE
  2
DIMSTYLE
 70
     1
  0
DIMSTYLE
  2
STANDARD
 70
     0
  3

  4

  5

  6

  7

 40
1.0
 41
0.1875
 42
0.0625
 43
0.38
 44
0.125
 45
0.0
 46
0.0
 47
0.01
 48
0.01
140
0.15625
141
0.09
142
0.0
143
25.3999999999999986
144
1.0
145
0.0
146
1.0
147
0.09
 71
     1
 72
     0
 73
     1
 74
     1
 75
     0
 76
     0
 77
     0
 78
     4
170
     0
171
     2
172
     0
173
     0
174
     0
175
     0
176
     0
177
     0
178
     0
  0
ENDTAB
  0
ENDSEC
  0
SECTION
  2
BLOCKS
  0
BLOCK
  8
0
  2
$MODEL_SPACE
 70
     0
 10
0.0
 20
0.0
 30
0.0
  3
$MODEL_SPACE
  1

  0
ENDBLK
  5
21
  8
0
  0
BLOCK
 67
     1
  8
0
  2
$PAPER_SPACE
 70
     0
 10
0.0
 20
0.0
 30
0.0
  3
$PAPER_SPACE
  1

  0
ENDBLK
  5
1D
 67
     1
  8
0
  0
ENDSEC
  0
SECTION
  2
ENTITIES
  0
ATTDEF
  5
3930
  8
DEFPOINTS
 10
4322.534167366411566
 20
176.4108870588094931
 30
0.0
 40
0.001
  1
24275
  3

  2
MODELNUMBER
 70
     0
1001
ACDBATTR
1070
     0
1070
     1
  0
ATTDEF
  5
3931
  8
DEFPOINTS
 10
4322.534167366411566
 20
176.4092203921427995
 30
0.0
 40
0.001
  1
MEDLEY
  3

  2
TRADENAME
 70
     0
1001
ACDBATTR
1070
     0
1070
     1
  0
ATTDEF
  5
3932
  8
DEFPOINTS
 10
4322.534167366411566
 20
176.4075537254761912
 30
0.0
 40
0.001
  1
KITCHEN SINK FAUCET
  3

  2
PRODUCT
 70
     0
1001
ACDBATTR
1070
     0
1070
     1
  0
LINE
  5
A377
  8
0
 10
4322.585305462434917
 20
182.1612667256098064
 30
0.0
 11
4323.6163706343359081
 21
182.5989279249097876
 31
0.0
  0
LINE
  5
A378
  8
0
 10
4322.485927460235871
 20
182.1410480423097908
 30
0.0
 11
4321.4563543651347572
 21
182.1410480423097908
 31
0.0
  0
LINE
  5
A379
  8
0
 10
4323.2944630192359909
 20
182.3935671556097873
 30
0.0
 11
4323.132570979934826
 21
182.3935671556097873
 31
0.0
  0
ARC
  5
A37A
  8
0
 10
4322.4859274600376011
 20
182.3953866238956891
 30
0.0
 40
0.2543385816858494
 50
269.9999999770193995
 51
293.0000003321912914
  0
ARC
  5
A37B
  8
0
 10
4321.0878157996357913
 20
185.3959884438098129
 30
0.0
 40
2.437411417299999
 50
175.9409474616001035
 51
184.0506862500980958
  0
ARC
  5
A37C
  8
0
 10
4318.7410785278052572
 20
185.2298139417362961
 30
0.0
 40
0.084798022741916
 50
184.0585428350223083
 51
249.7143905215316977
  0
ARC
  5
A37D
  8
0
 10
4323.2918711101046938
 20
182.3479938116805101
 30
0.0
 40
0.0456469897128684
 50
50.0826713950500775
 51
86.7449031866597267
  0
LINE
  5
A37E
  8
0
 10
4313.2087396584356611
 20
181.2965549574697945
 30
0.0
 11
4313.3369496000841536
 21
181.1604026938780123
 31
0.0
  0
LINE
  5
A37F
  8
0
 10
4316.5508727203314265
 20
181.2915742932488001
 30
0.0
 11
4316.6203659465363671
 21
181.0857635809097985
 31
0.0
  0
LINE
  5
A380
  8
0
 10
4314.5116699296349907
 20
180.5611544370098045
 30
0.0
 11
4314.5753764761357161
 21
180.5427032556098084
 31
0.0
  0
LINE
  5
A381
  8
0
 10
4314.8762959200093974
 20
180.4766445577363925
 30
0.0
 11
4314.9401785802356244
 21
180.4580863778097921
 31
0.0
  0
LINE
  5
A382
  8
0
 10
4314.3426777126360321
 20
180.8303529914597902
 30
0.0
 11
4314.3692668229359697
 21
180.8226933363098112
 31
0.0
  0
LINE
  5
A383
  8
0
 10
4313.3458315657362618
 20
181.1549820585098018
 30
0.0
 11
4315.359253242536397
 21
180.574965820009794
 31
0.0
  0
LINE
  5
A384
  8
0
 10
4314.4183660141370638
 20
180.8299788659097942
 30
0.0
 11
4315.3131065095358281
 21
180.5722260905097869
 31
0.0
  0
LINE
  5
A385
  8
0
 10
4314.3155658466348541
 20
180.6175726908097943
 30
0.0
 11
4314.2848018443401088
 21
180.6264166626583858
 31
0.0
  0
LINE
  5
A386
  8
0
 10
4316.7193059124356296
 20
181.0594755377098011
 30
0.0
 11
4316.7018487108362024
 21
181.051178672509792
 31
0.0
  0
LINE
  5
A387
  8
0
 10
4318.0582812970360465
 20
181.5289027415097962
 30
0.0
 11
4318.0554649882360536
 21
181.5414413885098099
 31
0.0
  0
LINE
  5
A388
  8
0
 10
4315.5720139101522363
 20
180.6317228741482097
 30
0.0
 11
4315.3700197392363407
 21
180.5749700794098089
 31
0.0
  0
LINE
  5
A389
  8
0
 10
4318.0098898195374204
 20
181.4575520405097961
 30
0.0
 11
4318.0008574301373301
 21
181.456115670809794
 31
0.0
  0
LINE
  5
A38A
  8
0
 10
4323.5857318100370321
 20
182.0229378061098089
 30
0.0
 11
4321.4552285812351329
 21
182.0229378061098089
 31
0.0
  0
LINE
  5
A38B
  8
0
 10
4321.4888269676357595
 20
182.057575601409809
 30
0.0
 11
4323.586519491234867
 21
182.057575601409809
 31
0.0
  0
LINE
  5
A38C
  8
0
 10
4320.7771090883361467
 20
181.630574974209793
 30
0.0
 11
4320.048391007499049
 21
180.7621225833694893
 31
0.0
  0
LINE
  5
A38D
  8
0
 10
4321.4394806242362392
 20
182.0071411366097891
 30
0.0
 11
4321.4408361079349561
 21
181.5682334063097869
 31
0.0
  0
LINE
  5
A38E
  8
0
 10
4321.4540977416363603
 20
177.2740960013098004
 30
0.0
 11
4321.4549910374544197
 21
176.9829366250098133
 31
0.0
  0
LINE
  5
A38F
  8
0
 10
4321.5628470793362794
 20
182.0229378061098089
 30
0.0
 11
4321.5628470793362794
 21
182.057575601409809
 31
0.0
  0
LINE
  5
A390
  8
0
 10
4323.6014740796363185
 20
182.0072347607097925
 30
0.0
 11
4323.6203515209354009
 21
176.9829366250098133
 31
0.0
  0
LINE
  5
A391
  8
0
 10
4323.5124993795352566
 20
182.0229378061098089
 30
0.0
 11
4323.5124993795352566
 21
182.057575601409809
 31
0.0
  0
ARC
  5
A392
  8
0
 10
4313.2374021104360509
 20
181.3235449417097982
 30
0.0
 40
0.039369981
 50
132.6367606762983087
 51
223.278664533906408
  0
ARC
  5
A393
  8
0
 10
4313.3512800085427443
 20
181.1738966645893072
 30
0.0
 40
0.0196836950843413
 50
223.2781314118624891
 51
253.9307009167384876
  0
ARC
  5
A394
  8
0
 10
4314.183184401535982
 20
180.2762572298098007
 30
0.0
 40
0.4682329095
 50
72.8964762139762712
 51
73.892184769528825
  0
ARC
  5
A395
  8
0
 10
4314.1016886302058992
 20
181.281926290072704
 30
0.0
 40
0.5374156954887849
 50
302.3263904192954215
 51
305.1094971015091915
  0
ARC
  5
A396
  8
0
 10
4315.3646292128141795
 20
180.5933647520066074
 30
0.0
 40
0.0191682486172417
 50
253.7122043958590041
 51
286.3331298734340749
  0
ARC
  5
A397
  8
0
 10
4316.8354747998364473
 20
181.0693865739098101
 30
0.0
 40
0.0395300411
 50
149.1506615761128103
 51
160.3577284638978142
  0
ARC
  5
A398
  8
0
 10
4317.080093043209672
 20
181.2080558232241003
 30
0.0
 40
0.0117987480689701
 50
290.6019966976962223
 51
336.5864155138107208
  0
ARC
  5
A399
  8
0
 10
4316.787129004437702
 20
181.0866284987486097
 30
0.0
 40
0.0117983179401094
 50
294.4253585241190763
 51
340.4192044565738229
  0
ARC
  5
A39A
  8
0
 10
4317.0468444711523262
 20
181.1954288286295878
 30
0.0
 40
0.011811313307513
 50
245.0699335595458024
 51
291.014016219145617
  0
ARC
  5
A39B
  8
0
 10
4316.7545333503358052
 20
181.0716897064098134
 30
0.0
 40
0.0118098725
 50
248.8963319080853864
 51
294.8439813905192182
  0
ARC
  5
A39C
  8
0
 10
4318.7523967987517608
 20
176.7591919277130046
 30
0.0
 40
4.7566687593128751
 50
105.8596478058650945
 51
110.154094986535199
  0
ARC
  5
A39D
  8
0
 10
4321.8073935013371738
 20
180.7701806723098059
 30
0.0
 40
2.2119432924999991
 50
36.1009077332075279
 51
46.8146003113944573
  0
ARC
  5
A39E
  8
0
 10
4317.9948773899814114
 20
181.4968595916170102
 30
0.0
 40
0.0411804317970335
 50
256.5026628933511006
 51
278.3497629573370205
  0
ARC
  5
A39F
  8
0
 10
4320.7613145926243305
 20
181.6422934088188867
 30
0.0
 40
0.0196669215807254
 50
323.427114570031506
 51
52.5154605982503497
  0
ARC
  5
A3A0
  8
0
 10
4321.4564006513537606
 20
182.0060213182196094
 30
0.0
 40
0.0169570431060599
 50
93.9634421283676176
 51
176.2135146944206952
  0
ARC
  5
A3A1
  8
0
 10
4321.4888181546857595
 20
182.067575601074509
 30
0.0
 40
0.010000003548063
 50
143.8396773595125921
 51
270.0504944753781729
  0
ARC
  5
A3A2
  8
0
 10
4323.2679412138868429
 20
180.7701897648020974
 30
0.0
 40
2.2119284411005782
 50
141.701603794765191
 51
143.8991624561379865
  0
ARC
  5
A3A3
  8
0
 10
4323.5849418477318977
 20
182.0064035519926051
 30
0.0
 40
0.0165531145000753
 50
2.8782975261377088
 51
87.2646414107825166
  0
ARC
  5
A3A4
  8
0
 10
4323.5865282997037866
 20
182.0675756083892907
 30
0.0
 40
0.0100000108589366
 50
269.9495312482105192
 51
36.1733519188563619
  0
ARC
  5
A3A5
  8
0
 10
4317.2030283074018371
 20
176.2796341386238055
 30
0.0
 40
6.4554206135406336
 50
56.4225949662206432
 51
128.2023387914923092
  0
ARC
  5
A3A6
  8
0
 10
4320.7924300200302241
 20
181.6177187450304018
 30
0.0
 40
0.0200003394138453
 50
50.3387452453784974
 51
139.999032116242887
  0
ARC
  5
A3A7
  8
0
 10
4321.5476826219482973
 20
182.4662806463151128
 30
0.0
 40
1.1159979993514919
 50
228.2936947023094092
 51
248.2280387304874978
  0
ARC
  5
A3A8
  8
0
 10
4321.2767167459423945
 20
181.7980135990528083
 30
0.0
 40
0.3949132401329604
 50
248.7747215039989896
 51
279.6705915864982899
  0
ARC
  5
A3A9
  8
0
 10
4321.2946554908858161
 20
181.5481080881482967
 30
0.0
 40
0.1475594837081198
 50
289.1476840782653994
 51
7.8388791793972823
  0
ARC
  5
A3AA
  8
0
 10
4320.0338515886105597
 20
180.7753290909722921
 30
0.0
 40
0.0196419587789571
 50
226.0292772471921978
 51
317.7503685103864086
  0
ARC
  5
A3AB
  8
0
 10
4320.0637303758721828
 20
180.7492651695893926
 30
0.0
 40
0.0200152269830082
 50
140.0303595531131009
 51
228.4599332860977086
  0
ARC
  5
A3AC
  8
0
 10
4318.6021575088443569
 20
179.2688757580816059
 30
0.0
 40
2.0603382484867918
 50
34.5105759817342275
 51
45.3364168988625522
  0
ARC
  5
A3AD
  8
0
 10
4315.6097462083007485
 20
176.9325571640918895
 30
0.0
 40
5.854322644211325
 50
3.3445118301716921
 51
36.760201904347781
  0
ARC
  5
A3AE
  8
0
 10
4318.0280224640073357
 20
178.5100901871774965
 30
0.0
 40
3.0060425598601621
 50
48.49165652544756
 51
88.4768881984197009
  0
ARC
  5
A3AF
  8
0
 10
4315.5601732168042872
 20
180.6717733948528064
 30
0.0
 40
0.0417641739735922
 50
286.4699940779690905
 51
310.5324932327541205
  0
ARC
  5
A3B0
  8
0
 10
4317.8946922132317923
 20
178.0121567965466909
 30
0.0
 40
3.497100693219672
 50
113.8700780562733996
 51
131.2844097720096954
  0
ARC
  5
A3B1
  8
0
 10
4317.0539087956285584
 20
180.779016424071699
 30
0.0
 40
0.7181649269538767
 50
106.9004461857638972
 51
143.1082556015111891
  0
ARC
  5
A3B2
  8
0
 10
4317.9707831721416369
 20
177.9797208075491994
 30
0.0
 40
3.6636571191422491
 50
94.1712915304251084
 51
107.8934688339067947
  0
ARC
  5
A3B3
  8
0
 10
4317.7221035970105731
 20
180.9868274327905056
 30
0.0
 40
0.6470907641898437
 50
58.9912182620678678
 51
91.5770961673968884
  0
ARC
  5
A3B4
  8
0
 10
4318.3772054025930629
 20
182.1161091145482089
 30
0.0
 40
0.6586045016400603
 50
240.7567535572873965
 51
245.8663067647445928
  0
ARC
  5
A3B5
  8
0
 10
4316.676407849548923
 20
181.1045194724449914
 30
0.0
 40
0.0590971941864374
 50
198.5041677990631968
 51
295.4987791184698835
  0
ARC
  5
A3B6
  8
0
 10
4318.752396811847575
 20
176.7591919188373879
 30
0.0
 40
4.7566687721569023
 50
110.1540950977751976
 51
115.3038784211982062
  0
ARC
  5
A3B7
  8
0
 10
4317.4408366661045875
 20
181.3740159522178033
 30
0.0
 40
0.0409158736206506
 50
286.5413586047371268
 51
309.076414533108391
  0
ARC
  5
A3B8
  8
0
 10
4317.8258706336509931
 20
180.9471742872570985
 30
0.0
 40
0.5339869462008979
 50
72.6324531363247985
 51
132.2800549131355865
  0
ARC
  5
A3B9
  8
0
 10
4318.0005536839389606
 20
181.5159693812109936
 30
0.0
 40
0.0591586774910078
 50
279.0801024337789045
 51
12.6280814344688395
  0
ARC
  5
A3BA
  8
0
 10
4316.7361726060817091
 20
181.0243680786446987
 30
0.0
 40
0.0389489285675731
 50
68.7627065313250228
 51
115.6610488424645951
  0
ARC
  5
A3BB
  8
0
 10
3961.2387993640631976
 20
956.1711479175130535
 30
0.0
 40
852.7547999361804614
 50
294.6395593277251237
 51
294.6419626553093849
  0
ARC
  5
A3BC
  8
0
 10
4316.7996852393198424
 20
181.1219095412538991
 30
0.0
 40
0.0335342894330303
 50
247.8463636175301872
 51
258.0888146476461884
  0
ARC
  5
A3BD
  8
0
 10
4316.7958042674836179
 20
181.110487544487313
 30
0.0
 40
0.0216052483496449
 50
261.9103430600558227
 51
285.3885821390214801
  0
ARC
  5
A3BE
  8
0
 10
4316.777235297230618
 20
181.1810555405317018
 30
0.0
 40
0.094574378800793
 50
284.8900016544171763
 51
306.2210434063724733
  0
ARC
  5
A3BF
  8
0
 10
4316.818401148250814
 20
181.1207400936349927
 30
0.0
 40
0.0217266552731593
 50
312.6433219912582899
 51
342.1763383323009862
  0
ARC
  5
A3C0
  8
0
 10
4316.9676974291496663
 20
181.1038086498388111
 30
0.0
 40
0.0790838937276499
 50
67.7752357968016668
 51
71.1121384590538241
  0
ARC
  5
A3C1
  8
0
 10
4317.0031499383567279
 20
181.1952502431111895
 30
0.0
 40
0.0190560592838635
 50
253.0996682035238905
 51
283.3620060165005157
  0
ARC
  5
A3C2
  8
0
 10
4316.9881980953987295
 20
181.267510592645209
 30
0.0
 40
0.0928406417496161
 50
282.0335021977218162
 51
304.018540741725019
  0
ARC
  5
A3C3
  8
0
 10
4317.026372929019999
 20
181.2065333649800039
 30
0.0
 40
0.0210874317504718
 50
310.7531264362098113
 51
340.0018392646193774
  0
ARC
  5
A3C4
  8
0
 10
4317.0144046826608246
 20
181.1224202419016081
 30
0.0
 40
0.0680818217744284
 50
66.2118809681359863
 51
72.4088789684090415
  0
ARC
  5
A3C5
  8
0
 10
4317.2529364996507866
 20
180.7033749005389041
 30
0.0
 40
0.5216647819039402
 50
108.8669718624846041
 51
112.7646553014866981
  0
ARC
  5
A3C6
  8
0
 10
4317.1266932755070229
 20
181.1879561120969981
 30
0.0
 40
0.0389514404507347
 50
109.7908811327424985
 51
156.6932269192452907
  0
LINE
  5
A3C7
  8
0
 10
4313.2087396584356611
 20
181.2965549574697945
 30
0.0
 11
4315.5720139101522363
 21
180.6317228741482097
 31
0.0
  0
ARC
  5
A3C8
  8
0
 10
4315.3108742617114331
 20
180.5845255371237954
 30
0.0
 40
0.0125003726552601
 50
280.2867397178163742
 51
3.5916282893352141
  0
ARC
  5
A3C9
  8
0
 10
4315.0429807641421576
 20
181.3334745062520028
 30
0.0
 40
0.8077543368804001
 50
282.9187966222920068
 51
289.5370118932233936
  0
ARC
  5
A3CA
  8
0
 10
4315.0407727319316109
 20
181.3726354808405006
 30
0.0
 40
0.8464434700869862
 50
271.6654088837724998
 51
282.4718299553103975
  0
ARC
  5
A3CB
  8
0
 10
4314.9488168787738687
 20
180.4951423881450978
 30
0.0
 40
0.0380495480076686
 50
256.8778614561637141
 51
266.8880223810318739
  0
ARC
  5
A3CC
  8
0
 10
4314.8227454594625669
 20
180.6590168227047002
 30
0.0
 40
0.2369136488124748
 50
301.5620698610396744
 51
311.7131181103558788
  0
ARC
  5
A3CD
  8
0
 10
4315.1334903964925616
 20
180.2925722854760124
 30
0.0
 40
0.2436911588755686
 50
106.2318320002328988
 51
128.9221318807271075
  0
ARC
  5
A3CE
  8
0
 10
3064.521752542395916
 20
-4159.5119197620542764
 30
0.0
 40
4516.4928932962830004
 50
73.9287499782999333
 51
73.9304538115348464
  0
ARC
  5
A3CF
  8
0
 10
4314.5783563661098015
 20
180.550635506209602
 30
0.0
 40
0.0084735083548311
 50
249.4104245982481984
 51
304.6485371987415078
  0
ARC
  5
A3D0
  8
0
 10
4310.9289087255847335
 20
184.4221862694843139
 30
0.0
 40
5.3288444615188304
 50
313.2947679842507114
 51
313.6649922600574882
  0
ARC
  5
A3D1
  8
0
 10
4314.6397811650558651
 20
180.5376996753086871
 30
0.0
 40
0.0433541176192752
 50
42.5428642306718885
 51
136.8354425578970961
  0
ARC
  5
A3D2
  8
0
 10
4314.5500497908351463
 20
180.4799121314401873
 30
0.0
 40
0.1496363154939382
 50
13.3378032934882391
 51
35.5973297527886174
  0
ARC
  5
A3D3
  8
0
 10
4314.7081594371029496
 20
180.5180063073744066
 30
0.0
 40
0.0130385165255547
 50
218.4615143008770985
 51
255.0108414500288916
  0
ARC
  5
A3D4
  8
0
 10
4314.7175730843109704
 20
180.5226984754579007
 30
0.0
 40
0.0234298644912227
 50
200.6597678048158002
 51
213.1200994058011986
  0
ARC
  5
A3D5
  8
0
 10
4314.7692629562470756
 20
180.5024019789813963
 30
0.0
 40
0.0151262874314044
 50
262.5421620899928143
 51
310.3720187050284949
  0
ARC
  5
A3D6
  8
0
 10
4315.0627529895327825
 20
180.1669416306974085
 30
0.0
 40
0.4305994584855218
 50
124.7754806116509059
 51
131.2107331020285983
  0
ARC
  5
A3D7
  8
0
 10
4314.9144238330845837
 20
180.3821312805914943
 30
0.0
 40
0.1692451667570006
 50
85.1441924216301089
 51
125.0799750215787043
  0
ARC
  5
A3D8
  8
0
 10
4315.0915022666977165
 20
186.2029484500220917
 30
0.0
 40
5.6545221466890583
 50
268.3506481820434146
 51
270.2934641425017048
  0
ARC
  5
A3D9
  8
0
 10
4315.1214859992005586
 20
180.4133315906786095
 30
0.0
 40
0.1351727455329275
 50
77.7457034262352238
 51
90.433146832740448
  0
ARC
  5
A3DA
  8
0
 10
4315.1495114171593741
 20
180.5413042575466989
 30
0.0
 40
0.0041735343453771
 50
28.3683377934133283
 51
80.8298084017481386
  0
ARC
  5
A3DB
  8
0
 10
4315.1514625388663262
 20
180.5429003622409141
 30
0.0
 40
0.0017641666311233
 50
308.4449880444462906
 51
12.6685367134552394
  0
ARC
  5
A3DC
  8
0
 10
4315.1028582080380147
 20
180.6533669614069879
 30
0.0
 40
0.1223938513075915
 50
275.6512668841264144
 51
293.9585820009100985
  0
ARC
  5
A3DD
  8
0
 10
4314.9820716243821153
 20
181.5958435767647927
 30
0.0
 40
1.072533809140787
 50
274.454510604937127
 51
277.1146621540472097
  0
ARC
  5
A3DE
  8
0
 10
4314.8377719020400036
 20
180.4919933708521
 30
0.0
 40
0.0240830079669296
 50
260.6226549490276057
 51
299.4329233892530056
  0
ARC
  5
A3DF
  8
0
 10
4314.7774323539370016
 20
180.5992796431237934
 30
0.0
 40
0.1471732211929116
 50
299.3670070818956219
 51
308.026697178402685
  0
ARC
  5
A3E0
  8
0
 10
4314.883440093799436
 20
180.4937525566575971
 30
0.0
 40
0.0185397639205484
 50
214.1397480740066896
 51
247.3349456714101962
  0
ARC
  5
A3E1
  8
0
 10
4314.7197344375063039
 20
180.3994425899576868
 30
0.0
 40
0.1704435932863093
 50
29.4902533359907402
 51
49.5041702304464906
  0
LINE
  5
A3E2
  8
0
 10
4314.4247299456856126
 20
180.6065825375098086
 30
0.0
 11
4314.487073562835576
 21
180.588623496509797
 31
0.0
  0
ARC
  5
A3E3
  8
0
 10
4314.4898687347676969
 20
180.6014286752123894
 30
0.0
 40
0.0131067001086329
 50
257.6863688216870969
 51
303.1442663796183865
  0
ARC
  5
A3E4
  8
0
 10
4314.6342470093995871
 20
180.4391707633322994
 30
0.0
 40
0.2042399340965107
 50
117.7268248547368046
 51
132.2075856593974947
  0
ARC
  5
A3E5
  8
0
 10
4314.6103775318679254
 20
180.462167069132505
 30
0.0
 40
0.1730932221765015
 50
77.7390335569263016
 51
114.2724504922674953
  0
ARC
  5
A3E6
  8
0
 10
4314.5202364932265482
 20
180.5743634772283031
 30
0.0
 40
0.0157437211377891
 50
189.0678171433588943
 51
237.0350614085766949
  0
ARC
  5
A3E7
  8
0
 10
4314.2743199246087897
 20
180.5084931231529879
 30
0.0
 40
0.2389316461684888
 50
15.3849099606156692
 51
20.3585539079689006
  0
ARC
  5
A3E8
  8
0
 10
4314.6426926920967162
 20
180.5290334091652085
 30
0.0
 40
0.0520885460536762
 50
31.1738913144596204
 51
92.9451646771869093
  0
ARC
  5
A3E9
  8
0
 10
4312.7431539013086876
 20
179.3155717460516883
 30
0.0
 40
2.3061223909650681
 50
31.7506349453559693
 51
32.5396591582794983
  0
ARC
  5
A3EA
  8
0
 10
4314.717153509101081
 20
180.5399858104028112
 30
0.0
 40
0.0169487431504267
 50
219.9302171119128957
 51
252.1801686309549098
  0
ARC
  5
A3EB
  8
0
 10
4319.6250855543312355
 20
197.480714736954809
 30
0.0
 40
17.6542910027693694
 50
253.8414683229856053
 51
254.0594251879404055
  0
ARC
  5
A3EC
  8
0
 10
4314.7785455313742204
 20
180.5156992073526965
 30
0.0
 40
0.0106136580038974
 50
258.9275607631503249
 51
310.3831780721865812
  0
ARC
  5
A3ED
  8
0
 10
4315.0090267597197453
 20
180.2714961272496055
 30
0.0
 40
0.3251936796539413
 50
123.1082963428146968
 51
133.4407921506573871
  0
ARC
  5
A3EE
  8
0
 10
4314.8809418840583021
 20
180.480176146449196
 30
0.0
 40
0.0807104036843805
 50
70.0010058501586343
 51
127.8678612643662973
  0
ARC
  5
A3EF
  8
0
 10
4314.6860158751806011
 20
180.7099068065988945
 30
0.0
 40
0.0876854427447833
 50
243.6791832131630997
 51
266.0717239830971721
  0
ARC
  5
A3F0
  8
0
 10
4314.7404303245430128
 20
178.6863567053586905
 30
0.0
 40
1.937013266820085
 50
86.0818750243140443
 51
91.7875266200483679
  0
ARC
  5
A3F1
  8
0
 10
4314.8668530709628612
 20
180.4281295097763973
 30
0.0
 40
0.190805435946797
 50
60.9995297721327177
 51
88.2174969151964916
  0
ARC
  5
A3F2
  8
0
 10
4314.9521924441760348
 20
180.5835921385329925
 30
0.0
 40
0.0134812871811156
 50
309.5979643438120092
 51
57.8881065011437315
  0
ARC
  5
A3F3
  8
0
 10
4314.9014316721541036
 20
180.6656395020652894
 30
0.0
 40
0.1098504615652885
 50
273.712837075776406
 51
302.7049897995350989
  0
ARC
  5
A3F4
  8
0
 10
4314.3176936876743639
 20
180.6256117283361107
 30
0.0
 40
0.008315878295897
 50
255.174449064950295
 51
294.9818817544287981
  0
ARC
  5
A3F5
  8
0
 10
4314.5058985926325477
 20
180.4392726213278877
 30
0.0
 40
0.2570629004571203
 50
123.0098038708605941
 51
135.9285818134584929
  0
ARC
  5
A3F6
  8
0
 10
4314.3783885775228555
 20
180.6342619794550899
 30
0.0
 40
0.0240941867776309
 50
24.7460026099886399
 51
121.3444615229588948
  0
ARC
  5
A3F7
  8
0
 10
4313.9322644203748496
 20
180.3857556833856108
 30
0.0
 40
0.5346955205062514
 50
25.1627561158304793
 51
28.9224148732299291
  0
ARC
  5
A3F8
  8
0
 10
4314.4288047481768444
 20
180.6207149708938005
 30
0.0
 40
0.0147081504174929
 50
211.165051763860788
 51
253.9161491281957979
  0
ARC
  5
A3F9
  8
0
 10
4314.3735876766786532
 20
180.8468735733688106
 30
0.0
 40
0.0245632579535026
 50
259.8685445876978974
 51
309.0640625972079079
  0
ARC
  5
A3FA
  8
0
 10
4314.3962000040728526
 20
180.8625017120122891
 30
0.0
 40
0.0249198803529452
 50
305.8036132871550876
 51
320.9980530863736021
  0
ARC
  5
A3FB
  8
0
 10
4314.3358346492423152
 20
180.8001558740587882
 30
0.0
 40
0.0778215626681973
 50
258.9292545420664737
 51
267.9311979677565887
  0
ARC
  5
A3FC
  8
0
 10
4314.4335110813317442
 20
180.2865365042694066
 30
0.0
 40
0.4472821587208363
 50
75.0645998195239059
 51
102.9827998597522054
  0
ARC
  5
A3FD
  8
0
 10
4314.5083219177431602
 20
180.5496222446936088
 30
0.0
 40
0.1738609435013793
 50
35.8278589628040294
 51
76.5406382987699203
  0
ARC
  5
A3FE
  8
0
 10
4314.6241825760498614
 20
180.6439228517299114
 30
0.0
 40
0.0261898787447313
 50
331.2158170947179201
 51
16.570542138667431
  0
ARC
  5
A3FF
  8
0
 10
4314.4260686290563171
 20
180.8432199030285119
 30
0.0
 40
0.015318464040772
 50
183.4764491302512965
 51
239.8124544834645917
  0
LINE
  5
A400
  8
0
 10
4314.0574918194652128
 20
180.6901225400528119
 30
0.0
 11
4313.9935954919756114
 21
180.7079053827783923
 31
0.0
  0
LINE
  5
A401
  8
0
 10
4313.7028664137296801
 20
180.8098507913493904
 30
0.0
 11
4313.6387640221610127
 21
180.8276351584950135
 31
0.0
  0
LINE
  5
A402
  8
0
 10
4314.3426777126360321
 20
180.8303529914597902
 30
0.0
 11
4314.3160935576597694
 21
180.8377923800586018
 31
0.0
  0
LINE
  5
A403
  8
0
 10
4314.2781504282529568
 20
180.869794387009108
 30
0.0
 11
4313.3814744218943815
 21
181.1207310064040996
 31
0.0
  0
LINE
  5
A404
  8
0
 10
4314.2539809536501707
 20
180.6350602945639139
 30
0.0
 11
4314.2848018443401088
 21
180.6264166626583858
 31
0.0
  0
ARC
  5
A405
  8
0
 10
4314.1867392075146199
 20
180.2732536202410074
 30
0.0
 40
0.4701515325355721
 50
74.4099528335940619
 51
75.3977297851260033
  0
ARC
  5
A406
  8
0
 10
4314.7850868117820937
 20
181.0878690135830027
 30
0.0
 40
0.5374156954887849
 50
203.1857247410208913
 51
205.9688314232826087
  0
ARC
  5
A407
  8
0
 10
4313.3898374284935926
 20
181.1300218318762063
 30
0.0
 40
0.0125003726552601
 50
144.7035935532136079
 51
228.0084821247656066
  0
ARC
  5
A408
  8
0
 10
4314.0113570422945486
 20
181.626413667082403
 30
0.0
 40
0.8077543368804001
 50
218.7582099493224916
 51
225.3764252202786054
  0
ARC
  5
A409
  8
0
 10
4314.0338163243568488
 20
181.6585701281159118
 30
0.0
 40
0.8464434700869862
 50
225.8233918872074923
 51
236.6298129587603114
  0
ARC
  5
A40A
  8
0
 10
4313.643864642128392
 20
180.8472940902387052
 30
0.0
 40
0.020309847890897
 50
236.6573143810497015
 51
255.4550043436055091
  0
ARC
  5
A40B
  8
0
 10
4313.8400659800508947
 20
180.935406884001992
 30
0.0
 40
0.2324688794915456
 50
196.5335764785347124
 51
206.8730881228997873
  0
ARC
  5
A40C
  8
0
 10
4313.387315946290073
 20
180.7884147785019877
 30
0.0
 40
0.2436911588755686
 50
19.3730899618205505
 51
42.0633898423173918
  0
ARC
  5
A40D
  8
0
 10
3096.6147225857530429
 20
-4168.6250174099168362
 30
0.0
 40
4516.4928932962830004
 50
74.3647680310199917
 51
74.3664718642742741
  0
ARC
  5
A40E
  8
0
 10
4313.9952290346936934
 20
180.716219941216707
 30
0.0
 40
0.0084735083548311
 50
203.6466846438021037
 51
258.8847972442890182
  0
ARC
  5
A40F
  8
0
 10
4319.1347245584847769
 20
182.0920684628567869
 30
0.0
 40
5.3288444615188304
 50
194.6302295824930866
 51
195.0004538582994087
  0
ARC
  5
A410
  8
0
 10
4313.9361724950313146
 20
180.7374959081647035
 30
0.0
 40
0.0433541176192752
 50
11.4597792846626501
 51
105.7523576119019992
  0
ARC
  5
A411
  8
0
 10
4313.9821431964710428
 20
180.6411744964474906
 30
0.0
 40
0.1496363154939382
 50
112.6978920897453946
 51
134.9574185490448883
  0
ARC
  5
A412
  8
0
 10
4313.8676487943394022
 20
180.7566771300257926
 30
0.0
 40
0.0130385165255547
 50
253.2843803924864119
 51
289.833707541662875
  0
ARC
  5
A413
  8
0
 10
4313.8621059054867146
 20
180.7656163457776017
 30
0.0
 40
0.0234298644912227
 50
295.1751224367399118
 51
307.6354540377188869
  0
ARC
  5
A414
  8
0
 10
4313.8074631799026974
 20
180.7755139803844884
 30
0.0
 40
0.0151262874314044
 50
197.923203137512786
 51
245.7530597525374958
  0
ARC
  5
A415
  8
0
 10
4313.3814727567187219
 20
180.6443568064931924
 30
0.0
 40
0.4305994584855218
 50
17.0844887405086716
 51
23.51974123087885
  0
ARC
  5
A416
  8
0
 10
4313.6207576790211533
 20
180.7494798298158116
 30
0.0
 40
0.1692451667570006
 50
23.2152468209861986
 51
63.1510294209103407
  0
ARC
  5
A417
  8
0
 10
4316.5291925434466975
 20
185.794702910213914
 30
0.0
 40
5.6545221466890583
 50
238.0017577000699873
 51
239.9445736604932904
  0
ARC
  5
A418
  8
0
 10
4313.4609930542892471
 20
180.8848440225326044
 30
0.0
 40
0.1351727455329275
 50
57.8620750097797227
 51
70.5495184162984685
  0
ARC
  5
A419
  8
0
 10
4313.5044050339092792
 20
181.0084475319590922
 30
0.0
 40
0.0041735343453771
 50
67.4654134407867758
 51
119.9268840491134966
  0
ARC
  5
A41A
  8
0
 10
4313.5035839044048771
 20
181.010830843196203
 30
0.0
 40
0.0017641666311233
 50
135.6266851291046862
 51
199.8502337980906987
  0
ARC
  5
A41B
  8
0
 10
4313.6029897829730544
 20
181.0792685653437104
 30
0.0
 40
0.1223938513075915
 50
214.3366398416627874
 51
232.6439549584179929
  0
ARC
  5
A41C
  8
0
 10
4314.2010626698347551
 20
181.8176183410521958
 30
0.0
 40
1.072533809140787
 50
231.1805596884898932
 51
233.8407112376279997
  0
ARC
  5
A41D
  8
0
 10
4313.7437078430912152
 20
180.8026630467581128
 30
0.0
 40
0.0240830079669296
 50
208.8622984533234046
 51
247.6725668935285967
  0
ARC
  5
A41E
  8
0
 10
4313.8514262633261751
 20
180.8622276942035967
 30
0.0
 40
0.1471732211929116
 50
200.2685246641511014
 51
208.9282147606556066
  0
ARC
  5
A41F
  8
0
 10
4313.7057793666654106
 20
180.8281602848277032
 30
0.0
 40
0.0185397639205484
 50
260.9602761711179255
 51
294.1554737685395935
  0
ARC
  5
A420
  8
0
 10
4313.7954908780839105
 20
180.6618901538957118
 30
0.0
 40
0.1704435932863093
 50
98.7910516121142877
 51
118.8049685065640944
  0
LINE
  5
A421
  8
0
 10
4314.1553319157201258
 20
180.6830806163696934
 30
0.0
 11
4314.0928537646786936
 21
180.7005658786098081
 31
0.0
  0
ARC
  5
A422
  8
0
 10
4314.0972053907817099
 20
180.7129290876594894
 30
0.0
 40
0.0131067001086329
 50
205.1509554629365937
 51
250.608853020842588
  0
ARC
  5
A423
  8
0
 10
4313.8890996328127585
 20
180.6507622986657964
 30
0.0
 40
0.2042399340965107
 50
16.0876361831553183
 51
30.5683969878325712
  0
ARC
  5
A424
  8
0
 10
4313.9214925418000348
 20
180.6577823759789965
 30
0.0
 40
0.1730932221765015
 50
34.0227713502540894
 51
70.5561882856168978
  0
ARC
  5
A425
  8
0
 10
4314.0571455807858001
 20
180.70586245345919
 30
0.0
 40
0.0157437211377891
 50
271.2601604339520236
 51
319.2274046991834098
  0
ARC
  5
A426
  8
0
 10
4314.2317456749069606
 20
180.5205824777467001
 30
0.0
 40
0.2389316461684888
 50
127.9366679345811946
 51
132.9103118819211033
  0
ARC
  5
A427
  8
0
 10
4313.9291409710140215
 20
180.7316530639448899
 30
0.0
 40
0.0520885460536762
 50
55.350057165356759
 51
117.121330528089203
  0
ARC
  5
A428
  8
0
 10
4314.9074806305643506
 20
178.7009910201502123
 30
0.0
 40
2.3061223909650681
 50
115.7555626842800933
 51
116.5445868971723939
  0
ARC
  5
A429
  8
0
 10
4313.8715480973432932
 20
180.7801033401453026
 30
0.0
 40
0.0169487431504267
 50
256.1150532116132013
 51
288.3650047306301758
  0
ARC
  5
A42A
  8
0
 10
4318.599114840942093
 20
197.7720486734004055
 30
0.0
 40
17.6542910027693694
 50
254.2357966546024102
 51
254.4537535195499913
  0
ARC
  5
A42B
  8
0
 10
4313.8065541286659936
 20
180.7917052159517084
 30
0.0
 40
0.0106136580038974
 50
197.9120437703464859
 51
249.3676610793964983
  0
ARC
  5
A42C
  8
0
 10
4313.4821291175858278
 20
180.7050729290307061
 30
0.0
 40
0.3251936796539413
 50
14.8544296918702603
 51
25.186925499744131
  0
ARC
  5
A42D
  8
0
 10
4313.7007697798344452
 20
180.8152970035262115
 30
0.0
 40
0.0807104036843805
 50
20.4273605782044001
 51
78.2942159923678389
  0
ARC
  5
A42E
  8
0
 10
4313.9873397001356352
 20
180.9083024115809053
 30
0.0
 40
0.0876854427447833
 50
242.2234978594823929
 51
264.6160386293618103
  0
ARC
  5
A42F
  8
0
 10
4312.8775838807378022
 20
179.215329297251202
 30
0.0
 40
1.937013266820085
 50
56.5076952224969631
 51
62.2133468182303488
  0
ARC
  5
A430
  8
0
 10
4313.6854033562212862
 20
180.7636131562553885
 30
0.0
 40
0.190805435946797
 50
60.0777249273339606
 51
87.2956920703971377
  0
ARC
  5
A431
  8
0
 10
4313.6945016438467064
 20
180.9407251511129004
 30
0.0
 40
0.0134812871811156
 50
90.4071153413805746
 51
198.6972574987501048
  0
ARC
  5
A432
  8
0
 10
4313.7808066329826033
 20
180.9838514156033966
 30
0.0
 40
0.1098504615652885
 50
205.5902320429981103
 51
234.5823847667477935
  0
ARC
  5
A433
  8
0
 10
4314.2563955128089219
 20
180.6430179158103044
 30
0.0
 40
0.008315878295897
 50
213.3133400881037005
 51
253.1207727775590115
  0
ARC
  5
A434
  8
0
 10
4313.9983477975938513
 20
180.5833963951697001
 30
0.0
 40
0.2570629004571203
 50
12.3666400290970895
 51
25.2854179716783598
  0
ARC
  5
A435
  8
0
 10
4314.2093043616432624
 20
180.6822750168259972
 30
0.0
 40
0.0240941867776309
 50
26.9507603195953891
 51
123.5492192325626064
  0
ARC
  5
A436
  8
0
 10
4314.4582515540651002
 20
180.2363967395307895
 30
0.0
 40
0.5346955205062514
 50
119.3728069693392939
 51
123.1324657267350062
  0
ARC
  5
A437
  8
0
 10
4314.1592924028827838
 20
180.6972455106553923
 30
0.0
 40
0.0147081504174929
 50
254.3790727143488084
 51
297.1301700786996207
  0
ARC
  5
A438
  8
0
 10
4314.3251252613608813
 20
180.8606349274112119
 30
0.0
 40
0.0245632579535026
 50
199.2311592453260971
 51
248.4266772548388928
  0
ARC
  5
A439
  8
0
 10
4314.3141006856285458
 20
180.8858145778764879
 30
0.0
 40
0.0249198803529452
 50
187.2971687561762906
 51
202.4916085553888934
  0
ARC
  5
A43A
  8
0
 10
4314.3326921607449549
 20
180.801048212926105
 30
0.0
 40
0.0778215626681973
 50
240.3640238748020863
 51
249.3659673004594026
  0
ARC
  5
A43B
  8
0
 10
4313.9796633876294436
 20
180.4154107824797961
 30
0.0
 40
0.4472821587208363
 50
45.3124219828047714
 51
73.2306220230295395
  0
ARC
  5
A43C
  8
0
 10
4314.054279540094285
 20
180.6785518052232078
 30
0.0
 40
0.1738609435013793
 50
71.7545835437965849
 51
112.4673628797424954
  0
ARC
  5
A43D
  8
0
 10
4314.0052680688067994
 20
180.8196693885122954
 30
0.0
 40
0.0261898787447313
 50
131.7246797038627051
 51
177.0794047478323989
  0
ARC
  5
A43E
  8
0
 10
4314.2785560245747547
 20
180.8851074804977088
 30
0.0
 40
0.015318464040772
 50
268.482767359098716
 51
324.8187727122850106
  0
ARC
  5
A43F
  8
0
 10
4317.6238235602531859
 20
177.4624183938823023
 30
0.0
 40
4.8616351655633387
 50
53.3477911966693483
 51
133.4071560881421021
  0
ARC
  5
A440
  8
0
 10
4320.5158407138842449
 20
181.3468960634621112
 30
0.0
 40
0.0188595572131909
 50
339.3162682974453901
 51
57.3821040900756572
  0
ARC
  5
A442
  8
0
 10
4321.4563546964736815
 20
182.1610483599482961
 30
0.0
 40
0.020000317641291
 50
177.5980629205045886
 51
269.9990508022452218
  0
ARC
  5
A443
  8
0
 10
4323.6067069965747578
 20
182.6184708938639005
 30
0.0
 40
0.021801686409565
 50
296.311546554739607
 51
0.696944802365751
  0
ARC
  5
A444
  8
0
 10
4322.2031953101150066
 20
182.6140681873256142
 30
0.0
 40
1.4253194036322041
 50
0.1876429681873747
 51
47.135087131764287
  0
ARC
  5
A445
  8
0
 10
4318.0169308329031992
 20
176.7715400128759882
 30
0.0
 40
8.603308931496306
 50
53.1809974146533406
 51
72.5430253811164647
  0
ARC
  5
A446
  8
0
 10
4294.7160714134952286
 20
116.5405804936739997
 30
0.0
 40
73.1684931673625556
 50
69.2844789329370201
 51
70.8082592078793738
  0
ARC
  5
A447
  8
0
 10
4318.7411107755669946
 20
185.5624798537079982
 30
0.0
 40
0.0848077913729935
 50
70.9527786581272011
 51
175.9161131418956927
  0
ARC
  5
A448
  8
0
 10
4310.962613621654782
 20
163.4095809592444084
 30
0.0
 40
23.0804205105591684
 50
64.4107606833287747
 51
70.3823380564972183
  0
ARC
  5
A449
  8
0
 10
4319.9629659695374357
 20
182.1742733314557086
 30
0.0
 40
2.2689245243004672
 50
47.5116788421808991
 51
64.7330572502726938
  0
ARC
  5
A44A
  8
0
 10
4321.2310891602119227
 20
183.5839466049125974
 30
0.0
 40
0.3732573354051651
 50
347.2080426711173118
 51
44.8987064689261999
  0
ARC
  5
A44B
  8
0
 10
4416.1352277868336387
 20
170.336132689926103
 30
0.0
 40
95.4524006974945252
 50
172.0722691131111048
 51
172.690854854096699
  0
ARC
  5
A44C
  8
0
 10
4327.5578167862076953
 20
181.8964429733464954
 30
0.0
 40
6.1271973341168131
 50
174.5360955885244891
 51
177.5170444392325066
  0
ARC
  5
A44D
  8
0
 10
4318.6007412447970637
 20
185.6152583047571909
 30
0.0
 40
0.4780337556791011
 50
283.4190346127854241
 51
306.1258894696646848
  0
ARC
  5
A44E
  8
0
 10
4318.5992255239616497
 20
185.399410661819104
 30
0.0
 40
0.3305711982392112
 50
328.9970204927006989
 51
5.843114873660701
  0
ARC
  5
A44F
  8
0
 10
4317.5119257829092021
 20
184.522039475384787
 30
0.0
 40
1.6838815212917579
 50
32.7535620213468803
 51
41.7198651029423075
  0
ARC
  5
A450
  8
0
 10
4301.9747792140105958
 20
137.300821664848911
 30
0.0
 40
51.0306493630152787
 50
68.5155772882796157
 51
70.5965458637973882
  0
ARC
  5
A451
  8
0
 10
4316.6920274529857124
 20
173.924087679861799
 30
0.0
 40
11.5653298125528394
 50
60.2935104179395012
 51
69.9100209445148124
  0
ARC
  5
A452
  8
0
 10
4321.5376985527664147
 20
182.4700474763110947
 30
0.0
 40
1.7414097666368371
 50
24.6357966110908393
 51
59.4321061980864727
  0
ARC
  5
A453
  8
0
 10
4321.1799728439673345
 20
182.421726876191201
 30
0.0
 40
2.0893660430800169
 50
1.2912925826545749
 51
21.7498523232423402
  0
ARC
  5
A454
  8
0
 10
4323.2469190349211203
 20
182.4656847275691973
 30
0.0
 40
0.0221114533919323
 50
303.9996361587827209
 51
8.1296181461560781
  0
LINE
  5
A455
  8
0
 10
4321.4429586624855801
 20
176.9829366250098133
 30
0.0
 11
4321.4429586624855801
 21
176.9435665462098086
 31
0.0
  0
LINE
  5
A456
  8
0
 10
4321.3445407853860161
 20
176.4717567037097865
 30
0.0
 11
4321.34328621586792
 21
176.399973663709801
 31
0.0
  0
LINE
  5
A457
  8
0
 10
4321.34328621586792
 20
176.399973663709801
 30
0.0
 11
4323.7320602430036161
 21
176.399973663709801
 31
0.0
  0
LINE
  5
A458
  8
0
 10
4323.7308056734873389
 20
176.4717567037097865
 30
0.0
 11
4321.3445407853860161
 21
176.4717567037097865
 31
0.0
  0
LINE
  5
A459
  8
0
 10
4321.4429586624855801
 20
176.9435665462098086
 30
0.0
 11
4323.6323877963859559
 21
176.9435665462098086
 31
0.0
  0
LINE
  5
A45A
  8
0
 10
4323.6323877963859559
 20
176.9829366250098133
 30
0.0
 11
4321.4429586624855801
 21
176.9829366250098133
 31
0.0
  0
ARC
  5
A45B
  8
0
 10
4319.091164988487435
 20
177.1410454044097946
 30
0.0
 40
2.3622047244000002
 50
344.1734458224955233
 51
354.3552856882985225
  0
ARC
  5
A45C
  8
0
 10
4321.4809807920446474
 20
176.9048971564129999
 30
0.0
 40
0.0392502038940365
 50
99.8689796354521064
 51
174.4400582811574054
  0
ARC
  5
A45D
  8
0
 10
4321.382757958239381
 20
176.4914391715516047
 30
0.0
 40
0.0196824681358034
 50
164.1635430250360912
 51
270.0099027983736732
  0
LINE
  5
A45E
  8
0
 10
4323.6323877963859559
 20
176.9829366250098133
 30
0.0
 11
4323.6323877963859559
 21
176.9435665462098086
 31
0.0
  0
LINE
  5
A45F
  8
0
 10
4323.7308056734873389
 20
176.4717567037097865
 30
0.0
 11
4323.7320602430036161
 21
176.399973663709801
 31
0.0
  0
ARC
  5
A460
  8
0
 10
4325.98418147038592
 20
177.1410454044097946
 30
0.0
 40
2.3622047244000002
 50
185.6447143117015059
 51
195.8265541775043914
  0
ARC
  5
A461
  8
0
 10
4323.5943656668259791
 20
176.9048971564129999
 30
0.0
 40
0.0392502038940365
 50
5.5599417188426177
 51
80.1310203645479078
  0
ARC
  5
A462
  8
0
 10
4323.692588500633974
 20
176.4914391715516047
 30
0.0
 40
0.0196824681358034
 50
269.9900972016263268
 51
15.8364569749639106
  0
ENDSEC
  0
EOF
