  0
SECTION
  2
HEADER
  9
$ACADVER
  1
AC1009
  9
$INSBASE
 10
4305.9856296554271466
 20
172.6361508637860993
 30
0.0
  9
$EXTMIN
 10
4304.7912906965229922
 20
163.2964708085393113
 30
0.0
  9
$EXTMAX
 10
4307.1799686143313011
 20
173.8304508637860977
 30
0.0
  9
$LIMMIN
 10
0.0
 20
0.0
  9
$LIMMAX
 10
11.6929133858000007
 20
8.2677165353999982
  9
$ORTHOMODE
 70
     1
  9
$REGENMODE
 70
     1
  9
$FILLMODE
 70
     1
  9
$QTEXTMODE
 70
     0
  9
$MIRRTEXT
 70
     0
  9
$DRAGMODE
 70
     2
  9
$LTSCALE
 40
0.6431102362
  9
$OSMODE
 70
  4095
  9
$ATTMODE
 70
     1
  9
$TEXTSIZE
 40
0.2
  9
$TRACEWID
 40
0.05
  9
$TEXTSTYLE
  7
STANDARD
  9
$CLAYER
  8
0
  9
$CELTYPE
  6
BYLAYER
  9
$CECOLOR
 62
   256
  9
$DIMSCALE
 40
1.0
  9
$DIMASZ
 40
0.1875
  9
$DIMEXO
 40
0.0625
  9
$DIMDLI
 40
0.4443307087
  9
$DIMRND
 40
0.0
  9
$DIMDLE
 40
0.0
  9
$DIMEXE
 40
0.125
  9
$DIMTP
 40
0.01
  9
$DIMTM
 40
0.01
  9
$DIMTXT
 40
2.0
  9
$DIMCEN
 40
0.1052362205
  9
$DIMTSZ
 40
0.0
  9
$DIMTOL
 70
     1
  9
$DIMLIM
 70
     0
  9
$DIMTIH
 70
     1
  9
$DIMTOH
 70
     1
  9
$DIMSE1
 70
     0
  9
$DIMSE2
 70
     0
  9
$DIMTAD
 70
     0
  9
$DIMZIN
 70
     0
  9
$DIMBLK
  1

  9
$DIMASO
 70
     1
  9
$DIMSHO
 70
     1
  9
$DIMPOST
  1
\X
  9
$DIMAPOST
  1

  9
$DIMALT
 70
     1
  9
$DIMALTD
 70
     2
  9
$DIMALTF
 40
25.3999999999999986
  9
$DIMLFAC
 40
1.0
  9
$DIMTOFL
 70
     0
  9
$DIMTVP
 40
0.0
  9
$DIMTIX
 70
     0
  9
$DIMSOXD
 70
     0
  9
$DIMSAH
 70
     0
  9
$DIMBLK1
  1

  9
$DIMBLK2
  1

  9
$DIMSTYLE
  2
STANDARD
  9
$DIMCLRD
 70
     0
  9
$DIMCLRE
 70
     0
  9
$DIMCLRT
 70
     0
  9
$DIMTFAC
 40
1.0
  9
$DIMGAP
 40
0.09
  9
$LUNITS
 70
     2
  9
$LUPREC
 70
     4
  9
$SKETCHINC
 40
0.1
  9
$FILLETRAD
 40
0.0
  9
$AUNITS
 70
     0
  9
$AUPREC
 70
     0
  9
$MENU
  1
.
  9
$ELEVATION
 40
0.0
  9
$PELEVATION
 40
0.0
  9
$THICKNESS
 40
0.0
  9
$LIMCHECK
 70
     0
  9
$BLIPMODE
 70
     0
  9
$CHAMFERA
 40
0.0
  9
$CHAMFERB
 40
0.0
  9
$SKPOLY
 70
     0
  9
$TDCREATE
 40
2458060.468368056230247
  9
$TDUPDATE
 40
2459123.4778703697957098
  9
$TDINDWG
 40
0.3245440972
  9
$TDUSRTIMER
 40
0.3245440972
  9
$USRTIMER
 70
     1
  9
$ANGBASE
 50
0.0
  9
$ANGDIR
 70
     0
  9
$PDMODE
 70
     0
  9
$PDSIZE
 40
0.3125
  9
$PLINEWID
 40
0.0
  9
$COORDS
 70
     1
  9
$SPLFRAME
 70
     0
  9
$SPLINETYPE
 70
     6
  9
$SPLINESEGS
 70
     8
  9
$ATTDIA
 70
     1
  9
$ATTREQ
 70
     1
  9
$HANDLING
 70
     1
  9
$HANDSEED
  5
9957
  9
$SURFTAB1
 70
     6
  9
$SURFTAB2
 70
     6
  9
$SURFTYPE
 70
     6
  9
$SURFU
 70
     6
  9
$SURFV
 70
     6
  9
$UCSNAME
  2

  9
$UCSORG
 10
0.0
 20
0.0
 30
0.0
  9
$UCSXDIR
 10
1.0
 20
0.0
 30
0.0
  9
$UCSYDIR
 10
0.0
 20
1.0
 30
0.0
  9
$PUCSNAME
  2

  9
$PUCSORG
 10
0.0
 20
0.0
 30
0.0
  9
$PUCSXDIR
 10
1.0
 20
0.0
 30
0.0
  9
$PUCSYDIR
 10
0.0
 20
1.0
 30
0.0
  9
$USERI1
 70
     0
  9
$USERI2
 70
     0
  9
$USERI3
 70
     0
  9
$USERI4
 70
     0
  9
$USERI5
 70
     0
  9
$USERR1
 40
0.0
  9
$USERR2
 40
0.0
  9
$USERR3
 40
0.0
  9
$USERR4
 40
0.0
  9
$USERR5
 40
0.0
  9
$WORLDVIEW
 70
     1
  9
$SHADEDGE
 70
     3
  9
$SHADEDIF
 70
    70
  9
$TILEMODE
 70
     1
  9
$MAXACTVP
 70
    64
  9
$PLIMCHECK
 70
     0
  9
$PEXTMIN
 10
1.0000000000000000E+20
 20
1.0000000000000000E+20
 30
1.0000000000000000E+20
  9
$PEXTMAX
 10
-1.0000000000000000E+20
 20
-1.0000000000000000E+20
 30
-1.0000000000000000E+20
  9
$PLIMMIN
 10
0.0
 20
0.0
  9
$PLIMMAX
 10
12.0
 20
9.0
  9
$UNITMODE
 70
     0
  9
$VISRETAIN
 70
     1
  9
$PLINEGEN
 70
     0
  9
$PSLTSCALE
 70
     1
  0
ENDSEC
  0
SECTION
  2
TABLES
  0
TABLE
  2
VPORT
 70
     1
  0
VPORT
  2
*ACTIVE
 70
     0
 10
0.0
 20
0.0
 11
1.0
 21
1.0
 12
0.0
 22
0.0
 13
0.0
 23
0.0
 14
1.0
 24
1.0
 15
0.0
 25
0.0
 16
0.0
 26
0.0
 36
30.6055084813352316
 17
4305.9858398437490905
 27
168.5634613037109091
 37
0.0
 40
10.8046951268252993
 41
2.1186252771618621
 42
50.0
 43
0.0
 44
0.0
 50
0.0
 51
0.0
 71
     0
 72
   100
 73
     1
 74
     1
 75
     0
 76
     0
 77
     0
 78
     0
  0
ENDTAB
  0
TABLE
  2
LTYPE
 70
     2
  0
LTYPE
  2
CONTINUOUS
 70
     0
  3
Solid line
 72
    65
 73
     0
 40
0.0
  0
LTYPE
  2
PHANTOM2
 70
     0
  3
___ _ _ ___ _ _ ___ _ _ ___ _ _
 72
    65
 73
     6
 40
1.25
 49
0.625
 49
-0.125
 49
0.125
 49
-0.125
 49
0.125
 49
-0.125
  0
ENDTAB
  0
TABLE
  2
LAYER
 70
     2
  0
LAYER
  2
0
 70
     0
 62
   255
  6
CONTINUOUS
  0
LAYER
  2
DEFPOINTS
 70
     0
 62
     7
  6
CONTINUOUS
  0
ENDTAB
  0
TABLE
  2
STYLE
 70
     1
  0
STYLE
  2
STANDARD
 70
     0
 40
0.0
 41
0.8
 50
0.0
 71
     0
 42
0.2
  3
txt
  4

  0
ENDTAB
  0
TABLE
  2
VIEW
 70
     0
  0
ENDTAB
  0
TABLE
  2
UCS
 70
     0
  0
ENDTAB
  0
TABLE
  2
APPID
 70
     9
  0
APPID
  2
ACAD
 70
     0
  0
APPID
  2
ACAD_MLEADERVER
 70
     0
  0
APPID
  2
ACAD_EXEMPT_FROM_CAD_STANDARDS
 70
     0
  0
APPID
  2
ACAD_NAV_VCDISPLAY
 70
     0
  0
APPID
  2
ACAECLAYERSTANDARD
 70
     0
  0
APPID
  2
ACCMTRANSPARENCY
 70
     0
  0
APPID
  2
ACAD_DSTYLE_DIMJAG
 70
     0
  0
APPID
  2
ACAD_DSTYLE_DIMTALN
 70
     0
  0
APPID
  2
ACDBATTR
 70
     0
  0
ENDTAB
  0
TABLE
  2
DIMSTYLE
 70
     1
  0
DIMSTYLE
  2
STANDARD
 70
     0
  3

  4

  5

  6

  7

 40
1.0
 41
0.1875
 42
0.0625
 43
0.38
 44
0.125
 45
0.0
 46
0.0
 47
0.01
 48
0.01
140
0.15625
141
0.09
142
0.0
143
25.3999999999999986
144
1.0
145
0.0
146
1.0
147
0.09
 71
     1
 72
     0
 73
     1
 74
     1
 75
     0
 76
     0
 77
     0
 78
     4
170
     0
171
     2
172
     0
173
     0
174
     0
175
     0
176
     0
177
     0
178
     0
  0
ENDTAB
  0
ENDSEC
  0
SECTION
  2
BLOCKS
  0
BLOCK
  8
0
  2
$MODEL_SPACE
 70
     0
 10
0.0
 20
0.0
 30
0.0
  3
$MODEL_SPACE
  1

  0
ENDBLK
  5
21
  8
0
  0
BLOCK
 67
     1
  8
0
  2
$PAPER_SPACE
 70
     0
 10
0.0
 20
0.0
 30
0.0
  3
$PAPER_SPACE
  1

  0
ENDBLK
  5
1D
 67
     1
  8
0
  0
ENDSEC
  0
SECTION
  2
ENTITIES
  0
ATTDEF
  5
3930
  8
DEFPOINTS
 10
4305.9826623018016107
 20
172.640189923842712
 30
0.0
 40
0.001
  1
24273
  3

  2
MODELNUMBER
 70
     0
1001
ACDBATTR
1070
     0
1070
     1
  0
ATTDEF
  5
3931
  8
DEFPOINTS
 10
4305.9826623018016107
 20
172.6385232571761037
 30
0.0
 40
0.001
  1
LUDINGTON
  3

  2
TRADENAME
 70
     0
1001
ACDBATTR
1070
     0
1070
     1
  0
ATTDEF
  5
3932
  8
DEFPOINTS
 10
4305.9826623018016107
 20
172.6368565905094101
 30
0.0
 40
0.001
  1
KITCHEN SINK FAUCET
  3

  2
PRODUCT
 70
     0
1001
ACDBATTR
1070
     0
1070
     1
  0
LINE
  5
9872
  8
0
 10
4304.8725727094761169
 20
173.1846705300860947
 30
0.0
 11
4304.8727271319776264
 21
173.2095274162861074
 31
0.0
  0
LINE
  5
9873
  8
0
 10
4305.9534583997774462
 20
173.415948537886095
 30
0.0
 11
4305.9534583997774462
 21
173.2670736707167976
 31
0.0
  0
ARC
  5
9874
  8
0
 10
4306.0191250711577595
 20
171.8831997658980129
 30
0.0
 40
1.8271677680564149
 50
121.6736786686900018
 51
125.629478735297397
  0
ARC
  5
9875
  8
0
 10
4306.0021815127438458
 20
172.5945264975948987
 30
0.0
 40
1.236035194857197
 50
90.7672758161527753
 51
132.6839263281401031
  0
ARC
  5
9876
  8
0
 10
4306.0195072600981803
 20
172.5420833166496095
 30
0.0
 40
1.269031306922332
 50
91.5297293147139612
 51
128.115552629323787
  0
ARC
  5
9877
  8
0
 10
4306.0163180054942131
 20
172.442901074559586
 30
0.0
 40
1.2892876340647019
 50
91.3639152096070006
 51
106.6905493612127032
  0
ARC
  5
9878
  8
0
 10
4306.0246623919038029
 20
172.2699024058497912
 30
0.0
 40
1.4493669655379311
 50
91.543212684558469
 51
100.6233676005425934
  0
ARC
  5
9879
  8
0
 10
4305.9856296553771244
 20
172.6360654420861067
 30
0.0
 40
0.7805463681
 50
92.3621908075029836
 51
237.0693963803497013
  0
ARC
  5
987A
  8
0
 10
4305.9856296553771244
 20
172.6360654420861067
 30
0.0
 40
0.6318278043
 50
89.9999999954664105
 51
222.9833262839908912
  0
ARC
  5
987B
  8
0
 10
4305.9856296553771244
 20
172.6360654420861067
 30
0.0
 40
0.3527793668
 50
89.9999999918707942
 51
270.0000000081291773
  0
ARC
  5
987C
  8
0
 10
4305.9446646821306786
 20
171.132236833835691
 30
0.0
 40
2.5690200183101561
 50
89.0863366037368252
 51
94.1786643076308252
  0
ARC
  5
987D
  8
0
 10
4305.9543676359971869
 20
171.9858730976418997
 30
0.0
 40
1.7198627045749719
 50
96.5739475607257987
 51
100.3278013901098973
  0
ARC
  5
987E
  8
0
 10
4305.9625447734269983
 20
172.0533764424629908
 30
0.0
 40
1.6550416576793709
 50
101.0252733328197934
 51
118.8401141969909958
  0
ARC
  5
987F
  8
0
 10
4305.5587879900076587
 20
172.7515562964576077
 30
0.0
 40
0.8488668817621254
 50
117.6993756834285989
 51
126.010186289492097
  0
ARC
  5
9880
  8
0
 10
4305.0951770560195655
 20
173.1952300266393081
 30
0.0
 40
0.222908914262009
 50
129.056721124171986
 51
176.3225212097669043
  0
ARC
  5
9881
  8
0
 10
4305.3357795447100216
 20
173.0386141033615957
 30
0.0
 40
0.4856882250928622
 50
124.6387118674482934
 51
162.4991142699691977
  0
ARC
  5
9882
  8
0
 10
4308.6732990342852645
 20
172.3353503399744966
 30
0.0
 40
3.8944659943857438
 50
167.403486037957606
 51
175.4159675113205878
  0
ARC
  5
9883
  8
0
 10
4306.0147502020836328
 20
172.6591130170976101
 30
0.0
 40
1.2235234879000021
 50
180.5859538614739961
 51
215.250519551213813
  0
ARC
  5
9884
  8
0
 10
4290.0419954639082789
 20
168.031702935176213
 30
0.0
 40
15.4785119635436992
 50
10.6947583042635905
 51
14.8850065331630894
  0
ARC
  5
9885
  8
0
 10
4276.5349934627192852
 20
168.9936187337034141
 30
0.0
 40
28.8058136827353906
 50
357.8285083083994209
 51
3.149572704314449
  0
ARC
  5
9886
  8
0
 10
4290.9593724302658302
 20
168.1922864419817927
 30
0.0
 40
14.3636796598458503
 50
344.9514271681142077
 51
358.8425818310391264
  0
ARC
  5
9887
  8
0
 10
4304.9868473662718316
 20
164.4355348429672006
 30
0.0
 40
0.1587641430311628
 50
170.0630228945994986
 51
190.8694413937525098
  0
ARC
  5
9888
  8
0
 10
4306.3311130978318033
 20
164.7241398910501005
 30
0.0
 40
1.533627934134113
 50
191.9879421087213132
 51
229.340790920778602
  0
ARC
  5
9889
  8
0
 10
4306.0314196054978311
 20
164.3505678582882865
 30
0.0
 40
1.055091138156905
 50
228.4687946763528998
 51
267.5126365298921769
  0
ARC
  5
988A
  8
0
 10
4305.4160361309450309
 20
172.1097548732703899
 30
0.0
 40
0.1437287510232423
 50
0.0029511253128064
 51
41.6609327564927483
  0
ARC
  5
988B
  8
0
 10
4307.3102685940912124
 20
172.0662877850589041
 30
0.0
 40
1.751043482673353
 50
178.5773278243499931
 51
196.474716928049105
  0
ARC
  5
988C
  8
0
 10
4303.6146497617710338
 20
170.9725371301776136
 30
0.0
 40
2.103030930075378
 50
10.6897519677006994
 51
16.4964567125580786
  0
ARC
  5
988D
  8
0
 10
4304.7181022536224191
 20
171.2949938307831133
 30
0.0
 40
0.9654545116007716
 50
356.2113742708027075
 51
4.0172295474671422
  0
ARC
  5
988E
  8
0
 10
4305.5929055870292359
 20
171.2566082561158112
 30
0.0
 40
0.0921146312170748
 50
301.6510956763344211
 51
343.9887486283232079
  0
ARC
  5
988F
  8
0
 10
4305.7670590951920531
 20
171.0122359725943113
 30
0.0
 40
0.2082599428388437
 50
127.1665094634965953
 51
156.3800450649461879
  0
ARC
  5
9890
  8
0
 10
4306.2823203014950195
 20
170.8958033231820082
 30
0.0
 40
0.7338191506654798
 50
164.1942128755524095
 51
178.2926582831478015
  0
ARC
  5
9891
  8
0
 10
5070.0568495915049425
 20
149.8273727871363974
 30
0.0
 40
764.7988737069133549
 50
178.4197962470207983
 51
178.5516139632148906
  0
ARC
  5
9892
  8
0
 10
4306.488760516424918
 20
169.1839572423934044
 30
0.0
 40
0.9867538747209778
 50
181.4641114357519882
 51
195.635686914965703
  0
ARC
  5
9893
  8
0
 10
4305.8696226627216674
 20
169.0834410312149885
 30
0.0
 40
0.370129876335996
 50
206.5488291695698138
 51
255.790640327621901
  0
ARC
  5
9894
  8
0
 10
4306.026295659353309
 20
169.6884481083388891
 30
0.0
 40
0.9950904864339742
 50
255.5965364706175933
 51
267.6578618123580213
  0
ARC
  5
9895
  8
0
 10
4311.1256846238011349
 20
170.2484352706258903
 30
0.0
 40
6.0532823957010908
 50
149.0485420145516002
 51
150.1879733882425967
  0
ARC
  5
9896
  8
0
 10
4305.8293870516399693
 20
173.4291353543976868
 30
0.0
 40
0.1247701549243745
 50
327.2888883199798897
 51
353.9331433165318117
  0
ARC
  5
9897
  8
0
 10
4304.703721156559368
 20
171.0505201092456957
 30
0.0
 40
0.9461747889253587
 50
356.2520154735260007
 51
7.755021035971339
  0
ARC
  5
9898
  8
0
 10
4401.4952086566527214
 20
169.4458744170653119
 30
0.0
 40
95.8597522876072361
 50
179.077824422080198
 51
180.0698180114085005
  0
ARC
  5
9899
  8
0
 10
4305.9304007564242056
 20
169.329233447635886
 30
0.0
 40
0.2948732661505635
 50
180.0328966969377973
 51
242.2582116330484894
  0
ARC
  5
989A
  8
0
 10
4306.0186024435470244
 20
169.6323247435086046
 30
0.0
 40
0.6074603416854022
 50
248.2131722078646021
 51
266.888470917834411
  0
ARC
  5
989B
  8
0
 10
4305.3749550393604295
 20
170.5726897318895965
 30
0.0
 40
0.0777422248294618
 50
130.0393460404739017
 51
177.3464926894432949
  0
ARC
  5
989C
  8
0
 10
4305.9761765148159611
 20
169.8808343462877986
 30
0.0
 40
0.9943190255215432
 50
115.7017750272116956
 51
130.9162289051479036
  0
ARC
  5
989D
  8
0
 10
4299.9833174393279478
 20
169.9531697114636017
 30
0.0
 40
5.3534678599715431
 50
6.8194743150652002
 51
10.2322687001325807
  0
ARC
  5
989E
  8
0
 10
4306.18393367436056
 20
172.7450746682609122
 30
0.0
 40
1.3937852468370819
 50
184.0481770319136956
 51
211.9350443728461926
  0
ARC
  5
989F
  8
0
 10
4305.8518663609120267
 20
172.5591891096115944
 30
0.0
 40
1.0138093206544989
 50
212.9466101950027905
 51
257.4233682258519025
  0
ARC
  5
98A0
  8
0
 10
4312.860742443662275
 20
171.9212475307190005
 30
0.0
 40
8.099668035781546
 50
172.9379329686495055
 51
174.8615188191083973
  0
LINE
  5
98A1
  8
0
 10
4307.0986866013772669
 20
173.1846705300860947
 30
0.0
 11
4307.0985321788766669
 21
173.2095274162861074
 31
0.0
  0
LINE
  5
98A2
  8
0
 10
4306.0178009110768471
 20
173.415948537886095
 30
0.0
 11
4306.0178009110768471
 21
173.2670736707167976
 31
0.0
  0
ARC
  5
98A3
  8
0
 10
4305.9521342396947148
 20
171.8831997658980129
 30
0.0
 40
1.8271677680564149
 50
54.3705212647025888
 51
58.32632133130992
  0
ARC
  5
98A4
  8
0
 10
4305.9690777981086285
 20
172.5945264975948987
 30
0.0
 40
1.236035194857197
 50
47.3160736718598471
 51
89.2327241838472247
  0
ARC
  5
98A5
  8
0
 10
4305.9517520507552035
 20
172.5420833166496095
 30
0.0
 40
1.269031306922332
 50
51.8844473706762273
 51
88.4702706852860246
  0
ARC
  5
98A6
  8
0
 10
4305.9549413053600802
 20
172.442901074559586
 30
0.0
 40
1.2892876340647019
 50
73.3094506387872684
 51
88.6360847903929852
  0
ARC
  5
98A7
  8
0
 10
4305.9465969189523094
 20
172.2699024058497912
 30
0.0
 40
1.4493669655379311
 50
79.3766323994574066
 51
88.4567873154415452
  0
ARC
  5
98A8
  8
0
 10
4305.9856296554762594
 20
172.6360654420861067
 30
0.0
 40
0.7805463681
 50
302.9306036196502987
 51
87.6378091924970164
  0
ARC
  5
98A9
  8
0
 10
4305.9856296554762594
 20
172.6360654420861067
 30
0.0
 40
0.6318278043
 50
317.0166737160091088
 51
90.0000000045336037
  0
ARC
  5
98AA
  8
0
 10
4305.9856296554762594
 20
172.6360654420861067
 30
0.0
 40
0.3527793668
 50
269.9999999918708227
 51
90.0000000081291915
  0
ARC
  5
98AB
  8
0
 10
4306.0265946287236147
 20
171.132236833835691
 30
0.0
 40
2.5690200183101561
 50
85.8213356923691748
 51
90.9136633962631748
  0
ARC
  5
98AC
  8
0
 10
4306.0168916748580159
 20
171.9858730976418997
 30
0.0
 40
1.7198627045749719
 50
79.6721986098900601
 51
83.4260524392741871
  0
ARC
  5
98AD
  8
0
 10
4306.008714537427295
 20
172.0533764424629908
 30
0.0
 40
1.6550416576793709
 50
61.1598858030089616
 51
78.9747266671801498
  0
ARC
  5
98AE
  8
0
 10
4306.4124713208457251
 20
172.7515562964576077
 30
0.0
 40
0.8488668817621254
 50
53.9898137105078604
 51
62.3006243165714224
  0
ARC
  5
98AF
  8
0
 10
4306.8760822548329088
 20
173.1952300266393081
 30
0.0
 40
0.222908914262009
 50
3.6774787902331001
 51
50.9432788758279997
  0
ARC
  5
98B0
  8
0
 10
4306.6354797661451812
 20
173.0386141033615957
 30
0.0
 40
0.4856882250928622
 50
17.5008857300307703
 51
55.3612881325516994
  0
ARC
  5
98B1
  8
0
 10
4303.2979602765690288
 20
172.3353503399744966
 30
0.0
 40
3.8944659943857438
 50
4.5840324886793793
 51
12.5965139620424296
  0
ARC
  5
98B2
  8
0
 10
4305.956509108769751
 20
172.6591130170976101
 30
0.0
 40
1.2235234879000021
 50
324.7494804487863007
 51
359.4140461385259755
  0
ARC
  5
98B3
  8
0
 10
4321.9292638469460144
 20
168.031702935176213
 30
0.0
 40
15.4785119635436992
 50
165.1149934668368928
 51
169.305241695736413
  0
ARC
  5
98B4
  8
0
 10
4335.4362658481350081
 20
168.9936187337034141
 30
0.0
 40
28.8058136827353906
 50
176.8504272956855061
 51
182.1714916916006075
  0
ARC
  5
98B5
  8
0
 10
4321.0118868805875536
 20
168.1922864419817927
 30
0.0
 40
14.3636796598458503
 50
181.157418168960902
 51
195.0485728318857923
  0
ARC
  5
98B6
  8
0
 10
4306.9844119445815522
 20
164.4355348429672006
 30
0.0
 40
0.1587641430311628
 50
349.1305586062475186
 51
9.9369771054004765
  0
ARC
  5
98B7
  8
0
 10
4305.6401462130215805
 20
164.7241398910501005
 30
0.0
 40
1.533627934134113
 50
310.6592090792212844
 51
348.0120578912786868
  0
ARC
  5
98B8
  8
0
 10
4305.9398397053555527
 20
164.3505678582884002
 30
0.0
 40
1.055091138156931
 50
272.4873634701078231
 51
311.5312053236471002
  0
ARC
  5
98B9
  8
0
 10
4306.5552231799101719
 20
172.1097548732703899
 30
0.0
 40
0.1437287510232423
 50
138.339067243507202
 51
179.9970488746872093
  0
ARC
  5
98BA
  8
0
 10
4304.6609907167630809
 20
172.0662877850589041
 30
0.0
 40
1.751043482673353
 50
343.5252830719509234
 51
1.422672175649925
  0
ARC
  5
98BB
  8
0
 10
4308.35660954908235
 20
170.9725371301776136
 30
0.0
 40
2.103030930075378
 50
163.5035432874418859
 51
169.3102480322993131
  0
ARC
  5
98BC
  8
0
 10
4307.2531570572309647
 20
171.2949938307831133
 30
0.0
 40
0.9654545116007716
 50
175.982770452533714
 51
183.7886257291964114
  0
ARC
  5
98BD
  8
0
 10
4306.3783537238250574
 20
171.2566082561158112
 30
0.0
 40
0.0921146312170748
 50
196.0112513716767921
 51
238.3489043236656073
  0
ARC
  5
98BE
  8
0
 10
4306.2042002156622402
 20
171.0122359725943113
 30
0.0
 40
0.2082599428388437
 50
23.6199549350537907
 51
52.8334905365034331
  0
ARC
  5
98BF
  8
0
 10
4305.6889390093592738
 20
170.8958033231820082
 30
0.0
 40
0.7338191506654798
 50
1.7073417168521821
 51
15.8057871244475603
  0
ARC
  5
98C0
  8
0
 10
3541.9144097193498055
 20
149.8273727871363974
 30
0.0
 40
764.7988737069133549
 50
1.4483860367850501
 51
1.5802037529791979
  0
ARC
  5
98C1
  8
0
 10
4305.4824987944293753
 20
169.1839572423934044
 30
0.0
 40
0.9867538747209778
 50
344.3643130850342118
 51
358.5358885642478981
  0
ARC
  5
98C2
  8
0
 10
4306.1016366481317164
 20
169.0834410312149885
 30
0.0
 40
0.370129876335996
 50
284.2093596723780138
 51
333.4511708304303284
  0
ARC
  5
98C3
  8
0
 10
4305.9449636515009843
 20
169.6884481083397134
 30
0.0
 40
0.9950904864346998
 50
272.3421381876419787
 51
284.4034635293818951
  0
ARC
  5
98C4
  8
0
 10
4300.8455746870531584
 20
170.2484352706258903
 30
0.0
 40
6.0532823957010908
 50
29.8120266117566501
 51
30.9514579854484495
  0
ARC
  5
98C5
  8
0
 10
4306.141872259214324
 20
173.4291353543976868
 30
0.0
 40
0.1247701549243745
 50
186.0668566834681883
 51
212.7111116800199966
  0
ARC
  5
98C6
  8
0
 10
4307.2675381542940158
 20
171.0505201092456957
 30
0.0
 40
0.9461747889253587
 50
172.2449789640286042
 51
183.7479845264730898
  0
ARC
  5
98C7
  8
0
 10
4210.4760506542006624
 20
169.4458744170653119
 30
0.0
 40
95.8597522876072361
 50
359.9301819885906184
 51
0.9221755779197371
  0
ARC
  5
98C8
  8
0
 10
4306.0408585544300877
 20
169.329233447635886
 30
0.0
 40
0.2948732661505635
 50
297.7417883669514822
 51
359.9671033030613216
  0
ARC
  5
98C9
  8
0
 10
4305.9526568673072688
 20
169.6323247435090025
 30
0.0
 40
0.6074603416857882
 50
273.111529082165589
 51
291.7868277921343747
  0
ARC
  5
98CA
  8
0
 10
4306.5963042714929543
 20
170.5726897318895965
 30
0.0
 40
0.0777422248294618
 50
2.653507310557532
 51
49.960653959526077
  0
ARC
  5
98CB
  8
0
 10
4305.9950827960383322
 20
169.8808343462877986
 30
0.0
 40
0.9943190255215432
 50
49.0837710948520893
 51
64.2982249727883044
  0
ARC
  5
98CC
  8
0
 10
4311.9879418715263455
 20
169.9531697114636017
 30
0.0
 40
5.3534678599715431
 50
169.7677312998673926
 51
173.1805256849347927
  0
ARC
  5
98CD
  8
0
 10
4305.7873256364928238
 20
172.7450746682609122
 30
0.0
 40
1.3937852468370819
 50
328.064955627153779
 51
355.9518229680854802
  0
ARC
  5
98CE
  8
0
 10
4306.1193929499422666
 20
172.5591891096115944
 30
0.0
 40
1.0138093206544989
 50
282.5766317741480975
 51
327.0533898049972095
  0
ARC
  5
98CF
  8
0
 10
4299.1105168671920183
 20
171.9212475307190005
 30
0.0
 40
8.099668035781546
 50
5.1384811808916249
 51
7.0620670313505016
  0
ENDSEC
  0
EOF
