  0
SECTION
  2
HEADER
  9
$ACADVER
  1
AC1009
  9
$INSBASE
 10
3910.6249300026620404
 20
121.8602750665251051
 30
0.0
  9
$EXTMIN
 10
3900.580040713211929
 20
121.854862285719193
 30
0.0
  9
$EXTMAX
 10
3920.6698206233118071
 20
122.5672750665250987
 30
0.0
  9
$LIMMIN
 10
0.0
 20
0.0
  9
$LIMMAX
 10
11.6929133858000007
 20
8.2677165353999982
  9
$ORTHOMODE
 70
     1
  9
$REGENMODE
 70
     1
  9
$FILLMODE
 70
     1
  9
$QTEXTMODE
 70
     0
  9
$MIRRTEXT
 70
     0
  9
$DRAGMODE
 70
     2
  9
$LTSCALE
 40
0.6431102362
  9
$OSMODE
 70
  4095
  9
$ATTMODE
 70
     1
  9
$TEXTSIZE
 40
0.2
  9
$TRACEWID
 40
0.05
  9
$TEXTSTYLE
  7
STANDARD
  9
$CLAYER
  8
0
  9
$CELTYPE
  6
BYLAYER
  9
$CECOLOR
 62
   256
  9
$DIMSCALE
 40
1.0
  9
$DIMASZ
 40
0.1875
  9
$DIMEXO
 40
0.0625
  9
$DIMDLI
 40
0.4443307087
  9
$DIMRND
 40
0.0
  9
$DIMDLE
 40
0.0
  9
$DIMEXE
 40
0.125
  9
$DIMTP
 40
0.01
  9
$DIMTM
 40
0.01
  9
$DIMTXT
 40
2.0
  9
$DIMCEN
 40
0.1052362205
  9
$DIMTSZ
 40
0.0
  9
$DIMTOL
 70
     1
  9
$DIMLIM
 70
     0
  9
$DIMTIH
 70
     1
  9
$DIMTOH
 70
     1
  9
$DIMSE1
 70
     0
  9
$DIMSE2
 70
     0
  9
$DIMTAD
 70
     0
  9
$DIMZIN
 70
     0
  9
$DIMBLK
  1

  9
$DIMASO
 70
     1
  9
$DIMSHO
 70
     1
  9
$DIMPOST
  1
\X
  9
$DIMAPOST
  1

  9
$DIMALT
 70
     1
  9
$DIMALTD
 70
     2
  9
$DIMALTF
 40
25.3999999999999986
  9
$DIMLFAC
 40
1.0
  9
$DIMTOFL
 70
     0
  9
$DIMTVP
 40
0.0
  9
$DIMTIX
 70
     0
  9
$DIMSOXD
 70
     0
  9
$DIMSAH
 70
     0
  9
$DIMBLK1
  1

  9
$DIMBLK2
  1

  9
$DIMSTYLE
  2
STANDARD
  9
$DIMCLRD
 70
     0
  9
$DIMCLRE
 70
     0
  9
$DIMCLRT
 70
     0
  9
$DIMTFAC
 40
1.0
  9
$DIMGAP
 40
0.09
  9
$LUNITS
 70
     2
  9
$LUPREC
 70
     4
  9
$SKETCHINC
 40
0.1
  9
$FILLETRAD
 40
0.0
  9
$AUNITS
 70
     0
  9
$AUPREC
 70
     0
  9
$MENU
  1
.
  9
$ELEVATION
 40
0.0
  9
$PELEVATION
 40
0.0
  9
$THICKNESS
 40
0.0
  9
$LIMCHECK
 70
     0
  9
$BLIPMODE
 70
     0
  9
$CHAMFERA
 40
0.0
  9
$CHAMFERB
 40
0.0
  9
$SKPOLY
 70
     0
  9
$TDCREATE
 40
2458060.468368056230247
  9
$TDUPDATE
 40
2458914.2891782410442829
  9
$TDINDWG
 40
0.3067894676
  9
$TDUSRTIMER
 40
0.3067894676
  9
$USRTIMER
 70
     1
  9
$ANGBASE
 50
0.0
  9
$ANGDIR
 70
     0
  9
$PDMODE
 70
     0
  9
$PDSIZE
 40
0.3125
  9
$PLINEWID
 40
0.0
  9
$COORDS
 70
     1
  9
$SPLFRAME
 70
     0
  9
$SPLINETYPE
 70
     6
  9
$SPLINESEGS
 70
     8
  9
$ATTDIA
 70
     1
  9
$ATTREQ
 70
     1
  9
$HANDLING
 70
     1
  9
$HANDSEED
  5
6D2D
  9
$SURFTAB1
 70
     6
  9
$SURFTAB2
 70
     6
  9
$SURFTYPE
 70
     6
  9
$SURFU
 70
     6
  9
$SURFV
 70
     6
  9
$UCSNAME
  2

  9
$UCSORG
 10
0.0
 20
0.0
 30
0.0
  9
$UCSXDIR
 10
1.0
 20
0.0
 30
0.0
  9
$UCSYDIR
 10
0.0
 20
1.0
 30
0.0
  9
$PUCSNAME
  2

  9
$PUCSORG
 10
0.0
 20
0.0
 30
0.0
  9
$PUCSXDIR
 10
1.0
 20
0.0
 30
0.0
  9
$PUCSYDIR
 10
0.0
 20
1.0
 30
0.0
  9
$USERI1
 70
     0
  9
$USERI2
 70
     0
  9
$USERI3
 70
     0
  9
$USERI4
 70
     0
  9
$USERI5
 70
     0
  9
$USERR1
 40
0.0
  9
$USERR2
 40
0.0
  9
$USERR3
 40
0.0
  9
$USERR4
 40
0.0
  9
$USERR5
 40
0.0
  9
$WORLDVIEW
 70
     1
  9
$SHADEDGE
 70
     3
  9
$SHADEDIF
 70
    70
  9
$TILEMODE
 70
     1
  9
$MAXACTVP
 70
    64
  9
$PLIMCHECK
 70
     0
  9
$PEXTMIN
 10
1.0000000000000000E+20
 20
1.0000000000000000E+20
 30
1.0000000000000000E+20
  9
$PEXTMAX
 10
-1.0000000000000000E+20
 20
-1.0000000000000000E+20
 30
-1.0000000000000000E+20
  9
$PLIMMIN
 10
0.0
 20
0.0
  9
$PLIMMAX
 10
12.0
 20
9.0
  9
$UNITMODE
 70
     0
  9
$VISRETAIN
 70
     1
  9
$PLINEGEN
 70
     0
  9
$PSLTSCALE
 70
     1
  0
ENDSEC
  0
SECTION
  2
TABLES
  0
TABLE
  2
VPORT
 70
     1
  0
VPORT
  2
*ACTIVE
 70
     0
 10
0.0
 20
0.0
 11
1.0
 21
1.0
 12
0.0
 22
0.0
 13
0.0
 23
0.0
 14
1.0
 24
1.0
 15
0.0
 25
0.0
 16
0.0
 26
0.0
 36
57.4870125652386506
 17
3910.625
 27
122.2110691433478991
 37
0.0
 40
20.1035147725404499
 41
2.1433408577878099
 42
50.0
 43
0.0
 44
0.0
 50
0.0
 51
0.0
 71
     0
 72
   100
 73
     1
 74
     1
 75
     0
 76
     0
 77
     0
 78
     0
  0
ENDTAB
  0
TABLE
  2
LTYPE
 70
     2
  0
LTYPE
  2
CONTINUOUS
 70
     0
  3
Solid line
 72
    65
 73
     0
 40
0.0
  0
LTYPE
  2
PHANTOM2
 70
     0
  3
___ _ _ ___ _ _ ___ _ _ ___ _ _
 72
    65
 73
     6
 40
1.25
 49
0.625
 49
-0.125
 49
0.125
 49
-0.125
 49
0.125
 49
-0.125
  0
ENDTAB
  0
TABLE
  2
LAYER
 70
     2
  0
LAYER
  2
0
 70
     0
 62
   255
  6
CONTINUOUS
  0
LAYER
  2
DEFPOINTS
 70
     0
 62
     7
  6
CONTINUOUS
  0
ENDTAB
  0
TABLE
  2
STYLE
 70
     1
  0
STYLE
  2
STANDARD
 70
     0
 40
0.0
 41
0.8
 50
0.0
 71
     0
 42
0.2
  3
txt
  4

  0
ENDTAB
  0
TABLE
  2
VIEW
 70
     0
  0
ENDTAB
  0
TABLE
  2
UCS
 70
     0
  0
ENDTAB
  0
TABLE
  2
APPID
 70
    10
  0
APPID
  2
ACAD
 70
     0
  0
APPID
  2
ACAD_MLEADERVER
 70
     0
  0
APPID
  2
ACAD_EXEMPT_FROM_CAD_STANDARDS
 70
     0
  0
APPID
  2
ACAD_NAV_VCDISPLAY
 70
     0
  0
APPID
  2
ACAECLAYERSTANDARD
 70
     0
  0
APPID
  2
ACCMTRANSPARENCY
 70
     0
  0
APPID
  2
ACAD_DSTYLE_DIMJAG
 70
     0
  0
APPID
  2
ACAD_DSTYLE_DIMTALN
 70
     0
  0
APPID
  2
ACDBATTR
 70
     0
  0
APPID
  2
ACADANNOTATIVE
 70
     0
  0
ENDTAB
  0
TABLE
  2
DIMSTYLE
 70
     2
  0
DIMSTYLE
  2
STANDARD
 70
     0
  3

  4

  5

  6

  7

 40
1.0
 41
0.1875
 42
0.0625
 43
0.38
 44
0.125
 45
0.0
 46
0.0
 47
0.01
 48
0.01
140
0.15625
141
0.09
142
0.0
143
25.3999999999999986
144
1.0
145
0.0
146
1.0
147
0.09
 71
     1
 72
     0
 73
     1
 74
     1
 75
     0
 76
     0
 77
     0
 78
     4
170
     0
171
     2
172
     0
173
     0
174
     0
175
     0
176
     0
177
     0
178
     0
  0
ENDTAB
  0
ENDSEC
  0
SECTION
  2
BLOCKS
  0
BLOCK
  8
0
  2
$MODEL_SPACE
 70
     0
 10
0.0
 20
0.0
 30
0.0
  3
$MODEL_SPACE
  1

  0
ENDBLK
  5
21
  8
0
  0
BLOCK
 67
     1
  8
0
  2
$PAPER_SPACE
 70
     0
 10
0.0
 20
0.0
 30
0.0
  3
$PAPER_SPACE
  1

  0
ENDBLK
  5
1D
 67
     1
  8
0
  0
ENDSEC
  0
SECTION
  2
ENTITIES
  0
ATTDEF
  5
3930
  8
DEFPOINTS
 10
3910.6199463496968747
 20
121.8581956190524949
 30
0.0
 40
0.001
  1
20079
  3

  2
MODELNUMBER
 70
     0
1001
ACDBATTR
1070
     0
1070
     1
  0
ATTDEF
  5
3931
  8
DEFPOINTS
 10
3910.6199463496968747
 20
121.8565289523859008
 30
0.0
 40
0.001
  1
LUDINGTON
  3

  2
TRADENAME
 70
     0
1001
ACDBATTR
1070
     0
1070
     1
  0
ATTDEF
  5
3932
  8
DEFPOINTS
 10
3910.6199463496968747
 20
121.854862285719193
 30
0.0
 40
0.001
  1
SINK RACK
  3

  2
PRODUCT
 70
     0
1001
ACDBATTR
1070
     0
1070
     1
  0
LINE
  5
6C2E
  8
0
 10
3901.0022909914118827
 20
122.153274996325095
 30
0.0
 11
3901.0022909914118827
 21
122.0477751366251056
 31
0.0
  0
LINE
  5
6C2F
  8
0
 10
3901.3348219221120416
 20
122.1532736519251046
 30
0.0
 11
3901.3348219221120416
 21
122.0477764811250978
 31
0.0
  0
LINE
  5
6C30
  8
0
 10
3903.485040713212129
 20
122.3410250665251056
 30
0.0
 11
3903.485040713212129
 21
122.1535250665251056
 31
0.0
  0
LINE
  5
6C31
  8
0
 10
3910.334930668312154
 20
122.1522750665251067
 30
0.0
 11
3910.3449306683119175
 21
121.9940633785250981
 31
0.0
  0
LINE
  5
6C32
  8
0
 10
3910.3349306682121096
 20
122.1522750665251067
 30
0.0
 11
3910.3349306682121096
 21
122.3422750665251044
 31
0.0
  0
LINE
  5
6C33
  8
0
 10
3910.3349306682121096
 20
122.3422750665251044
 30
0.0
 11
3910.3449306682118731
 21
122.500486754425097
 31
0.0
  0
LINE
  5
6C34
  8
0
 10
3920.2475703451118534
 20
122.0477750665251051
 30
0.0
 11
3919.9150394144121492
 21
122.0477750665251051
 31
0.0
  0
LINE
  5
6C35
  8
0
 10
3919.9150394144121492
 20
122.0477750665251051
 30
0.0
 11
3912.8436806682120732
 21
122.0477750665251051
 31
0.0
  0
LINE
  5
6C36
  8
0
 10
3912.6561806682120732
 20
122.0477750665251051
 30
0.0
 11
3910.9083255936120622
 21
122.0477750665251051
 31
0.0
  0
LINE
  5
6C37
  8
0
 10
3910.3415357429121286
 20
122.0477750665251051
 30
0.0
 11
3908.5936806682120732
 21
122.0477750665251051
 31
0.0
  0
LINE
  5
6C38
  8
0
 10
3908.4061806682120732
 20
122.0477750665251051
 30
0.0
 11
3901.3348219221120416
 21
122.0477750665251051
 31
0.0
  0
LINE
  5
6C39
  8
0
 10
3901.3348219221120416
 20
122.0477750665251051
 30
0.0
 11
3901.0022909914118827
 21
122.0477750665251051
 31
0.0
  0
LINE
  5
6C3A
  8
0
 10
3920.2475703451118534
 20
122.1532750665250973
 30
0.0
 11
3919.9150394144121492
 21
122.1532750665250973
 31
0.0
  0
LINE
  5
6C3B
  8
0
 10
3919.9150394144121492
 20
122.1532750665250973
 30
0.0
 11
3917.7648206233120618
 21
122.1532750665250973
 31
0.0
  0
LINE
  5
6C3C
  8
0
 10
3903.485040713212129
 20
122.1532750665250973
 30
0.0
 11
3901.3348219221120416
 21
122.1532750665250973
 31
0.0
  0
LINE
  5
6C3D
  8
0
 10
3901.3348219221120416
 20
122.1532750665250973
 30
0.0
 11
3901.0022909914118827
 21
122.1532750665250973
 31
0.0
  0
LINE
  5
6C3E
  8
0
 10
3900.9000407132120927
 20
122.1535250665251056
 30
0.0
 11
3910.3349306682121096
 21
122.1535250665251056
 31
0.0
  0
LINE
  5
6C3F
  8
0
 10
3910.9149306682120368
 20
122.1535250665251056
 30
0.0
 11
3920.3498206233120982
 21
122.1535250665251056
 31
0.0
  0
LINE
  5
6C40
  8
0
 10
3910.904930668311863
 20
122.500486754425097
 30
0.0
 11
3910.9149306683120813
 21
122.3422750665251044
 31
0.0
  0
LINE
  5
6C41
  8
0
 10
3910.9149306682120368
 20
122.3422750665251044
 30
0.0
 11
3910.9149306682120368
 21
122.1522750665251067
 31
0.0
  0
LINE
  5
6C42
  8
0
 10
3910.9049306682131828
 20
121.9940633785250981
 30
0.0
 11
3910.9149306682120368
 21
122.1522750665251067
 31
0.0
  0
LINE
  5
6C43
  8
0
 10
3900.9000407132120927
 20
122.3410250665251056
 30
0.0
 11
3910.3349306682121096
 21
122.3410250665251056
 31
0.0
  0
LINE
  5
6C44
  8
0
 10
3910.9149306682120368
 20
122.3410250665251056
 30
0.0
 11
3920.3498206233120982
 21
122.3410250665251056
 31
0.0
  0
LINE
  5
6C45
  8
0
 10
3917.7648206233120618
 20
122.1535250665251056
 30
0.0
 11
3917.7648206233120618
 21
122.3410250665251056
 31
0.0
  0
LINE
  5
6C46
  8
0
 10
3919.9150394144121492
 20
122.0477764811250978
 30
0.0
 11
3919.9150394144121492
 21
122.1532736519251046
 31
0.0
  0
LINE
  5
6C47
  8
0
 10
3920.2475703451118534
 20
122.0477751366251056
 30
0.0
 11
3920.2475703451118534
 21
122.153274996325095
 31
0.0
  0
ARC
  5
6C48
  8
0
 10
3910.4045983547130163
 20
122.000369502225098
 30
0.0
 40
0.06
 50
186.0330468067996037
 51
263.1977796275916148
  0
ARC
  5
6C49
  8
0
 10
3900.9000407132120927
 20
122.2472750665251056
 30
0.0
 40
0.32
 50
17.0357746230479101
 51
321.432404218517604
  0
ARC
  5
6C4A
  8
0
 10
3900.9000407132120927
 20
122.2472750665251056
 30
0.0
 40
0.3064829768
 50
17.8117011720242289
 51
319.3879882564685886
  0
ARC
  5
6C4B
  8
0
 10
3900.9000407132120927
 20
122.2472750665251056
 30
0.0
 40
0.2532111892
 50
21.7306848046777112
 51
308.0121784354731176
  0
ARC
  5
6C4C
  8
0
 10
3900.9000407132120927
 20
122.2472750665251056
 30
0.0
 40
0.09375
 50
90.0
 51
270.0
  0
ARC
  5
6C4D
  8
0
 10
3910.4045983547130163
 20
122.4941806307250971
 30
0.0
 40
0.06
 50
96.8022203724084278
 51
173.9669532071002038
  0
ARC
  5
6C4E
  8
0
 10
3910.6249306682129827
 20
120.6470271865250936
 30
0.0
 40
1.9202478799999989
 50
83.1977796275915864
 51
96.8022203724084278
  0
ARC
  5
6C4F
  8
0
 10
3910.845262981812084
 20
122.000369502225098
 30
0.0
 40
0.06
 50
276.8022203724083852
 51
353.966953193200311
  0
ARC
  5
6C50
  8
0
 10
3910.845262981812084
 20
122.4941806307250971
 30
0.0
 40
0.06
 50
6.0330467928998051
 51
83.1977796275915864
  0
ARC
  5
6C51
  8
0
 10
3910.6249306682129827
 20
123.8475229464251015
 30
0.0
 40
1.9202478798999989
 50
263.1977796275916148
 51
276.8022203724083852
  0
ARC
  5
6C52
  8
0
 10
3920.3498206233120982
 20
122.2472750665251056
 30
0.0
 40
0.32
 50
218.567595781482396
 51
162.9615543907981987
  0
ARC
  5
6C53
  8
0
 10
3920.3498206233120982
 20
122.2472750665251056
 30
0.0
 40
0.3064829712
 50
220.6120126412162961
 51
162.1788200690027963
  0
ARC
  5
6C54
  8
0
 10
3920.3498206233120982
 20
122.2472750665251056
 30
0.0
 40
0.2532106925
 50
231.9879653567458035
 51
158.2694434446025014
  0
ARC
  5
6C55
  8
0
 10
3920.3498206233120982
 20
122.2472750665251056
 30
0.0
 40
0.09375
 50
270.0
 51
90.0
  0
LINE
  5
6C56
  8
0
 10
3912.6561806682120732
 20
122.0603979443251035
 30
0.0
 11
3912.6561806682120732
 21
121.9540250665251051
 31
0.0
  0
LINE
  5
6C57
  8
0
 10
3912.8436806682120732
 20
122.0603979443251035
 30
0.0
 11
3912.8436806682120732
 21
121.9540250665251051
 31
0.0
  0
ARC
  5
6C58
  8
0
 10
3912.7499306682120732
 20
121.9540250665251051
 30
0.0
 40
0.09375
 50
180.0
 51
0.0
  0
CIRCLE
  5
6C59
  8
0
 10
3912.7499306682120732
 20
122.0603979443251035
 30
0.0
 40
0.0937499999999592
  0
ARC
  5
6C5A
  8
0
 10
3912.7499306682120732
 20
121.9584905620216944
 30
0.0
 40
0.093647724796609
 50
179.2869351817984978
 51
0.7130648182014602
  0
LINE
  5
6C5B
  8
0
 10
3908.4061806682120732
 20
122.0603979443251035
 30
0.0
 11
3908.4061806682120732
 21
121.9540250665251051
 31
0.0
  0
LINE
  5
6C5C
  8
0
 10
3908.5936806682120732
 20
122.0603979443251035
 30
0.0
 11
3908.5936806682120732
 21
121.9540250665251051
 31
0.0
  0
ARC
  5
6C5D
  8
0
 10
3908.4999306682120732
 20
121.9540250665251051
 30
0.0
 40
0.09375
 50
180.0
 51
0.0
  0
CIRCLE
  5
6C5E
  8
0
 10
3908.4999306682120732
 20
122.0603979443251035
 30
0.0
 40
0.0937499999999592
  0
ARC
  5
6C5F
  8
0
 10
3908.4999306682120732
 20
121.9584905620216944
 30
0.0
 40
0.093647724796609
 50
179.2869351817984978
 51
0.7130648182014602
  0
ENDSEC
  0
EOF
