  0
SECTION
  2
HEADER
  9
$ACADVER
  1
AC1009
  9
$INSBASE
 10
3891.7845005558160665
 20
106.3557667350111018
 30
0.0
  9
$EXTMIN
 10
3878.2678176450099272
 20
99.3721729359111237
 30
0.0
  9
$EXTMAX
 10
3905.3011933059110561
 20
113.3380776289110941
 30
0.0
  9
$LIMMIN
 10
0.0
 20
0.0
  9
$LIMMAX
 10
11.6929133858000007
 20
8.2677165353999982
  9
$ORTHOMODE
 70
     1
  9
$REGENMODE
 70
     1
  9
$FILLMODE
 70
     1
  9
$QTEXTMODE
 70
     0
  9
$MIRRTEXT
 70
     0
  9
$DRAGMODE
 70
     2
  9
$LTSCALE
 40
0.6431102362
  9
$OSMODE
 70
  4095
  9
$ATTMODE
 70
     1
  9
$TEXTSIZE
 40
0.2
  9
$TRACEWID
 40
0.05
  9
$TEXTSTYLE
  7
STANDARD
  9
$CLAYER
  8
0
  9
$CELTYPE
  6
BYLAYER
  9
$CECOLOR
 62
   256
  9
$DIMSCALE
 40
1.0
  9
$DIMASZ
 40
0.1875
  9
$DIMEXO
 40
0.0625
  9
$DIMDLI
 40
0.4443307087
  9
$DIMRND
 40
0.0
  9
$DIMDLE
 40
0.0
  9
$DIMEXE
 40
0.125
  9
$DIMTP
 40
0.01
  9
$DIMTM
 40
0.01
  9
$DIMTXT
 40
2.0
  9
$DIMCEN
 40
0.1052362205
  9
$DIMTSZ
 40
0.0
  9
$DIMTOL
 70
     1
  9
$DIMLIM
 70
     0
  9
$DIMTIH
 70
     1
  9
$DIMTOH
 70
     1
  9
$DIMSE1
 70
     0
  9
$DIMSE2
 70
     0
  9
$DIMTAD
 70
     0
  9
$DIMZIN
 70
     0
  9
$DIMBLK
  1

  9
$DIMASO
 70
     1
  9
$DIMSHO
 70
     1
  9
$DIMPOST
  1
\X
  9
$DIMAPOST
  1

  9
$DIMALT
 70
     1
  9
$DIMALTD
 70
     2
  9
$DIMALTF
 40
25.3999999999999986
  9
$DIMLFAC
 40
1.0
  9
$DIMTOFL
 70
     0
  9
$DIMTVP
 40
0.0
  9
$DIMTIX
 70
     0
  9
$DIMSOXD
 70
     0
  9
$DIMSAH
 70
     0
  9
$DIMBLK1
  1

  9
$DIMBLK2
  1

  9
$DIMSTYLE
  2
STANDARD
  9
$DIMCLRD
 70
     0
  9
$DIMCLRE
 70
     0
  9
$DIMCLRT
 70
     0
  9
$DIMTFAC
 40
1.0
  9
$DIMGAP
 40
0.09
  9
$LUNITS
 70
     2
  9
$LUPREC
 70
     4
  9
$SKETCHINC
 40
0.1
  9
$FILLETRAD
 40
0.0
  9
$AUNITS
 70
     0
  9
$AUPREC
 70
     0
  9
$MENU
  1
.
  9
$ELEVATION
 40
0.0
  9
$PELEVATION
 40
0.0
  9
$THICKNESS
 40
0.0
  9
$LIMCHECK
 70
     0
  9
$BLIPMODE
 70
     0
  9
$CHAMFERA
 40
0.0
  9
$CHAMFERB
 40
0.0
  9
$SKPOLY
 70
     0
  9
$TDCREATE
 40
2458060.468368056230247
  9
$TDUPDATE
 40
2458914.2781597222201526
  9
$TDINDWG
 40
0.3052038194
  9
$TDUSRTIMER
 40
0.3052038194
  9
$USRTIMER
 70
     1
  9
$ANGBASE
 50
0.0
  9
$ANGDIR
 70
     0
  9
$PDMODE
 70
     0
  9
$PDSIZE
 40
0.3125
  9
$PLINEWID
 40
0.0
  9
$COORDS
 70
     1
  9
$SPLFRAME
 70
     0
  9
$SPLINETYPE
 70
     6
  9
$SPLINESEGS
 70
     8
  9
$ATTDIA
 70
     1
  9
$ATTREQ
 70
     1
  9
$HANDLING
 70
     1
  9
$HANDSEED
  5
6EE6
  9
$SURFTAB1
 70
     6
  9
$SURFTAB2
 70
     6
  9
$SURFTYPE
 70
     6
  9
$SURFU
 70
     6
  9
$SURFV
 70
     6
  9
$UCSNAME
  2

  9
$UCSORG
 10
0.0
 20
0.0
 30
0.0
  9
$UCSXDIR
 10
1.0
 20
0.0
 30
0.0
  9
$UCSYDIR
 10
0.0
 20
1.0
 30
0.0
  9
$PUCSNAME
  2

  9
$PUCSORG
 10
0.0
 20
0.0
 30
0.0
  9
$PUCSXDIR
 10
1.0
 20
0.0
 30
0.0
  9
$PUCSYDIR
 10
0.0
 20
1.0
 30
0.0
  9
$USERI1
 70
     0
  9
$USERI2
 70
     0
  9
$USERI3
 70
     0
  9
$USERI4
 70
     0
  9
$USERI5
 70
     0
  9
$USERR1
 40
0.0
  9
$USERR2
 40
0.0
  9
$USERR3
 40
0.0
  9
$USERR4
 40
0.0
  9
$USERR5
 40
0.0
  9
$WORLDVIEW
 70
     1
  9
$SHADEDGE
 70
     3
  9
$SHADEDIF
 70
    70
  9
$TILEMODE
 70
     1
  9
$MAXACTVP
 70
    64
  9
$PLIMCHECK
 70
     0
  9
$PEXTMIN
 10
1.0000000000000000E+20
 20
1.0000000000000000E+20
 30
1.0000000000000000E+20
  9
$PEXTMAX
 10
-1.0000000000000000E+20
 20
-1.0000000000000000E+20
 30
-1.0000000000000000E+20
  9
$PLIMMIN
 10
0.0
 20
0.0
  9
$PLIMMAX
 10
12.0
 20
9.0
  9
$UNITMODE
 70
     0
  9
$VISRETAIN
 70
     1
  9
$PLINEGEN
 70
     0
  9
$PSLTSCALE
 70
     1
  0
ENDSEC
  0
SECTION
  2
TABLES
  0
TABLE
  2
VPORT
 70
     1
  0
VPORT
  2
*ACTIVE
 70
     0
 10
0.0
 20
0.0
 11
1.0
 21
1.0
 12
0.0
 22
0.0
 13
0.0
 23
0.0
 14
1.0
 24
1.0
 15
0.0
 25
0.0
 16
0.0
 26
0.0
 36
87.0144808424021505
 17
3891.7845458984370453
 27
106.3551254272460938
 37
0.0
 40
30.4448615373823692
 41
2.1433408577878099
 42
50.0
 43
0.0
 44
0.0
 50
0.0
 51
0.0
 71
     0
 72
   100
 73
     1
 74
     1
 75
     0
 76
     0
 77
     0
 78
     0
  0
ENDTAB
  0
TABLE
  2
LTYPE
 70
     2
  0
LTYPE
  2
CONTINUOUS
 70
     0
  3
Solid line
 72
    65
 73
     0
 40
0.0
  0
LTYPE
  2
PHANTOM2
 70
     0
  3
___ _ _ ___ _ _ ___ _ _ ___ _ _
 72
    65
 73
     6
 40
1.25
 49
0.625
 49
-0.125
 49
0.125
 49
-0.125
 49
0.125
 49
-0.125
  0
ENDTAB
  0
TABLE
  2
LAYER
 70
     2
  0
LAYER
  2
0
 70
     0
 62
   255
  6
CONTINUOUS
  0
LAYER
  2
DEFPOINTS
 70
     0
 62
     7
  6
CONTINUOUS
  0
ENDTAB
  0
TABLE
  2
STYLE
 70
     1
  0
STYLE
  2
STANDARD
 70
     0
 40
0.0
 41
0.8
 50
0.0
 71
     0
 42
0.2
  3
txt
  4

  0
ENDTAB
  0
TABLE
  2
VIEW
 70
     0
  0
ENDTAB
  0
TABLE
  2
UCS
 70
     0
  0
ENDTAB
  0
TABLE
  2
APPID
 70
    10
  0
APPID
  2
ACAD
 70
     0
  0
APPID
  2
ACAD_MLEADERVER
 70
     0
  0
APPID
  2
ACAD_EXEMPT_FROM_CAD_STANDARDS
 70
     0
  0
APPID
  2
ACAD_NAV_VCDISPLAY
 70
     0
  0
APPID
  2
ACAECLAYERSTANDARD
 70
     0
  0
APPID
  2
ACCMTRANSPARENCY
 70
     0
  0
APPID
  2
ACAD_DSTYLE_DIMJAG
 70
     0
  0
APPID
  2
ACAD_DSTYLE_DIMTALN
 70
     0
  0
APPID
  2
ACDBATTR
 70
     0
  0
APPID
  2
ACADANNOTATIVE
 70
     0
  0
ENDTAB
  0
TABLE
  2
DIMSTYLE
 70
     1
  0
DIMSTYLE
  2
STANDARD
 70
     0
  3

  4

  5

  6

  7

 40
1.0
 41
0.1875
 42
0.0625
 43
0.38
 44
0.125
 45
0.0
 46
0.0
 47
0.01
 48
0.01
140
0.15625
141
0.09
142
0.0
143
25.3999999999999986
144
1.0
145
0.0
146
1.0
147
0.09
 71
     1
 72
     0
 73
     1
 74
     1
 75
     0
 76
     0
 77
     0
 78
     4
170
     0
171
     2
172
     0
173
     0
174
     0
175
     0
176
     0
177
     0
178
     0
  0
ENDTAB
  0
ENDSEC
  0
SECTION
  2
BLOCKS
  0
BLOCK
  8
0
  2
$MODEL_SPACE
 70
     0
 10
0.0
 20
0.0
 30
0.0
  3
$MODEL_SPACE
  1

  0
ENDBLK
  5
21
  8
0
  0
BLOCK
 67
     1
  8
0
  2
$PAPER_SPACE
 70
     0
 10
0.0
 20
0.0
 30
0.0
  3
$PAPER_SPACE
  1

  0
ENDBLK
  5
1D
 67
     1
  8
0
  0
ENDSEC
  0
SECTION
  2
ENTITIES
  0
ATTDEF
  5
3930
  8
DEFPOINTS
 10
3891.7812195468977734
 20
106.3602865102395043
 30
0.0
 40
0.001
  1
20078
  3

  2
MODELNUMBER
 70
     0
1001
ACDBATTR
1070
     0
1070
     1
  0
ATTDEF
  5
3931
  8
DEFPOINTS
 10
3891.7812195468977734
 20
106.3586198435727965
 30
0.0
 40
0.001
  1
LUDINGTON
  3

  2
TRADENAME
 70
     0
1001
ACDBATTR
1070
     0
1070
     1
  0
ATTDEF
  5
3932
  8
DEFPOINTS
 10
3891.7812195468977734
 20
106.356953176906103
 30
0.0
 40
0.001
  1
SINK RACK
  3

  2
PRODUCT
 70
     0
1001
ACDBATTR
1070
     0
1070
     1
  0
LINE
  5
6C90
  8
0
 10
3883.8364928287101066
 20
99.5984558412111056
 30
0.0
 11
3883.8464928287098701
 21
99.4402441532111254
 31
0.0
  0
LINE
  5
6C91
  8
0
 10
3883.8464928287098701
 20
113.2712893168111066
 30
0.0
 11
3883.8364928287101066
 21
113.1130776289110997
 31
0.0
  0
LINE
  5
6C92
  8
0
 10
3883.8366165866109441
 20
112.9197614093111071
 30
0.0
 11
3883.8367381823100004
 21
112.9148593698110972
 31
0.0
  0
LINE
  5
6C93
  8
0
 10
3884.4163690708101058
 20
99.7917720608111267
 30
0.0
 11
3884.4162474751101399
 21
99.7966741002111348
 31
0.0
  0
LINE
  5
6C94
  8
0
 10
3883.8364928287101066
 20
99.5984558412111056
 30
0.0
 11
3883.8364928287101066
 21
99.7860516697111422
 31
0.0
  0
LINE
  5
6C95
  8
0
 10
3883.8364928287101066
 20
112.9254818003111041
 30
0.0
 11
3883.8364928287101066
 21
113.1130776289110997
 31
0.0
  0
LINE
  5
6C96
  8
0
 10
3884.073742828711147
 20
100.0125651814111052
 30
0.0
 11
3884.073742828711147
 21
100.5823752824111068
 31
0.0
  0
LINE
  5
6C97
  8
0
 10
3884.073742828711147
 20
100.687875282411099
 30
0.0
 11
3884.073742828711147
 21
101.2923752824111006
 31
0.0
  0
LINE
  5
6C98
  8
0
 10
3884.073742828711147
 20
101.3978752824111069
 30
0.0
 11
3884.073742828711147
 21
102.0123752824110994
 31
0.0
  0
LINE
  5
6C99
  8
0
 10
3884.073742828711147
 20
102.1178752824111058
 30
0.0
 11
3884.073742828711147
 21
102.7223752824110932
 31
0.0
  0
LINE
  5
6C9A
  8
0
 10
3884.073742828711147
 20
102.8278752824110995
 30
0.0
 11
3884.073742828711147
 21
103.4423752824111062
 31
0.0
  0
LINE
  5
6C9B
  8
0
 10
3884.073742828711147
 20
103.5478752824110984
 30
0.0
 11
3884.073742828711147
 21
104.1523752824111
 31
0.0
  0
LINE
  5
6C9C
  8
0
 10
3884.073742828711147
 20
104.2578752824111064
 30
0.0
 11
3884.073742828711147
 21
104.8723752824110989
 31
0.0
  0
LINE
  5
6C9D
  8
0
 10
3884.073742828711147
 20
104.9778752824111052
 30
0.0
 11
3884.073742828711147
 21
105.5823752824111068
 31
0.0
  0
LINE
  5
6C9E
  8
0
 10
3884.073742828711147
 20
105.687875282411099
 30
0.0
 11
3884.073742828711147
 21
106.3023752824111057
 31
0.0
  0
LINE
  5
6C9F
  8
0
 10
3884.073742828711147
 20
106.4078752824110978
 30
0.0
 11
3884.073742828711147
 21
107.0223752824111045
 31
0.0
  0
LINE
  5
6CA0
  8
0
 10
3884.073742828711147
 20
107.1278752824110967
 30
0.0
 11
3884.073742828711147
 21
107.7323752824110983
 31
0.0
  0
LINE
  5
6CA1
  8
0
 10
3884.073742828711147
 20
107.8378752824111046
 30
0.0
 11
3884.073742828711147
 21
108.4523752824110971
 31
0.0
  0
LINE
  5
6CA2
  8
0
 10
3884.073742828711147
 20
108.5578752824111035
 30
0.0
 11
3884.073742828711147
 21
109.1623752824111051
 31
0.0
  0
LINE
  5
6CA3
  8
0
 10
3884.073742828711147
 20
109.2678752824110973
 30
0.0
 11
3884.073742828711147
 21
109.882375282411104
 31
0.0
  0
LINE
  5
6CA4
  8
0
 10
3884.073742828711147
 20
109.9878752824110961
 30
0.0
 11
3884.073742828711147
 21
110.5923752824110977
 31
0.0
  0
LINE
  5
6CA5
  8
0
 10
3884.073742828711147
 20
110.6978752824111041
 30
0.0
 11
3884.073742828711147
 21
111.3123752824110966
 31
0.0
  0
LINE
  5
6CA6
  8
0
 10
3884.073742828711147
 20
111.4178752824111029
 30
0.0
 11
3884.073742828711147
 21
112.0223752824111045
 31
0.0
  0
LINE
  5
6CA7
  8
0
 10
3884.073742828711147
 20
112.1278752824110967
 30
0.0
 11
3884.073742828711147
 21
112.6989682882111055
 31
0.0
  0
LINE
  5
6CA8
  8
0
 10
3884.1792428287108123
 20
100.0125651818110981
 30
0.0
 11
3884.1792428287108123
 21
100.5823752824111068
 31
0.0
  0
LINE
  5
6CA9
  8
0
 10
3884.1792428287108123
 20
100.687875282411099
 30
0.0
 11
3884.1792428287108123
 21
101.2923752824111006
 31
0.0
  0
LINE
  5
6CAA
  8
0
 10
3884.1792428287108123
 20
101.3978752824111069
 30
0.0
 11
3884.1792428287108123
 21
102.0123752824110994
 31
0.0
  0
LINE
  5
6CAB
  8
0
 10
3884.1792428287108123
 20
102.1178752824111058
 30
0.0
 11
3884.1792428287108123
 21
102.7223752824110932
 31
0.0
  0
LINE
  5
6CAC
  8
0
 10
3884.1792428287108123
 20
102.8278752824110995
 30
0.0
 11
3884.1792428287108123
 21
103.4423752824111062
 31
0.0
  0
LINE
  5
6CAD
  8
0
 10
3884.1792428287108123
 20
103.5478752824110984
 30
0.0
 11
3884.1792428287108123
 21
104.1523752824111
 31
0.0
  0
LINE
  5
6CAE
  8
0
 10
3884.1792428287108123
 20
104.2578752824111064
 30
0.0
 11
3884.1792428287108123
 21
104.8723752824110989
 31
0.0
  0
LINE
  5
6CAF
  8
0
 10
3884.1792428287108123
 20
104.9778752824111052
 30
0.0
 11
3884.1792428287108123
 21
105.5823752824111068
 31
0.0
  0
LINE
  5
6CB0
  8
0
 10
3884.1792428287108123
 20
105.687875282411099
 30
0.0
 11
3884.1792428287108123
 21
106.3023752824111057
 31
0.0
  0
LINE
  5
6CB1
  8
0
 10
3884.1792428287108123
 20
106.4078752824110978
 30
0.0
 11
3884.1792428287108123
 21
107.0223752824111045
 31
0.0
  0
LINE
  5
6CB2
  8
0
 10
3884.1792428287108123
 20
107.1278752824110967
 30
0.0
 11
3884.1792428287108123
 21
107.7323752824110983
 31
0.0
  0
LINE
  5
6CB3
  8
0
 10
3884.1792428287108123
 20
107.8378752824111046
 30
0.0
 11
3884.1792428287108123
 21
108.4523752824110971
 31
0.0
  0
LINE
  5
6CB4
  8
0
 10
3884.1792428287108123
 20
108.5578752824111035
 30
0.0
 11
3884.1792428287108123
 21
109.1623752824111051
 31
0.0
  0
LINE
  5
6CB5
  8
0
 10
3884.1792428287108123
 20
109.2678752824110973
 30
0.0
 11
3884.1792428287108123
 21
109.882375282411104
 31
0.0
  0
LINE
  5
6CB6
  8
0
 10
3884.1792428287108123
 20
109.9878752824110961
 30
0.0
 11
3884.1792428287108123
 21
110.5923752824110977
 31
0.0
  0
LINE
  5
6CB7
  8
0
 10
3884.1792428287108123
 20
110.6978752824111041
 30
0.0
 11
3884.1792428287108123
 21
111.3123752824110966
 31
0.0
  0
LINE
  5
6CB8
  8
0
 10
3884.1792428287108123
 20
111.4178752824111029
 30
0.0
 11
3884.1792428287108123
 21
112.0223752824111045
 31
0.0
  0
LINE
  5
6CB9
  8
0
 10
3884.1792428287108123
 20
112.1278752824110967
 30
0.0
 11
3884.1792428287108123
 21
112.6989682887111002
 31
0.0
  0
LINE
  5
6CBA
  8
0
 10
3884.4164928287109433
 20
113.1130776289110997
 30
0.0
 11
3884.4164928287109433
 21
112.9254818003111041
 31
0.0
  0
LINE
  5
6CBB
  8
0
 10
3884.4164928287109433
 20
99.7860516697111422
 30
0.0
 11
3884.4164928287109433
 21
99.5984558412111056
 31
0.0
  0
LINE
  5
6CBC
  8
0
 10
3883.8366873368099732
 20
99.7945771442111464
 30
0.0
 11
3883.8365191722109557
 21
99.7872058412111329
 31
0.0
  0
LINE
  5
6CBD
  8
0
 10
3884.4162983206110766
 20
112.9169563259111015
 30
0.0
 11
3884.4164389839102114
 21
112.9230447237111008
 31
0.0
  0
LINE
  5
6CBE
  8
0
 10
3883.8368630478098567
 20
99.8011995649111157
 30
0.0
 11
3883.8366386517109277
 21
99.792779443711126
 31
0.0
  0
LINE
  5
6CBF
  8
0
 10
3884.4161226096111932
 20
112.9103339052111039
 30
0.0
 11
3884.4163470056100778
 21
112.9187540264110936
 31
0.0
  0
LINE
  5
6CC0
  8
0
 10
3884.4164928287109433
 20
113.1130776289110997
 30
0.0
 11
3884.4064928287111798
 21
113.2712893168111066
 31
0.0
  0
LINE
  5
6CC1
  8
0
 10
3884.4064928287111798
 20
99.4402441532111254
 30
0.0
 11
3884.4164928287109433
 21
99.5984558412111056
 31
0.0
  0
LINE
  5
6CC2
  8
0
 10
3902.9319355786101369
 20
99.5997058412111187
 30
0.0
 11
3899.7323943235601291
 21
99.5997058412111187
 31
0.0
  0
LINE
  5
6CC3
  8
0
 10
3899.1523943235611114
 20
99.5997058412111187
 30
0.0
 11
3892.074505664310891
 21
99.5997058412111187
 31
0.0
  0
LINE
  5
6CC4
  8
0
 10
3891.4945056643109638
 20
99.5997058412111187
 30
0.0
 11
3884.4164928287109433
 21
99.5997058412111187
 31
0.0
  0
LINE
  5
6CC5
  8
0
 10
3883.8364928287101066
 20
99.5997058412111187
 30
0.0
 11
3880.6370757501108528
 21
99.5997058412111187
 31
0.0
  0
LINE
  5
6CC6
  8
0
 10
3902.9319355786101369
 20
99.7872058412111329
 30
0.0
 11
3899.7323943235601291
 21
99.7872058412111329
 31
0.0
  0
LINE
  5
6CC7
  8
0
 10
3899.1525185000109559
 20
99.7872058412111329
 30
0.0
 11
3892.0745041945110643
 21
99.7872058412111329
 31
0.0
  0
LINE
  5
6CC8
  8
0
 10
3891.4945056643109638
 20
99.7872058412111329
 30
0.0
 11
3884.4164913588101626
 21
99.7872058412111329
 31
0.0
  0
LINE
  5
6CC9
  8
0
 10
3883.8364928287101066
 20
99.7872058412111329
 30
0.0
 11
3880.6370757501108528
 21
99.7872058412111329
 31
0.0
  0
LINE
  5
6CCA
  8
0
 10
3879.0882565122101369
 20
100.5823752824111068
 30
0.0
 11
3904.4807548164098989
 21
100.5823752824111068
 31
0.0
  0
LINE
  5
6CCB
  8
0
 10
3879.0177712924100888
 20
100.687875282411099
 30
0.0
 11
3904.5512400363109009
 21
100.687875282411099
 31
0.0
  0
LINE
  5
6CCC
  8
0
 10
3878.7735216893111101
 20
101.2923752824111006
 30
0.0
 11
3904.7954896394098796
 21
101.2923752824111006
 31
0.0
  0
LINE
  5
6CCD
  8
0
 10
3878.7540008632108766
 20
101.3978752824111069
 30
0.0
 11
3904.8150104655101131
 21
101.3978752824111069
 31
0.0
  0
LINE
  5
6CCE
  8
0
 10
3878.3662378605108643
 20
101.7643279047110951
 30
0.0
 11
3878.524717528110159
 21
101.7682180432111068
 31
0.0
  0
LINE
  5
6CCF
  8
0
 10
3878.9180710157111207
 20
102.0123752824110994
 30
0.0
 11
3904.6509400807099155
 21
102.0123752824110994
 31
0.0
  0
LINE
  5
6CD0
  8
0
 10
3878.9104183931099215
 20
102.1178752824111058
 30
0.0
 11
3904.6585929300108546
 21
102.1178752824111058
 31
0.0
  0
LINE
  5
6CD1
  8
0
 10
3905.0442934229108687
 20
101.7682137458110958
 30
0.0
 11
3905.2027730905101635
 21
101.7643236074111002
 31
0.0
  0
LINE
  5
6CD2
  8
0
 10
3878.7172805699101445
 20
101.7852665331110984
 30
0.0
 11
3878.7221531393101941
 21
101.7858168449110963
 31
0.0
  0
LINE
  5
6CD3
  8
0
 10
3878.7115929806109307
 20
101.7846424192110959
 30
0.0
 11
3878.524717528110159
 21
101.7682180432111068
 31
0.0
  0
LINE
  5
6CD4
  8
0
 10
3878.6759350036109026
 20
102.3633726243110971
 30
0.0
 11
3878.6675275697111829
 21
102.3628589609110975
 31
0.0
  0
LINE
  5
6CD5
  8
0
 10
3878.6344964231097947
 20
102.7223752824110932
 30
0.0
 11
3904.9345149055111506
 21
102.7223752824110932
 31
0.0
  0
LINE
  5
6CD6
  8
0
 10
3878.6267185306101055
 20
102.8278752824110995
 30
0.0
 11
3904.9422927981108842
 21
102.8278752824110995
 31
0.0
  0
LINE
  5
6CD7
  8
0
 10
3878.5862063170097827
 20
103.4423752824111062
 30
0.0
 11
3904.9828050116111626
 21
103.4423752824111062
 31
0.0
  0
LINE
  5
6CD8
  8
0
 10
3904.9024888276098864
 20
102.3627884457111037
 30
0.0
 11
3904.8975949663099527
 21
102.3630964999110944
 31
0.0
  0
LINE
  5
6CD9
  8
0
 10
3905.3002356307101763
 20
102.2651538743110962
 30
0.0
 11
3905.3002672644111044
 21
102.2651512088111048
 31
0.0
  0
LINE
  5
6CDA
  8
0
 10
3905.0442934229108687
 20
101.7682137458110958
 30
0.0
 11
3904.857417970410097
 21
101.7846381219111009
 31
0.0
  0
LINE
  5
6CDB
  8
0
 10
3889.5657556643109274
 20
99.7872058412111329
 30
0.0
 11
3889.5657556643109274
 21
100.5823752824111068
 31
0.0
  0
LINE
  5
6CDC
  8
0
 10
3889.5657556643109274
 20
100.687875282411099
 30
0.0
 11
3889.5657556643109274
 21
101.2923752824111006
 31
0.0
  0
LINE
  5
6CDD
  8
0
 10
3889.5657556643109274
 20
101.3978752824111069
 30
0.0
 11
3889.5657556643109274
 21
102.0123752824110994
 31
0.0
  0
LINE
  5
6CDE
  8
0
 10
3889.5657556643109274
 20
102.1178752824111058
 30
0.0
 11
3889.5657556643109274
 21
102.7223752824110932
 31
0.0
  0
LINE
  5
6CDF
  8
0
 10
3889.5657556643109274
 20
102.8278752824110995
 30
0.0
 11
3889.5657556643109274
 21
103.4423752824111062
 31
0.0
  0
LINE
  5
6CE0
  8
0
 10
3889.5657556643109274
 20
103.5478752824110984
 30
0.0
 11
3889.5657556643109274
 21
104.1523752824111
 31
0.0
  0
LINE
  5
6CE1
  8
0
 10
3889.5657556643109274
 20
104.2578752824111064
 30
0.0
 11
3889.5657556643109274
 21
104.8723752824110989
 31
0.0
  0
LINE
  5
6CE2
  8
0
 10
3889.5657556643109274
 20
104.9778752824111052
 30
0.0
 11
3889.5657556643109274
 21
105.5823752824111068
 31
0.0
  0
LINE
  5
6CE3
  8
0
 10
3889.5657556643109274
 20
105.687875282411099
 30
0.0
 11
3889.5657556643109274
 21
106.3023752824111057
 31
0.0
  0
LINE
  5
6CE4
  8
0
 10
3889.5657556643109274
 20
106.4078752824110978
 30
0.0
 11
3889.5657556643109274
 21
107.0223752824111045
 31
0.0
  0
LINE
  5
6CE5
  8
0
 10
3889.5657556643109274
 20
107.1278752824110967
 30
0.0
 11
3889.5657556643109274
 21
107.7323752824110983
 31
0.0
  0
LINE
  5
6CE6
  8
0
 10
3889.5657556643109274
 20
107.8378752824111046
 30
0.0
 11
3889.5657556643109274
 21
108.4523752824110971
 31
0.0
  0
LINE
  5
6CE7
  8
0
 10
3889.5657556643109274
 20
108.5578752824111035
 30
0.0
 11
3889.5657556643109274
 21
109.1623752824111051
 31
0.0
  0
LINE
  5
6CE8
  8
0
 10
3889.5657556643109274
 20
109.2678752824110973
 30
0.0
 11
3889.5657556643109274
 21
109.882375282411104
 31
0.0
  0
LINE
  5
6CE9
  8
0
 10
3889.5657556643109274
 20
109.9878752824110961
 30
0.0
 11
3889.5657556643109274
 21
110.5923752824110977
 31
0.0
  0
LINE
  5
6CEA
  8
0
 10
3889.5657556643109274
 20
110.6978752824111041
 30
0.0
 11
3889.5657556643109274
 21
111.3123752824110966
 31
0.0
  0
LINE
  5
6CEB
  8
0
 10
3889.5657556643109274
 20
111.4178752824111029
 30
0.0
 11
3889.5657556643109274
 21
112.0223752824111045
 31
0.0
  0
LINE
  5
6CEC
  8
0
 10
3889.5657556643109274
 20
112.1278752824110967
 30
0.0
 11
3889.5657556643109274
 21
112.9230447237111008
 31
0.0
  0
LINE
  5
6CED
  8
0
 10
3889.7532556643109274
 20
99.7872058412111329
 30
0.0
 11
3889.7532556643109274
 21
100.5823752824111068
 31
0.0
  0
LINE
  5
6CEE
  8
0
 10
3889.7532556643109274
 20
100.687875282411099
 30
0.0
 11
3889.7532556643109274
 21
101.2923752824111006
 31
0.0
  0
LINE
  5
6CEF
  8
0
 10
3889.7532556643109274
 20
101.3978752824111069
 30
0.0
 11
3889.7532556643109274
 21
102.0123752824110994
 31
0.0
  0
LINE
  5
6CF0
  8
0
 10
3889.7532556643109274
 20
102.1178752824111058
 30
0.0
 11
3889.7532556643109274
 21
102.7223752824110932
 31
0.0
  0
LINE
  5
6CF1
  8
0
 10
3889.7532556643109274
 20
102.8278752824110995
 30
0.0
 11
3889.7532556643109274
 21
103.4423752824111062
 31
0.0
  0
LINE
  5
6CF2
  8
0
 10
3889.7532556643109274
 20
103.5478752824110984
 30
0.0
 11
3889.7532556643109274
 21
104.1523752824111
 31
0.0
  0
LINE
  5
6CF3
  8
0
 10
3889.7532556643109274
 20
104.2578752824111064
 30
0.0
 11
3889.7532556643109274
 21
104.8723752824110989
 31
0.0
  0
LINE
  5
6CF4
  8
0
 10
3889.7532556643109274
 20
104.9778752824111052
 30
0.0
 11
3889.7532556643109274
 21
105.5432894600110956
 31
0.0
  0
LINE
  5
6CF5
  8
0
 10
3889.7532556643109274
 20
107.1669697596111064
 30
0.0
 11
3889.7532556643109274
 21
107.7323752824110983
 31
0.0
  0
LINE
  5
6CF6
  8
0
 10
3889.7532556643109274
 20
107.8378752824111046
 30
0.0
 11
3889.7532556643109274
 21
108.4523752824110971
 31
0.0
  0
LINE
  5
6CF7
  8
0
 10
3889.7532556643109274
 20
108.5578752824111035
 30
0.0
 11
3889.7532556643109274
 21
109.1623752824111051
 31
0.0
  0
LINE
  5
6CF8
  8
0
 10
3889.7532556643109274
 20
109.2678752824110973
 30
0.0
 11
3889.7532556643109274
 21
109.882375282411104
 31
0.0
  0
LINE
  5
6CF9
  8
0
 10
3889.7532556643109274
 20
109.9878752824110961
 30
0.0
 11
3889.7532556643109274
 21
110.5923752824110977
 31
0.0
  0
LINE
  5
6CFA
  8
0
 10
3889.7532556643109274
 20
110.6978752824111041
 30
0.0
 11
3889.7532556643109274
 21
111.3123752824110966
 31
0.0
  0
LINE
  5
6CFB
  8
0
 10
3889.7532556643109274
 20
111.4178752824111029
 30
0.0
 11
3889.7532556643109274
 21
112.0223752824111045
 31
0.0
  0
LINE
  5
6CFC
  8
0
 10
3889.7532556643109274
 20
112.1278752824110967
 30
0.0
 11
3889.7532556643109274
 21
112.9230447237111008
 31
0.0
  0
LINE
  5
6CFD
  8
0
 10
3878.4739374110108656
 20
102.345990818311094
 30
0.0
 11
3878.317208782011221
 21
102.3221774808111064
 31
0.0
  0
LINE
  5
6CFE
  8
0
 10
3878.4739374110108656
 20
102.345990818311094
 30
0.0
 11
3878.6608128636112269
 21
102.3624151944110992
 31
0.0
  0
LINE
  5
6CFF
  8
0
 10
3878.5799880538102116
 20
103.5478752824110984
 30
0.0
 11
3904.9890232749107781
 21
103.5478752824110984
 31
0.0
  0
LINE
  5
6D00
  8
0
 10
3878.549014717611044
 20
104.1523752824111
 30
0.0
 11
3905.0199966111099457
 21
104.1523752824111
 31
0.0
  0
LINE
  5
6D01
  8
0
 10
3878.544353379810218
 20
104.2578752824111064
 30
0.0
 11
3891.1636048686109461
 21
104.2578752824111064
 31
0.0
  0
LINE
  5
6D02
  8
0
 10
3892.4054067156098426
 20
104.2578752824111064
 30
0.0
 11
3905.024657948811182
 21
104.2578752824111064
 31
0.0
  0
LINE
  5
6D03
  8
0
 10
3904.908198087411165
 20
102.3624108971111042
 30
0.0
 11
3905.0950735399110272
 21
102.3459865210110991
 31
0.0
  0
LINE
  5
6D04
  8
0
 10
3905.2518021690111709
 20
102.3221731834110955
 30
0.0
 11
3905.0950735399110272
 21
102.3459865210110991
 31
0.0
  0
LINE
  5
6D05
  8
0
 10
3878.5218661166099992
 20
104.8723752824110989
 30
0.0
 11
3890.1765867892099777
 21
104.8723752824110989
 31
0.0
  0
LINE
  5
6D06
  8
0
 10
3893.3924256362111009
 20
104.8723752824110989
 30
0.0
 11
3905.047145212110081
 21
104.8723752824110989
 31
0.0
  0
LINE
  5
6D07
  8
0
 10
3878.5187596806108559
 20
104.9778752824111052
 30
0.0
 11
3890.0853482479101331
 21
104.9778752824111052
 31
0.0
  0
LINE
  5
6D08
  8
0
 10
3893.4836641318102011
 20
104.9778752824111052
 30
0.0
 11
3905.0502516481110433
 21
104.9778752824111052
 31
0.0
  0
LINE
  5
6D09
  8
0
 10
3891.4945056643109638
 20
99.5984558412111056
 30
0.0
 11
3891.5045056643098178
 21
99.4402441532111254
 31
0.0
  0
LINE
  5
6D0A
  8
0
 10
3891.4946294222108918
 20
112.9184785040111052
 30
0.0
 11
3891.4947510179108576
 21
112.9135764646110971
 31
0.0
  0
LINE
  5
6D0B
  8
0
 10
3892.074381906410963
 20
99.7917720608111267
 30
0.0
 11
3892.0742603107100877
 21
99.7966741002111348
 31
0.0
  0
LINE
  5
6D0C
  8
0
 10
3891.4945056643109638
 20
99.5984558412111056
 30
0.0
 11
3891.4945056643109638
 21
99.7860516697111422
 31
0.0
  0
LINE
  5
6D0D
  8
0
 10
3891.4945056643109638
 20
112.924198895111104
 30
0.0
 11
3891.4945056643109638
 21
113.1117947237110997
 31
0.0
  0
LINE
  5
6D0E
  8
0
 10
3891.7317556643110947
 20
112.6976853830111054
 30
0.0
 11
3891.7317556643110947
 21
112.1278752824110967
 31
0.0
  0
LINE
  5
6D0F
  8
0
 10
3891.7317556643110947
 20
100.0125651814111052
 30
0.0
 11
3891.7317556643110947
 21
100.5823752824111068
 31
0.0
  0
LINE
  5
6D10
  8
0
 10
3891.8372556643112148
 20
112.6976853835111001
 30
0.0
 11
3891.8372556643112148
 21
112.1278752824110967
 31
0.0
  0
LINE
  5
6D11
  8
0
 10
3891.8372556643112148
 20
100.0125651818110981
 30
0.0
 11
3891.8372556643112148
 21
100.5823752824111068
 31
0.0
  0
LINE
  5
6D12
  8
0
 10
3891.4947001724099209
 20
99.7945771442111464
 30
0.0
 11
3891.4945320079109479
 21
99.7872058412111329
 31
0.0
  0
LINE
  5
6D13
  8
0
 10
3891.4948758834098044
 20
99.8011995649111157
 30
0.0
 11
3891.4946514874109198
 21
99.792779443711126
 31
0.0
  0
LINE
  5
6D14
  8
0
 10
3892.0741354452111409
 20
112.9090509999111021
 30
0.0
 11
3892.0743682727102168
 21
112.9180334097111
 31
0.0
  0
LINE
  5
6D15
  8
0
 10
3892.0741363421097958
 20
112.9090509703110996
 30
0.0
 11
3892.0741801708109051
 21
112.910514807511106
 31
0.0
  0
LINE
  5
6D16
  8
0
 10
3891.5045056643098178
 20
113.2700064116111065
 30
0.0
 11
3891.4945056643109638
 21
113.1117947237110997
 31
0.0
  0
LINE
  5
6D17
  8
0
 10
3878.5054795657101749
 20
105.5823752824111068
 30
0.0
 11
3889.7383200560111618
 21
105.5823752824111068
 31
0.0
  0
LINE
  5
6D18
  8
0
 10
3893.8306920013110357
 20
105.5823752824111068
 30
0.0
 11
3905.0635317629098608
 21
105.5823752824111068
 31
0.0
  0
LINE
  5
6D19
  8
0
 10
3878.5039266843109544
 20
105.687875282411099
 30
0.0
 11
3889.7014634310107795
 21
105.687875282411099
 31
0.0
  0
LINE
  5
6D1A
  8
0
 10
3893.8675502375108408
 20
105.687875282411099
 30
0.0
 11
3905.0650846444109447
 21
105.687875282411099
 31
0.0
  0
LINE
  5
6D1B
  8
0
 10
3878.499402866310902
 20
106.3023752824111057
 30
0.0
 11
3889.5978449114099931
 21
106.3023752824111057
 31
0.0
  0
LINE
  5
6D1C
  8
0
 10
3893.9711679198107959
 20
106.3023752824111057
 30
0.0
 11
3905.0696084624100877
 21
106.3023752824111057
 31
0.0
  0
LINE
  5
6D1D
  8
0
 10
3878.499402866310902
 20
106.4078752824110978
 30
0.0
 11
3889.5978434088101494
 21
106.4078752824110978
 31
0.0
  0
LINE
  5
6D1E
  8
0
 10
3893.9711664172109522
 20
106.4078752824110978
 30
0.0
 11
3905.0696084624100877
 21
106.4078752824110978
 31
0.0
  0
LINE
  5
6D1F
  8
0
 10
3892.074505664310891
 20
113.1117947237110997
 30
0.0
 11
3892.064505664310218
 21
113.2700064116111065
 31
0.0
  0
LINE
  5
6D20
  8
0
 10
3892.074505664310891
 20
113.1117947237110997
 30
0.0
 11
3892.074505664310891
 21
112.924198895111104
 31
0.0
  0
LINE
  5
6D21
  8
0
 10
3892.074505664310891
 20
99.7860516697111422
 30
0.0
 11
3892.074505664310891
 21
99.5984558412111056
 31
0.0
  0
LINE
  5
6D22
  8
0
 10
3892.0743598413109794
 20
112.917471121111106
 30
0.0
 11
3892.0744793208109513
 21
112.9230447237111008
 31
0.0
  0
LINE
  5
6D23
  8
0
 10
3892.064505664310218
 20
99.4402441532111254
 30
0.0
 11
3892.074505664310891
 21
99.5984558412111056
 31
0.0
  0
LINE
  5
6D24
  8
0
 10
3878.5039266843109544
 20
107.0223752824111045
 30
0.0
 11
3889.7014610911101045
 21
107.0223752824111045
 31
0.0
  0
LINE
  5
6D25
  8
0
 10
3893.8675478976101658
 20
107.0223752824111045
 30
0.0
 11
3905.0650846444109447
 21
107.0223752824111045
 31
0.0
  0
LINE
  5
6D26
  8
0
 10
3878.5054795657101749
 20
107.1278752824110967
 30
0.0
 11
3889.738319327409954
 21
107.1278752824110967
 31
0.0
  0
LINE
  5
6D27
  8
0
 10
3893.8306912727111921
 20
107.1278752824110967
 30
0.0
 11
3905.0635317629098608
 21
107.1278752824110967
 31
0.0
  0
LINE
  5
6D28
  8
0
 10
3893.8157556643109274
 20
99.7872058412111329
 30
0.0
 11
3893.8157556643109274
 21
100.5823752824111068
 31
0.0
  0
LINE
  5
6D29
  8
0
 10
3893.8157556643109274
 20
100.687875282411099
 30
0.0
 11
3893.8157556643109274
 21
101.2923752824111006
 31
0.0
  0
LINE
  5
6D2A
  8
0
 10
3893.8157556643109274
 20
101.3978752824111069
 30
0.0
 11
3893.8157556643109274
 21
102.0123752824110994
 31
0.0
  0
LINE
  5
6D2B
  8
0
 10
3893.8157556643109274
 20
102.1178752824111058
 30
0.0
 11
3893.8157556643109274
 21
102.7223752824110932
 31
0.0
  0
LINE
  5
6D2C
  8
0
 10
3893.8157556643109274
 20
102.8278752824110995
 30
0.0
 11
3893.8157556643109274
 21
103.4423752824111062
 31
0.0
  0
LINE
  5
6D2D
  8
0
 10
3893.8157556643109274
 20
103.5478752824110984
 30
0.0
 11
3893.8157556643109274
 21
104.1523752824111
 31
0.0
  0
LINE
  5
6D2E
  8
0
 10
3893.8157556643109274
 20
104.2578752824111064
 30
0.0
 11
3893.8157556643109274
 21
104.8723752824110989
 31
0.0
  0
LINE
  5
6D2F
  8
0
 10
3893.8157556643109274
 20
104.9778752824111052
 30
0.0
 11
3893.8157556643109274
 21
105.5432808052110971
 31
0.0
  0
LINE
  5
6D30
  8
0
 10
3893.8157556643109274
 20
107.1669611048110937
 30
0.0
 11
3893.8157556643109274
 21
107.7323752824110983
 31
0.0
  0
LINE
  5
6D31
  8
0
 10
3893.8157556643109274
 20
107.8378752824111046
 30
0.0
 11
3893.8157556643109274
 21
108.4523752824110971
 31
0.0
  0
LINE
  5
6D32
  8
0
 10
3893.8157556643109274
 20
108.5578752824111035
 30
0.0
 11
3893.8157556643109274
 21
109.1623752824111051
 31
0.0
  0
LINE
  5
6D33
  8
0
 10
3893.8157556643109274
 20
109.2678752824110973
 30
0.0
 11
3893.8157556643109274
 21
109.882375282411104
 31
0.0
  0
LINE
  5
6D34
  8
0
 10
3893.8157556643109274
 20
109.9878752824110961
 30
0.0
 11
3893.8157556643109274
 21
110.5923752824110977
 31
0.0
  0
LINE
  5
6D35
  8
0
 10
3893.8157556643109274
 20
110.6978752824111041
 30
0.0
 11
3893.8157556643109274
 21
111.3123752824110966
 31
0.0
  0
LINE
  5
6D36
  8
0
 10
3893.8157556643109274
 20
111.4178752824111029
 30
0.0
 11
3893.8157556643109274
 21
112.0223752824111045
 31
0.0
  0
LINE
  5
6D37
  8
0
 10
3893.8157556643109274
 20
112.1278752824110967
 30
0.0
 11
3893.8157556643109274
 21
112.9230447237111008
 31
0.0
  0
LINE
  5
6D38
  8
0
 10
3905.0950517509108977
 20
110.3645119578111036
 30
0.0
 11
3905.2517803800101319
 21
110.3883252953111054
 31
0.0
  0
LINE
  5
6D39
  8
0
 10
3878.5187596806108559
 20
107.7323752824110983
 30
0.0
 11
3890.0853471969107886
 21
107.7323752824110983
 31
0.0
  0
LINE
  5
6D3A
  8
0
 10
3893.4836630807108122
 20
107.7323752824110983
 30
0.0
 11
3905.0502516481110433
 21
107.7323752824110983
 31
0.0
  0
LINE
  5
6D3B
  8
0
 10
3878.5218661166099992
 20
107.8378752824111046
 30
0.0
 11
3890.1765856925098888
 21
107.8378752824111046
 31
0.0
  0
LINE
  5
6D3C
  8
0
 10
3893.392424539511012
 20
107.8378752824111046
 30
0.0
 11
3905.047145212110081
 21
107.8378752824111046
 31
0.0
  0
LINE
  5
6D3D
  8
0
 10
3878.544353379810218
 20
108.4523752824110971
 30
0.0
 11
3891.1636046131097828
 21
108.4523752824110971
 31
0.0
  0
LINE
  5
6D3E
  8
0
 10
3892.405406460110953
 20
108.4523752824110971
 30
0.0
 11
3905.024657948811182
 21
108.4523752824110971
 31
0.0
  0
LINE
  5
6D3F
  8
0
 10
3878.3172309487108578
 20
110.3883252953111054
 30
0.0
 11
3878.4739595777109571
 21
110.3645119578111036
 31
0.0
  0
LINE
  5
6D40
  8
0
 10
3894.0032556643109274
 20
99.7872058412111329
 30
0.0
 11
3894.0032556643109274
 21
100.5823752824111068
 31
0.0
  0
LINE
  5
6D41
  8
0
 10
3894.0032556643109274
 20
100.687875282411099
 30
0.0
 11
3894.0032556643109274
 21
101.2923752824111006
 31
0.0
  0
LINE
  5
6D42
  8
0
 10
3894.0032556643109274
 20
101.3978752824111069
 30
0.0
 11
3894.0032556643109274
 21
102.0123752824110994
 31
0.0
  0
LINE
  5
6D43
  8
0
 10
3894.0032556643109274
 20
102.1178752824111058
 30
0.0
 11
3894.0032556643109274
 21
102.7223752824110932
 31
0.0
  0
LINE
  5
6D44
  8
0
 10
3894.0032556643109274
 20
102.8278752824110995
 30
0.0
 11
3894.0032556643109274
 21
103.4423752824111062
 31
0.0
  0
LINE
  5
6D45
  8
0
 10
3894.0032556643109274
 20
103.5478752824110984
 30
0.0
 11
3894.0032556643109274
 21
104.1523752824111
 31
0.0
  0
LINE
  5
6D46
  8
0
 10
3894.0032556643109274
 20
104.2578752824111064
 30
0.0
 11
3894.0032556643109274
 21
104.8723752824110989
 31
0.0
  0
LINE
  5
6D47
  8
0
 10
3894.0032556643109274
 20
104.9778752824111052
 30
0.0
 11
3894.0032556643109274
 21
105.5823752824111068
 31
0.0
  0
LINE
  5
6D48
  8
0
 10
3894.0032556643109274
 20
105.687875282411099
 30
0.0
 11
3894.0032556643109274
 21
106.3023752824111057
 31
0.0
  0
LINE
  5
6D49
  8
0
 10
3894.0032556643109274
 20
106.4078752824110978
 30
0.0
 11
3894.0032556643109274
 21
107.0223752824111045
 31
0.0
  0
LINE
  5
6D4A
  8
0
 10
3894.0032556643109274
 20
107.1278752824110967
 30
0.0
 11
3894.0032556643109274
 21
107.7323752824110983
 31
0.0
  0
LINE
  5
6D4B
  8
0
 10
3894.0032556643109274
 20
107.8378752824111046
 30
0.0
 11
3894.0032556643109274
 21
108.4523752824110971
 31
0.0
  0
LINE
  5
6D4C
  8
0
 10
3894.0032556643109274
 20
108.5578752824111035
 30
0.0
 11
3894.0032556643109274
 21
109.1623752824111051
 31
0.0
  0
LINE
  5
6D4D
  8
0
 10
3894.0032556643109274
 20
109.2678752824110973
 30
0.0
 11
3894.0032556643109274
 21
109.882375282411104
 31
0.0
  0
LINE
  5
6D4E
  8
0
 10
3894.0032556643109274
 20
109.9878752824110961
 30
0.0
 11
3894.0032556643109274
 21
110.5923752824110977
 31
0.0
  0
LINE
  5
6D4F
  8
0
 10
3894.0032556643109274
 20
110.6978752824111041
 30
0.0
 11
3894.0032556643109274
 21
111.3123752824110966
 31
0.0
  0
LINE
  5
6D50
  8
0
 10
3894.0032556643109274
 20
111.4178752824111029
 30
0.0
 11
3894.0032556643109274
 21
112.0223752824111045
 31
0.0
  0
LINE
  5
6D51
  8
0
 10
3894.0032556643109274
 20
112.1278752824110967
 30
0.0
 11
3894.0032556643109274
 21
112.9230447237111008
 31
0.0
  0
LINE
  5
6D52
  8
0
 10
3904.8517085921112084
 20
110.9252362429110974
 30
0.0
 11
3904.846836022610205
 21
110.9246859311110995
 31
0.0
  0
LINE
  5
6D53
  8
0
 10
3905.0950517509108977
 20
110.3645119578111036
 30
0.0
 11
3904.908176298410126
 21
110.3480875817110984
 31
0.0
  0
LINE
  5
6D54
  8
0
 10
3904.8996665326108086
 20
110.3475349211111052
 30
0.0
 11
3904.9063564742100425
 21
110.3479684819110958
 31
0.0
  0
LINE
  5
6D55
  8
0
 10
3904.8945162607110433
 20
110.3472137571111062
 30
0.0
 11
3904.9014615923110796
 21
110.3476438152111001
 31
0.0
  0
LINE
  5
6D56
  8
0
 10
3878.549014717611044
 20
108.5578752824111035
 30
0.0
 11
3905.0199966111099457
 21
108.5578752824111035
 31
0.0
  0
LINE
  5
6D57
  8
0
 10
3878.5799880538102116
 20
109.1623752824111051
 30
0.0
 11
3904.9890232749107781
 21
109.1623752824111051
 31
0.0
  0
LINE
  5
6D58
  8
0
 10
3878.5862063170097827
 20
109.2678752824110973
 30
0.0
 11
3904.9828050116111626
 21
109.2678752824110973
 31
0.0
  0
LINE
  5
6D59
  8
0
 10
3878.6665442900098242
 20
110.3477100331110989
 30
0.0
 11
3878.6714381514098022
 21
110.347401978911094
 31
0.0
  0
LINE
  5
6D5A
  8
0
 10
3878.6608350303108637
 20
110.3480875817110984
 30
0.0
 11
3878.4739595777109571
 21
110.3645119578111036
 31
0.0
  0
LINE
  5
6D5B
  8
0
 10
3904.857396181410877
 20
110.9258603568110999
 30
0.0
 11
3905.0442716339111939
 21
110.942284732911105
 31
0.0
  0
LINE
  5
6D5C
  8
0
 10
3904.8930541584099956
 20
110.3471301517110987
 30
0.0
 11
3904.8956686876099411
 21
110.3472874550110987
 31
0.0
  0
LINE
  5
6D5D
  8
0
 10
3878.6267185306101055
 20
109.882375282411104
 30
0.0
 11
3904.9422927981108842
 21
109.882375282411104
 31
0.0
  0
LINE
  5
6D5E
  8
0
 10
3878.6344964231097947
 20
109.9878752824110961
 30
0.0
 11
3904.9345149055111506
 21
109.9878752824110961
 31
0.0
  0
LINE
  5
6D5F
  8
0
 10
3878.5247396948097958
 20
110.942284732911105
 30
0.0
 11
3878.7116151473101127
 21
110.9258603568110999
 31
0.0
  0
LINE
  5
6D60
  8
0
 10
3905.2027513015109434
 20
110.9461748713111007
 30
0.0
 11
3905.0442716339111939
 21
110.942284732911105
 31
0.0
  0
LINE
  5
6D61
  8
0
 10
3878.9104183987101351
 20
110.5923752824110977
 30
0.0
 11
3904.6585929356110682
 21
110.5923752824110977
 31
0.0
  0
LINE
  5
6D62
  8
0
 10
3878.9180843818098765
 20
110.6978752824111041
 30
0.0
 11
3904.6509269515108826
 21
110.6978752824111041
 31
0.0
  0
LINE
  5
6D63
  8
0
 10
3878.7540008632108766
 20
111.3123752824110966
 30
0.0
 11
3904.8150104655101131
 21
111.3123752824110966
 31
0.0
  0
LINE
  5
6D64
  8
0
 10
3878.7735216893111101
 20
111.4178752824111029
 30
0.0
 11
3904.7954896394098796
 21
111.4178752824111029
 31
0.0
  0
LINE
  5
6D65
  8
0
 10
3878.5247396948097958
 20
110.942284732911105
 30
0.0
 11
3878.3662600272109557
 21
110.9461748713111007
 31
0.0
  0
LINE
  5
6D66
  8
0
 10
3879.0177712924100888
 20
112.0223752824111045
 30
0.0
 11
3904.5512400363109009
 21
112.0223752824111045
 31
0.0
  0
LINE
  5
6D67
  8
0
 10
3879.0882565122101369
 20
112.1278752824110967
 30
0.0
 11
3904.4807548164098989
 21
112.1278752824110967
 31
0.0
  0
LINE
  5
6D68
  8
0
 10
3899.1523943235611114
 20
99.5971729359111038
 30
0.0
 11
3899.1623943235599654
 21
99.4389612480111253
 31
0.0
  0
LINE
  5
6D69
  8
0
 10
3899.1625185000111742
 20
113.2712893168111066
 30
0.0
 11
3899.1525185000109559
 21
113.1130776289110997
 31
0.0
  0
LINE
  5
6D6A
  8
0
 10
3880.6370757501108528
 20
112.9230447237111008
 30
0.0
 11
3883.8364942985099333
 21
112.9230447237111008
 31
0.0
  0
LINE
  5
6D6B
  8
0
 10
3884.4164928287109433
 20
112.9230447237111008
 30
0.0
 11
3891.4945071342099254
 21
112.9230447237111008
 31
0.0
  0
LINE
  5
6D6C
  8
0
 10
3892.074505664310891
 20
112.9230447237111008
 30
0.0
 11
3899.1525199698098731
 21
112.9230447237111008
 31
0.0
  0
LINE
  5
6D6D
  8
0
 10
3899.7325185000108831
 20
112.9230447237111008
 30
0.0
 11
3902.9319355786101369
 21
112.9230447237111008
 31
0.0
  0
LINE
  5
6D6E
  8
0
 10
3880.6370757501108528
 20
113.1105447237111008
 30
0.0
 11
3883.8364928287101066
 21
113.1105447237111008
 31
0.0
  0
LINE
  5
6D6F
  8
0
 10
3884.4164928287109433
 20
113.1105447237111008
 30
0.0
 11
3891.4945056643109638
 21
113.1105447237111008
 31
0.0
  0
LINE
  5
6D70
  8
0
 10
3892.074505664310891
 20
113.1105447237111008
 30
0.0
 11
3899.1525185000109559
 21
113.1105447237111008
 31
0.0
  0
LINE
  5
6D71
  8
0
 10
3899.7325185000108831
 20
113.1105447237111008
 30
0.0
 11
3902.9319355786101369
 21
113.1105447237111008
 31
0.0
  0
LINE
  5
6D72
  8
0
 10
3899.1526422579108839
 20
112.9197614093111071
 30
0.0
 11
3899.1527638536099403
 21
112.9148593698110972
 31
0.0
  0
LINE
  5
6D73
  8
0
 10
3899.1525185000109559
 20
112.9254818003111041
 30
0.0
 11
3899.1525185000109559
 21
113.1130776289110997
 31
0.0
  0
LINE
  5
6D74
  8
0
 10
3899.1523943235611114
 20
99.5971729359111038
 30
0.0
 11
3899.1523943235611114
 21
99.7847687645111279
 31
0.0
  0
LINE
  5
6D75
  8
0
 10
3899.3897685000101774
 20
100.011321967186305
 30
0.0
 11
3899.3897685000101774
 21
100.5823752824111068
 31
0.0
  0
LINE
  5
6D76
  8
0
 10
3899.3897685000101774
 20
100.687875282411099
 30
0.0
 11
3899.3897685000101774
 21
101.2923752824111006
 31
0.0
  0
LINE
  5
6D77
  8
0
 10
3899.3897685000101774
 20
101.3978752824111069
 30
0.0
 11
3899.3897685000101774
 21
102.0123752824110994
 31
0.0
  0
LINE
  5
6D78
  8
0
 10
3899.3897685000101774
 20
102.1178752824111058
 30
0.0
 11
3899.3897685000101774
 21
102.7223752824110932
 31
0.0
  0
LINE
  5
6D79
  8
0
 10
3899.3897685000101774
 20
102.8278752824110995
 30
0.0
 11
3899.3897685000101774
 21
103.4423752824111062
 31
0.0
  0
LINE
  5
6D7A
  8
0
 10
3899.3897685000101774
 20
103.5478752824110984
 30
0.0
 11
3899.3897685000101774
 21
104.1523752824111
 31
0.0
  0
LINE
  5
6D7B
  8
0
 10
3899.3897685000101774
 20
104.2578752824111064
 30
0.0
 11
3899.3897685000101774
 21
104.8723752824110989
 31
0.0
  0
LINE
  5
6D7C
  8
0
 10
3899.3897685000101774
 20
104.9778752824111052
 30
0.0
 11
3899.3897685000101774
 21
105.5823752824111068
 31
0.0
  0
LINE
  5
6D7D
  8
0
 10
3899.3897685000101774
 20
105.687875282411099
 30
0.0
 11
3899.3897685000101774
 21
106.3023752824111057
 31
0.0
  0
LINE
  5
6D7E
  8
0
 10
3899.3897685000101774
 20
106.4078752824110978
 30
0.0
 11
3899.3897685000101774
 21
107.0223752824111045
 31
0.0
  0
LINE
  5
6D7F
  8
0
 10
3899.3897685000101774
 20
107.1278752824110967
 30
0.0
 11
3899.3897685000101774
 21
107.7323752824110983
 31
0.0
  0
LINE
  5
6D80
  8
0
 10
3899.3897685000101774
 20
107.8378752824111046
 30
0.0
 11
3899.3897685000101774
 21
108.4523752824110971
 31
0.0
  0
LINE
  5
6D81
  8
0
 10
3899.3897685000101774
 20
108.5578752824111035
 30
0.0
 11
3899.3897685000101774
 21
109.1623752824111051
 31
0.0
  0
LINE
  5
6D82
  8
0
 10
3899.3897685000101774
 20
109.2678752824110973
 30
0.0
 11
3899.3897685000101774
 21
109.882375282411104
 31
0.0
  0
LINE
  5
6D83
  8
0
 10
3899.3897685000101774
 20
109.9878752824110961
 30
0.0
 11
3899.3897685000101774
 21
110.5923752824110977
 31
0.0
  0
LINE
  5
6D84
  8
0
 10
3899.3897685000101774
 20
110.6978752824111041
 30
0.0
 11
3899.3897685000101774
 21
111.3123752824110966
 31
0.0
  0
LINE
  5
6D85
  8
0
 10
3899.3897685000101774
 20
111.4178752824111029
 30
0.0
 11
3899.3897685000101774
 21
112.0223752824111045
 31
0.0
  0
LINE
  5
6D86
  8
0
 10
3899.3897685000101774
 20
112.1278752824110967
 30
0.0
 11
3899.3897685000101774
 21
112.6989682882111055
 31
0.0
  0
LINE
  5
6D87
  8
0
 10
3899.4952685000098427
 20
100.0115262082074992
 30
0.0
 11
3899.4952685000098427
 21
100.5823752824111068
 31
0.0
  0
LINE
  5
6D88
  8
0
 10
3899.4952685000098427
 20
100.687875282411099
 30
0.0
 11
3899.4952685000098427
 21
101.2923752824111006
 31
0.0
  0
LINE
  5
6D89
  8
0
 10
3899.4952685000098427
 20
101.3978752824111069
 30
0.0
 11
3899.4952685000098427
 21
102.0123752824110994
 31
0.0
  0
LINE
  5
6D8A
  8
0
 10
3899.4952685000098427
 20
102.1178752824111058
 30
0.0
 11
3899.4952685000098427
 21
102.7223752824110932
 31
0.0
  0
LINE
  5
6D8B
  8
0
 10
3899.4952685000098427
 20
102.8278752824110995
 30
0.0
 11
3899.4952685000098427
 21
103.4423752824111062
 31
0.0
  0
LINE
  5
6D8C
  8
0
 10
3899.4952685000098427
 20
103.5478752824110984
 30
0.0
 11
3899.4952685000098427
 21
104.1523752824111
 31
0.0
  0
LINE
  5
6D8D
  8
0
 10
3899.4952685000098427
 20
104.2578752824111064
 30
0.0
 11
3899.4952685000098427
 21
104.8723752824110989
 31
0.0
  0
LINE
  5
6D8E
  8
0
 10
3899.4952685000098427
 20
104.9778752824111052
 30
0.0
 11
3899.4952685000098427
 21
105.5823752824111068
 31
0.0
  0
LINE
  5
6D8F
  8
0
 10
3899.4952685000098427
 20
105.687875282411099
 30
0.0
 11
3899.4952685000098427
 21
106.3023752824111057
 31
0.0
  0
LINE
  5
6D90
  8
0
 10
3899.4952685000098427
 20
106.4078752824110978
 30
0.0
 11
3899.4952685000098427
 21
107.0223752824111045
 31
0.0
  0
LINE
  5
6D91
  8
0
 10
3899.4952685000098427
 20
107.1278752824110967
 30
0.0
 11
3899.4952685000098427
 21
107.7323752824110983
 31
0.0
  0
LINE
  5
6D92
  8
0
 10
3899.4952685000098427
 20
107.8378752824111046
 30
0.0
 11
3899.4952685000098427
 21
108.4523752824110971
 31
0.0
  0
LINE
  5
6D93
  8
0
 10
3899.4952685000098427
 20
108.5578752824111035
 30
0.0
 11
3899.4952685000098427
 21
109.1623752824111051
 31
0.0
  0
LINE
  5
6D94
  8
0
 10
3899.4952685000098427
 20
109.2678752824110973
 30
0.0
 11
3899.4952685000098427
 21
109.882375282411104
 31
0.0
  0
LINE
  5
6D95
  8
0
 10
3899.4952685000098427
 20
109.9878752824110961
 30
0.0
 11
3899.4952685000098427
 21
110.5923752824110977
 31
0.0
  0
LINE
  5
6D96
  8
0
 10
3899.4952685000098427
 20
110.6978752824111041
 30
0.0
 11
3899.4952685000098427
 21
111.3123752824110966
 31
0.0
  0
LINE
  5
6D97
  8
0
 10
3899.4952685000098427
 20
111.4178752824111029
 30
0.0
 11
3899.4952685000098427
 21
112.0223752824111045
 31
0.0
  0
LINE
  5
6D98
  8
0
 10
3899.4952685000098427
 20
112.1278752824110967
 30
0.0
 11
3899.4952685000098427
 21
112.6989682887111002
 31
0.0
  0
LINE
  5
6D99
  8
0
 10
3899.7325185000108831
 20
113.1130776289110997
 30
0.0
 11
3899.7325185000108831
 21
112.9254818003111041
 31
0.0
  0
LINE
  5
6D9A
  8
0
 10
3899.7323943235601291
 20
99.7847687645111279
 30
0.0
 11
3899.7323943235601291
 21
99.5971729359111038
 31
0.0
  0
LINE
  5
6D9B
  8
0
 10
3899.7323239919110165
 20
112.9169563259111015
 30
0.0
 11
3899.7324646552101512
 21
112.9230447237111008
 31
0.0
  0
LINE
  5
6D9C
  8
0
 10
3899.732148280911133
 20
112.9103339052111039
 30
0.0
 11
3899.7323726769100176
 21
112.9187540264110936
 31
0.0
  0
LINE
  5
6D9D
  8
0
 10
3899.7325185000108831
 20
113.1130776289110997
 30
0.0
 11
3899.7225185000111196
 21
113.2712893168111066
 31
0.0
  0
LINE
  5
6D9E
  8
0
 10
3899.7223943235608203
 20
99.4389612480111253
 30
0.0
 11
3899.7323943235601291
 21
99.5971729359111038
 31
0.0
  0
ARC
  5
6D9F
  8
0
 10
3880.6370757501108528
 20
101.6934558412111045
 30
0.0
 40
2.09375
 50
185.6922097851987985
 51
270.0
  0
ARC
  5
6DA0
  8
0
 10
3876.9998598059110009
 20
101.9253170799110961
 30
0.0
 40
1.9202478799999989
 50
358.2205663571998002
 51
11.8250071019001197
  0
ARC
  5
6DA1
  8
0
 10
3880.1880655250101881
 20
102.2055266475111068
 30
0.0
 40
1.9202478799999989
 50
178.2205663571998002
 51
191.8250071019000984
  0
ARC
  5
6DA2
  8
0
 10
3884.1264928287109797
 20
98.0932079612111352
 30
0.0
 40
1.9202478799999989
 50
83.1977796275915864
 51
96.8022203724084278
  0
ARC
  5
6DA3
  8
0
 10
3884.1264928287109797
 20
101.2937037211111004
 30
0.0
 40
1.9202478799999989
 50
263.1977796275916148
 51
276.8022203724083852
  0
ARC
  5
6DA4
  8
0
 10
3880.6370757501108528
 20
101.6934558412111045
 30
0.0
 40
1.90625
 50
185.6922097851987985
 51
270.0
  0
ARC
  5
6DA5
  8
0
 10
3878.5070537157098443
 20
103.6739004677111069
 30
0.0
 40
1.9002965603999991
 50
276.1790250368991906
 51
281.0150097912944034
  0
ARC
  5
6DA6
  8
0
 10
3890.1745946395099054
 20
99.7477060636111332
 30
0.0
 40
1.9002965603999991
 50
1.156237143099887
 51
5.992221899399607
  0
ARC
  5
6DA7
  8
0
 10
3882.5165818038099133
 20
99.7477060636111332
 30
0.0
 40
1.9002965603999991
 50
1.156237143099887
 51
5.992221899399607
  0
ARC
  5
6DA8
  8
0
 10
3878.7888984122100737
 20
100.468551240911097
 30
0.0
 40
1.8981883249999989
 50
89.0278135021945047
 51
93.8691270348043787
  0
ARC
  5
6DA9
  8
0
 10
3885.7342984004108075
 20
99.7478339405111285
 30
0.0
 40
1.8981883249999989
 50
174.0050271554013079
 51
178.8463406887996996
  0
ARC
  5
6DAA
  8
0
 10
3878.8206295834102093
 20
102.306525149411101
 30
0.0
 40
0.06
 50
11.8250071019001197
 51
22.3434400726040607
  0
ARC
  5
6DAB
  8
0
 10
3878.3287147108108002
 20
102.2632910341111057
 30
0.0
 40
0.06
 50
101.0558335224892943
 51
178.220566357099699
  0
ARC
  5
6DAC
  8
0
 10
3878.8592106202099785
 20
101.8675526933110973
 30
0.0
 40
0.06
 50
347.7021333865017141
 51
358.220566357099699
  0
ARC
  5
6DAD
  8
0
 10
3878.3672957475109797
 20
101.824318578011102
 30
0.0
 40
0.06
 50
191.8250071019000984
 51
268.9897399364975854
  0
ARC
  5
6DAE
  8
0
 10
3891.5641733508100515
 20
99.9403614054111245
 30
0.0
 40
0.06
 50
96.8022203724084278
 51
107.3206533429980993
  0
ARC
  5
6DAF
  8
0
 10
3891.5641733508100515
 20
99.4465502769111254
 30
0.0
 40
0.06
 50
186.03304679299859
 51
263.1977796275916148
  0
ARC
  5
6DB0
  8
0
 10
3883.9061605151109688
 20
99.9403614054111245
 30
0.0
 40
0.06
 50
96.8022203724084278
 51
107.3206533429980993
  0
ARC
  5
6DB1
  8
0
 10
3883.9061605151109688
 20
99.4465502769111254
 30
0.0
 40
0.06
 50
186.03304679299859
 51
263.1977796275916148
  0
ARC
  5
6DB2
  8
0
 10
3884.3468251422100366
 20
99.9403614054111245
 30
0.0
 40
0.06
 50
72.6793466570019291
 51
83.1977796275915864
  0
ARC
  5
6DB3
  8
0
 10
3884.3468251422100366
 20
99.4465502769111254
 30
0.0
 40
0.06
 50
276.8022203724083852
 51
353.9669532070005857
  0
ARC
  5
6DB4
  8
0
 10
3856.1636895347101017
 20
106.3551252824110946
 30
0.0
 40
49.09375
 50
5.3611715162993852
 51
5.6922097851996556
  0
ARC
  5
6DB5
  8
0
 10
3856.1636895347101017
 20
106.3551252824110946
 30
0.0
 40
49.09375
 50
355.3159949537003968
 51
4.6842954883009629
  0
ARC
  5
6DB6
  8
0
 10
3856.1636895347101017
 20
106.3551252824110946
 30
0.0
 40
49.09375
 50
354.3077902148003204
 51
354.6391189230005239
  0
ARC
  5
6DB7
  8
0
 10
3856.1636895347101017
 20
106.3551252824110946
 30
0.0
 40
48.90625
 50
5.3624680005012921
 51
5.6922097851996556
  0
ARC
  5
6DB8
  8
0
 10
3856.1636895347101017
 20
106.3551252824110946
 30
0.0
 40
48.90625
 50
355.3172928216991977
 51
4.6829970122991442
  0
ARC
  5
6DB9
  8
0
 10
3856.1636895347101017
 20
106.3551252824110946
 30
0.0
 40
48.90625
 50
354.3077902148003204
 51
354.6378218307996235
  0
ARC
  5
6DBA
  8
0
 10
3891.7845050462101426
 20
106.3551262733111002
 30
0.0
 40
2.1874987302000002
 50
359.9999740468994105
 51
180.0000259530997937
  0
ARC
  5
6DBB
  8
0
 10
3880.6370757501108528
 20
111.0167947237111008
 30
0.0
 40
2.09375
 50
90.0
 51
174.3077902148012015
  0
ARC
  5
6DBC
  8
0
 10
3891.7845050462101426
 20
106.3551262733111002
 30
0.0
 40
2.0000002593000001
 50
359.9999716137995733
 51
180.0000283861994888
  0
ARC
  5
6DBD
  8
0
 10
3884.1263587999201263
 20
114.6205807318793006
 30
0.0
 40
1.922503107740114
 50
263.2097065927131894
 51
276.7982259528315012
  0
ARC
  5
6DBE
  8
0
 10
3884.1264928287109797
 20
111.4178297489111031
 30
0.0
 40
1.9202478799999989
 50
83.1977796275915864
 51
96.8022203724084278
  0
ARC
  5
6DBF
  8
0
 10
3876.9998819726110924
 20
110.7851856962111015
 30
0.0
 40
1.9202478799999989
 50
348.1749928980997879
 51
1.779433642800176
  0
ARC
  5
6DC0
  8
0
 10
3880.1880876917098249
 20
110.5049761285111032
 30
0.0
 40
1.9202478799999989
 50
168.1749928980997879
 51
181.7794336427992903
  0
ARC
  5
6DC1
  8
0
 10
3880.6370757501108528
 20
111.0167947237111008
 30
0.0
 40
1.90625
 50
90.0
 51
174.3077902148012015
  0
ARC
  5
6DC2
  8
0
 10
3885.7364038510108912
 20
112.9638274489111041
 30
0.0
 40
1.9002965603999991
 50
181.156238424099314
 51
185.9922231799988879
  0
ARC
  5
6DC3
  8
0
 10
3878.7889775037101572
 20
112.2440601002111009
 30
0.0
 40
1.9002965603999991
 50
266.1334515778000878
 51
270.9694363323050084
  0
ARC
  5
6DC4
  8
0
 10
3882.5186872591111751
 20
112.9636995635110992
 30
0.0
 40
1.8981883249999989
 50
354.0050261298011947
 51
358.8463396630997977
  0
ARC
  5
6DC5
  8
0
 10
3890.1767000947111228
 20
112.9624166583110991
 30
0.0
 40
1.8981883249999989
 50
354.0050261291007132
 51
358.8463396624994175
  0
ARC
  5
6DC6
  8
0
 10
3878.507387630409994
 20
109.038688477211096
 30
0.0
 40
1.8981883249999989
 50
78.982240043206005
 51
83.823553575808603
  0
ARC
  5
6DC7
  8
0
 10
3884.3468251422100366
 20
112.7711720646110933
 30
0.0
 40
0.06
 50
276.8022203724083852
 51
287.3206533429981278
  0
ARC
  5
6DC8
  8
0
 10
3884.3468251422100366
 20
113.2649831932110942
 30
0.0
 40
0.06
 50
6.03304679299859
 51
83.1977796275915864
  0
ARC
  5
6DC9
  8
0
 10
3883.9061605151109688
 20
113.2649831932110942
 30
0.0
 40
0.06
 50
96.8022203724084278
 51
173.96695320700141
  0
ARC
  5
6DCA
  8
0
 10
3891.5641733508100515
 20
112.7698891594110933
 30
0.0
 40
0.06
 50
252.6793466570019007
 51
263.1977796275916148
  0
ARC
  5
6DCB
  8
0
 10
3891.5641733508100515
 20
113.2637002879111066
 30
0.0
 40
0.06
 50
96.8022203724084278
 51
173.96695320700141
  0
ARC
  5
6DCC
  8
0
 10
3878.85923278691007
 20
110.8429500828111003
 30
0.0
 40
0.06
 50
1.7794336428994639
 51
12.2978666134983001
  0
ARC
  5
6DCD
  8
0
 10
3878.3673179142110712
 20
110.8861841981110956
 30
0.0
 40
0.06
 50
91.0102600635023293
 51
168.1749928980997879
  0
ARC
  5
6DCE
  8
0
 10
3878.820651750109846
 20
110.4039776267110966
 30
0.0
 40
0.06
 50
337.6565599275007798
 51
348.1749928980997879
  0
ARC
  5
6DCF
  8
0
 10
3878.3287368775108916
 20
110.4472117420111061
 30
0.0
 40
0.06
 50
181.7794336428993915
 51
258.9441664775106915
  0
ARC
  5
6DD0
  8
0
 10
3891.7845062824108027
 20
106.3551242915111033
 30
0.0
 40
2.1874987302000002
 50
179.9999740468992968
 51
0.000025953099847
  0
ARC
  5
6DD1
  8
0
 10
3902.9319355786101369
 20
101.6934558412111045
 30
0.0
 40
2.09375
 50
270.0
 51
354.3077902148003204
  0
ARC
  5
6DD2
  8
0
 10
3891.7845062824108027
 20
106.3551242915111033
 30
0.0
 40
2.0000002593000001
 50
179.9999716137996018
 51
0.0000283861995481
  0
ARC
  5
6DD3
  8
0
 10
3891.7845056643100179
 20
98.0932079612111352
 30
0.0
 40
1.9202478799999989
 50
83.1977796275915864
 51
96.8022203724084278
  0
ARC
  5
6DD4
  8
0
 10
3891.7845056643100179
 20
101.2937037211111004
 30
0.0
 40
1.9202478799999989
 50
263.1977796275916148
 51
276.8022203724083852
  0
ARC
  5
6DD5
  8
0
 10
3899.4461133757358766
 20
98.1545033439404051
 30
0.0
 40
1.8576733148358671
 50
83.0830737026840751
 51
97.4825632658139227
  0
ARC
  5
6DD6
  8
0
 10
3899.4423943235601655
 20
101.2924208159111004
 30
0.0
 40
1.9202478799999989
 50
263.1977796275916148
 51
276.8022203724083852
  0
ARC
  5
6DD7
  8
0
 10
3906.5691511451109363
 20
101.9253127825110994
 30
0.0
 40
1.9202478799999989
 50
168.1749928980997879
 51
181.7794336427992903
  0
ARC
  5
6DD8
  8
0
 10
3903.3809454259107952
 20
102.2055223502110977
 30
0.0
 40
1.9202478799999989
 50
348.1749928980997879
 51
1.779433642800176
  0
ARC
  5
6DD9
  8
0
 10
3902.9319355786101369
 20
101.6934558412111045
 30
0.0
 40
1.90625
 50
270.0
 51
354.3077902148003204
  0
ARC
  5
6DDA
  8
0
 10
3897.832483298760053
 20
99.7464231584111189
 30
0.0
 40
1.9002965603999991
 50
1.156237143099887
 51
5.992221899399607
  0
ARC
  5
6DDB
  8
0
 10
3904.7800555781109324
 20
100.4664383796111053
 30
0.0
 40
1.9002965603999991
 50
86.1334504944904751
 51
90.9694352492999059
  0
ARC
  5
6DDC
  8
0
 10
3893.39231123601121
 20
99.7478339405111285
 30
0.0
 40
1.8981883249999989
 50
174.0050271557003896
 51
178.8463406890998044
  0
ARC
  5
6DDD
  8
0
 10
3901.0501998952609028
 20
99.7465510353111142
 30
0.0
 40
1.8981883249999989
 50
174.00502715490029
 51
178.8463406882997901
  0
ARC
  5
6DDE
  8
0
 10
3905.0616454902101395
 20
103.6718100011110977
 30
0.0
 40
1.8981883249999989
 50
258.9822399555034735
 51
263.8235534879884199
  0
ARC
  5
6DDF
  8
0
 10
3892.0048379779109382
 20
99.9403614054111245
 30
0.0
 40
0.06
 50
72.6793466570019291
 51
83.1977796275915864
  0
ARC
  5
6DE0
  8
0
 10
3892.0048379779109382
 20
99.4465502769111254
 30
0.0
 40
0.06
 50
276.8022203724083852
 51
353.9669532070005857
  0
ARC
  5
6DE1
  8
0
 10
3899.2220620099601547
 20
99.4452673717111253
 30
0.0
 40
0.06
 50
186.03304679299859
 51
263.1977796275916148
  0
ARC
  5
6DE2
  8
0
 10
3899.6627266371601763
 20
99.9390785002111244
 30
0.0
 40
0.06
 50
72.6793466570019291
 51
83.1977796275915864
  0
ARC
  5
6DE3
  8
0
 10
3899.6627266371601763
 20
99.4452673717111253
 30
0.0
 40
0.06
 50
276.8022203724083852
 51
353.9669532070005857
  0
ARC
  5
6DE4
  8
0
 10
3904.7098003308101397
 20
101.8675483960111023
 30
0.0
 40
0.06
 50
181.7794336428993915
 51
192.2978666134982859
  0
ARC
  5
6DE5
  8
0
 10
3905.2017152034109131
 20
101.8243142806111052
 30
0.0
 40
0.06
 50
271.0102600635023009
 51
348.1749928980997879
  0
ARC
  5
6DE6
  8
0
 10
3904.7483813676099089
 20
102.306520852111106
 30
0.0
 40
0.06
 50
157.6565599273959037
 51
168.1749928980997879
  0
ARC
  5
6DE7
  8
0
 10
3905.240296240211137
 20
102.2632867367110947
 30
0.0
 40
0.06
 50
1.7794336428994639
 51
78.9441664775107057
  0
ARC
  5
6DE8
  8
0
 10
3927.405321794010888
 20
106.3551252824110946
 30
0.0
 40
49.09375
 50
185.3608760426008075
 51
185.6922097851987985
  0
ARC
  5
6DE9
  8
0
 10
3927.4053313867630095
 20
106.3551248900457011
 30
0.0
 40
49.0937595927544024
 50
175.3157049695865055
 51
184.6839859938779114
  0
ARC
  5
6DEA
  8
0
 10
3927.405321794010888
 20
106.3551252824110946
 30
0.0
 40
49.09375
 50
174.3077902148012015
 51
174.6388284837005926
  0
ARC
  5
6DEB
  8
0
 10
3927.405321794010888
 20
106.3551252824110946
 30
0.0
 40
48.90625
 50
185.3621713938993025
 51
185.6922097851987985
  0
ARC
  5
6DEC
  8
0
 10
3927.405321794010888
 20
106.3551252824110946
 30
0.0
 40
48.90625
 50
175.3170012661992985
 51
184.6827271025044865
  0
ARC
  5
6DED
  8
0
 10
3927.405321794010888
 20
106.3551252824110946
 30
0.0
 40
48.90625
 50
174.3077902148012015
 51
174.637530278001293
  0
ARC
  5
6DEE
  8
0
 10
3902.9319355786101369
 20
111.0167947237111008
 30
0.0
 40
2.09375
 50
5.6922097851996556
 51
90.0
  0
ARC
  5
6DEF
  8
0
 10
3906.5691293560112172
 20
110.7851856962111015
 30
0.0
 40
1.9202478799999989
 50
178.2205663571998002
 51
191.8250071019000984
  0
ARC
  5
6DF0
  8
0
 10
3903.3809236369102109
 20
110.5049761285111032
 30
0.0
 40
1.9202478799999989
 50
358.2205663571998002
 51
11.8250071019001197
  0
ARC
  5
6DF1
  8
0
 10
3899.4425185000109195
 20
114.6183255088110968
 30
0.0
 40
1.9202478799999989
 50
263.1977796275916148
 51
276.8022203724083852
  0
ARC
  5
6DF2
  8
0
 10
3899.4425185000109195
 20
111.4178297489111031
 30
0.0
 40
1.9202478799999989
 50
83.1977796275915864
 51
96.8022203724084278
  0
ARC
  5
6DF3
  8
0
 10
3891.7845056643100179
 20
114.6170426036110968
 30
0.0
 40
1.9202478799999989
 50
263.1977796275916148
 51
276.8022203724083852
  0
ARC
  5
6DF4
  8
0
 10
3891.7845056643100179
 20
111.4165468437111031
 30
0.0
 40
1.9202478799999989
 50
83.1977796275915864
 51
96.8022203724084278
  0
ARC
  5
6DF5
  8
0
 10
3902.9319355786101369
 20
111.0167947237111008
 30
0.0
 40
1.90625
 50
5.6922097851996556
 51
90.0
  0
ARC
  5
6DF6
  8
0
 10
3905.0619354108098378
 20
109.0366023032110974
 30
0.0
 40
1.9002965603999991
 50
96.1790239566055476
 51
101.0150087115055015
  0
ARC
  5
6DF7
  8
0
 10
3901.0524295223108311
 20
112.9638274489111041
 30
0.0
 40
1.9002965603999991
 50
181.156238424399703
 51
185.9922231804004014
  0
ARC
  5
6DF8
  8
0
 10
3893.3944166867108834
 20
112.962544543711104
 30
0.0
 40
1.9002965603999991
 50
181.1562384254999927
 51
185.9922231813999929
  0
ARC
  5
6DF9
  8
0
 10
3904.7800907526097944
 20
112.2419515352111006
 30
0.0
 40
1.8981883249999989
 50
269.0278134170080762
 51
273.8691269494880203
  0
ARC
  5
6DFA
  8
0
 10
3897.8347129304111149
 20
112.9636995635110992
 30
0.0
 40
1.8981883249999989
 50
354.0050261303006778
 51
358.84633966369978
  0
ARC
  5
6DFB
  8
0
 10
3904.7483595786097794
 20
110.4039776267110966
 30
0.0
 40
0.06
 50
191.8250071019000984
 51
202.343440072604011
  0
ARC
  5
6DFC
  8
0
 10
3905.2402744512100981
 20
110.4472117420111061
 30
0.0
 40
0.06
 50
281.0558335224893085
 51
358.220566357099699
  0
ARC
  5
6DFD
  8
0
 10
3904.7097785418109197
 20
110.8429500828111003
 30
0.0
 40
0.06
 50
167.7021333865017141
 51
178.220566357099699
  0
ARC
  5
6DFE
  8
0
 10
3905.2016934144107836
 20
110.8861841981110956
 30
0.0
 40
0.06
 50
11.8250071019001197
 51
88.9897399364976565
  0
ARC
  5
6DFF
  8
0
 10
3899.6628508136109303
 20
112.7711720646110933
 30
0.0
 40
0.06
 50
276.8022203724083852
 51
287.3206533429981278
  0
ARC
  5
6E00
  8
0
 10
3899.6628508136109303
 20
113.2649831932110942
 30
0.0
 40
0.06
 50
6.03304679299859
 51
83.1977796275915864
  0
ARC
  5
6E01
  8
0
 10
3899.2221861864099992
 20
112.7711720646110933
 30
0.0
 40
0.06
 50
252.6793466570019007
 51
263.1977796275916148
  0
ARC
  5
6E02
  8
0
 10
3899.2221861864099992
 20
113.2649831932110942
 30
0.0
 40
0.06
 50
96.8022203724084278
 51
173.96695320700141
  0
ARC
  5
6E03
  8
0
 10
3892.0048379779109382
 20
112.7698891594110933
 30
0.0
 40
0.06
 50
276.8022203724083852
 51
287.3206533429981278
  0
ARC
  5
6E04
  8
0
 10
3892.0048379779109382
 20
113.2637002879111066
 30
0.0
 40
0.06
 50
6.03304679299859
 51
83.1977796275915864
  0
ARC
  5
6E05
  8
0
 10
3904.7060472168132037
 20
101.8637458995997065
 30
0.0
 40
0.0555996095989704
 50
189.2916823667532924
 51
262.5860112936450719
  0
ARC
  5
6E06
  8
0
 10
3904.7521037085530224
 20
102.3009114197097063
 30
0.0
 40
0.0656838077330548
 50
93.6677631808160243
 51
154.3633876061840056
  0
ARC
  5
6E07
  8
0
 10
3904.7456010670848627
 20
110.3999821778927952
 30
0.0
 40
0.0559922863257266
 50
199.634004358004006
 51
272.3368400656617041
  0
ARC
  5
6E08
  8
0
 10
3904.712803194944172
 20
110.8397489729748031
 30
0.0
 40
0.0636855042337242
 50
102.6549856356753025
 51
165.4673121113440004
  0
ARC
  5
6E09
  8
0
 10
3899.6628508136109303
 20
112.7711401272110976
 30
0.0
 40
0.06
 50
276.8022203724083852
 51
353.9669532070005857
  0
ARC
  5
6E0A
  8
0
 10
3899.2221861864099992
 20
112.7711401272110976
 30
0.0
 40
0.06
 50
186.03304679299859
 51
263.1977796275916148
  0
ARC
  5
6E0B
  8
0
 10
3892.0048379779109382
 20
112.7698572220110975
 30
0.0
 40
0.06
 50
276.8022203724083852
 51
353.9669532070005857
  0
ARC
  5
6E0C
  8
0
 10
3891.5641733507109166
 20
112.7698572220110975
 30
0.0
 40
0.06
 50
186.03304679299859
 51
263.1977796275916148
  0
ARC
  5
6E0D
  8
0
 10
3884.3468251423109905
 20
112.7711401272110976
 30
0.0
 40
0.06
 50
276.8022203724083852
 51
353.9669532070005857
  0
ARC
  5
6E0E
  8
0
 10
3883.9061605151109688
 20
112.7711401272110976
 30
0.0
 40
0.0600000000000017
 50
186.0330467929993858
 51
263.1941654927343848
  0
ARC
  5
6E0F
  8
0
 10
3878.8243686490650362
 20
110.3985643969252948
 30
0.0
 40
0.0546226318260949
 50
266.602183591745586
 51
341.4289672418676105
  0
ARC
  5
6E10
  8
0
 10
3878.8681139543209611
 20
110.852053518336902
 30
0.0
 40
0.0498777036165695
 50
4.226782264959045
 51
87.6529151882113666
  0
ARC
  5
6E11
  8
0
 10
3878.8698170447360098
 20
101.8566685234039966
 30
0.0
 40
0.0480541832666879
 50
270.3828841562421985
 51
357.7394134706930799
  0
ARC
  5
6E12
  8
0
 10
3878.8196025225661288
 20
102.3049092887397933
 30
0.0
 40
0.0615741322349262
 50
23.3708788115512682
 51
88.5979617667649819
  0
ARC
  5
6E13
  8
0
 10
3884.3477515888162088
 20
99.9411804061723643
 30
0.0
 40
0.0589457982852697
 50
4.7746938109674373
 51
73.3020304902235438
  0
ARC
  5
6E14
  8
0
 10
3883.923537343226144
 20
99.9263384049994983
 30
0.0
 40
0.0795352814789384
 50
116.300142402512904
 51
165.6231248068486082
  0
ARC
  5
6E15
  8
0
 10
3891.9891599709249022
 20
99.9277159672242163
 30
0.0
 40
0.077552984418772
 50
13.70262124436249
 51
64.3741029227113728
  0
ARC
  5
6E16
  8
0
 10
3891.5787048673878417
 20
99.9286445508343633
 30
0.0
 40
0.0762225105982042
 50
115.1507386059362972
 51
166.7745309342726046
  0
ARC
  5
6E17
  8
0
 10
3899.2233913434429269
 20
99.9380683066135163
 30
0.0
 40
0.0613677924408243
 50
108.2247391899413032
 51
173.6985280194213033
  0
ARC
  5
6E18
  8
0
 10
3899.6613973036792231
 20
99.9380683066135163
 30
0.0
 40
0.0613677924408243
 50
6.301471980578631
 51
71.7752608100586826
  0
ENDSEC
  0
EOF
