  0
SECTION
  2
HEADER
  9
$ACADVER
  1
AC1009
  9
$INSBASE
 10
177.11052690409591
 20
-30.660729962199991
 30
0.0
  9
$EXTMIN
 10
160.27302708979181
 20
-30.668500732697989
 30
0.0
  9
$EXTMAX
 10
193.9480283634
 20
38.51427003780001
 30
0.0
  9
$LIMMIN
 10
0.0
 20
0.0
  9
$LIMMAX
 10
11.692913385800001
 20
8.2677165353999964
  9
$ORTHOMODE
 70
     0
  9
$REGENMODE
 70
     1
  9
$FILLMODE
 70
     1
  9
$QTEXTMODE
 70
     0
  9
$MIRRTEXT
 70
     0
  9
$DRAGMODE
 70
     2
  9
$LTSCALE
 40
0.6431102362
  9
$OSMODE
 70
   423
  9
$ATTMODE
 70
     1
  9
$TEXTSIZE
 40
0.2
  9
$TRACEWID
 40
0.05
  9
$TEXTSTYLE
  7
STANDARD
  9
$CLAYER
  8
0
  9
$CELTYPE
  6
BYLAYER
  9
$CECOLOR
 62
   256
  9
$DIMSCALE
 40
1.0
  9
$DIMASZ
 40
0.1875
  9
$DIMEXO
 40
0.0625
  9
$DIMDLI
 40
0.4443307087
  9
$DIMRND
 40
0.0
  9
$DIMDLE
 40
0.0
  9
$DIMEXE
 40
0.125
  9
$DIMTP
 40
0.01
  9
$DIMTM
 40
0.01
  9
$DIMTXT
 40
1.0
  9
$DIMCEN
 40
0.1052362205
  9
$DIMTSZ
 40
0.0
  9
$DIMTOL
 70
     1
  9
$DIMLIM
 70
     0
  9
$DIMTIH
 70
     1
  9
$DIMTOH
 70
     1
  9
$DIMSE1
 70
     0
  9
$DIMSE2
 70
     0
  9
$DIMTAD
 70
     0
  9
$DIMZIN
 70
     0
  9
$DIMBLK
  1

  9
$DIMASO
 70
     1
  9
$DIMSHO
 70
     1
  9
$DIMPOST
  1
\X
  9
$DIMAPOST
  1

  9
$DIMALT
 70
     1
  9
$DIMALTD
 70
     2
  9
$DIMALTF
 40
25.399999999999999
  9
$DIMLFAC
 40
1.0
  9
$DIMTOFL
 70
     0
  9
$DIMTVP
 40
0.0
  9
$DIMTIX
 70
     0
  9
$DIMSOXD
 70
     0
  9
$DIMSAH
 70
     0
  9
$DIMBLK1
  1

  9
$DIMBLK2
  1

  9
$DIMSTYLE
  2
STANDARD
  9
$DIMCLRD
 70
     0
  9
$DIMCLRE
 70
     0
  9
$DIMCLRT
 70
     0
  9
$DIMTFAC
 40
1.0
  9
$DIMGAP
 40
0.09
  9
$LUNITS
 70
     2
  9
$LUPREC
 70
     4
  9
$SKETCHINC
 40
0.1
  9
$FILLETRAD
 40
0.0
  9
$AUNITS
 70
     0
  9
$AUPREC
 70
     0
  9
$MENU
  1
.
  9
$ELEVATION
 40
0.0
  9
$PELEVATION
 40
0.0
  9
$THICKNESS
 40
0.0
  9
$LIMCHECK
 70
     0
  9
$BLIPMODE
 70
     0
  9
$CHAMFERA
 40
0.0
  9
$CHAMFERB
 40
0.0
  9
$SKPOLY
 70
     0
  9
$TDCREATE
 40
2458129.403929248
  9
$TDUPDATE
 40
2458141.7040392598
  9
$TDINDWG
 40
0.0710746412
  9
$TDUSRTIMER
 40
0.0710744676
  9
$USRTIMER
 70
     1
  9
$ANGBASE
 50
0.0
  9
$ANGDIR
 70
     0
  9
$PDMODE
 70
     0
  9
$PDSIZE
 40
0.3125
  9
$PLINEWID
 40
0.0
  9
$COORDS
 70
     1
  9
$SPLFRAME
 70
     0
  9
$SPLINETYPE
 70
     6
  9
$SPLINESEGS
 70
     8
  9
$ATTDIA
 70
     1
  9
$ATTREQ
 70
     1
  9
$HANDLING
 70
     1
  9
$HANDSEED
  5
1161
  9
$SURFTAB1
 70
     6
  9
$SURFTAB2
 70
     6
  9
$SURFTYPE
 70
     6
  9
$SURFU
 70
     6
  9
$SURFV
 70
     6
  9
$UCSNAME
  2

  9
$UCSORG
 10
0.0
 20
0.0
 30
0.0
  9
$UCSXDIR
 10
1.0
 20
0.0
 30
0.0
  9
$UCSYDIR
 10
0.0
 20
1.0
 30
0.0
  9
$PUCSNAME
  2

  9
$PUCSORG
 10
0.0
 20
0.0
 30
0.0
  9
$PUCSXDIR
 10
1.0
 20
0.0
 30
0.0
  9
$PUCSYDIR
 10
0.0
 20
1.0
 30
0.0
  9
$USERI1
 70
     0
  9
$USERI2
 70
     0
  9
$USERI3
 70
     0
  9
$USERI4
 70
     0
  9
$USERI5
 70
     0
  9
$USERR1
 40
0.0
  9
$USERR2
 40
0.0
  9
$USERR3
 40
0.0
  9
$USERR4
 40
0.0
  9
$USERR5
 40
0.0
  9
$WORLDVIEW
 70
     1
  9
$SHADEDGE
 70
     3
  9
$SHADEDIF
 70
    70
  9
$TILEMODE
 70
     1
  9
$MAXACTVP
 70
    64
  9
$PLIMCHECK
 70
     0
  9
$PEXTMIN
 10
1.0000000000000000E+020
 20
1.0000000000000000E+020
 30
1.0000000000000000E+020
  9
$PEXTMAX
 10
-1.0000000000000000E+020
 20
-1.0000000000000000E+020
 30
-1.0000000000000000E+020
  9
$PLIMMIN
 10
0.0
 20
0.0
  9
$PLIMMAX
 10
12.0
 20
9.0
  9
$UNITMODE
 70
     0
  9
$VISRETAIN
 70
     1
  9
$PLINEGEN
 70
     0
  9
$PSLTSCALE
 70
     1
  0
ENDSEC
  0
SECTION
  2
TABLES
  0
TABLE
  2
VPORT
 70
     1
  0
VPORT
  2
*ACTIVE
 70
     0
 10
0.0
 20
0.0
 11
1.0
 21
1.0
 12
0.0022177879250542
 22
-34.597269997590907
 13
0.0
 23
0.0
 14
1.0
 24
1.0
 15
0.0
 25
0.0
 16
-0.0000000000000568
 26
0.0
 36
216.36324916887941
 17
177.1105277265959
 27
3.9228846525510082
 37
0.0
 40
0.0356849576654952
 41
2.189151599443671
 42
50.0
 43
0.0
 44
0.0
 50
0.0
 51
0.0
 71
     0
 72
   100
 73
     1
 74
     1
 75
     0
 76
     0
 77
     0
 78
     0
  0
ENDTAB
  0
TABLE
  2
LTYPE
 70
     2
  0
LTYPE
  2
CONTINUOUS
 70
     0
  3
Solid line
 72
    65
 73
     0
 40
0.0
  0
LTYPE
  2
PHANTOM2
 70
     0
  3
___ _ _ ___ _ _ ___ _ _ ___ _ _
 72
    65
 73
     6
 40
1.25
 49
0.625
 49
-0.125
 49
0.125
 49
-0.125
 49
0.125
 49
-0.125
  0
ENDTAB
  0
TABLE
  2
LAYER
 70
     2
  0
LAYER
  2
0
 70
     0
 62
   255
  6
CONTINUOUS
  0
LAYER
  2
DEFPOINTS
 70
     0
 62
     7
  6
CONTINUOUS
  0
ENDTAB
  0
TABLE
  2
STYLE
 70
     2
  0
STYLE
  2
STANDARD
 70
     0
 40
0.0
 41
0.8
 50
0.0
 71
     0
 42
0.2
  3
txt
  4

  0
STYLE
  2
ANNOTATIVE
 70
     0
 40
0.0
 41
1.0
 50
0.0
 71
     0
 42
0.2
  3
txt
  4

  0
ENDTAB
  0
TABLE
  2
VIEW
 70
     0
  0
ENDTAB
  0
TABLE
  2
UCS
 70
     0
  0
ENDTAB
  0
TABLE
  2
APPID
 70
    10
  0
APPID
  2
ACAD
 70
     0
  0
APPID
  2
ACADANNOTATIVE
 70
     0
  0
APPID
  2
ACAD_MLEADERVER
 70
     0
  0
APPID
  2
ACAD_EXEMPT_FROM_CAD_STANDARDS
 70
     0
  0
APPID
  2
ACAD_DSTYLE_DIMJAG
 70
     0
  0
APPID
  2
ACAD_DSTYLE_DIMTALN
 70
     0
  0
APPID
  2
ACAD_NAV_VCDISPLAY
 70
     0
  0
APPID
  2
ACAECLAYERSTANDARD
 70
     0
  0
APPID
  2
ACCMTRANSPARENCY
 70
     0
  0
APPID
  2
ACDBATTR
 70
     0
  0
ENDTAB
  0
TABLE
  2
DIMSTYLE
 70
     2
  0
DIMSTYLE
  2
STANDARD
 70
     0
  3

  4

  5

  6

  7

 40
1.0
 41
0.1875
 42
0.0625
 43
0.38
 44
0.125
 45
0.0
 46
0.0
 47
0.01
 48
0.01
140
0.15625
141
0.09
142
0.0
143
25.399999999999999
144
1.0
145
0.0
146
1.0
147
0.09
 71
     1
 72
     0
 73
     1
 74
     1
 75
     0
 76
     0
 77
     0
 78
     4
170
     0
171
     2
172
     0
173
     0
174
     0
175
     0
176
     0
177
     0
178
     0
  0
DIMSTYLE
  2
ANNOTATIVE
 70
     0
  3

  4

  5

  6

  7

 40
1.0
 41
0.18
 42
0.0625
 43
0.38
 44
0.18
 45
0.0
 46
0.0
 47
0.0
 48
0.0
140
0.18
141
0.09
142
0.0
143
25.399999999999999
144
1.0
145
0.0
146
1.0
147
0.09
 71
     0
 72
     0
 73
     1
 74
     1
 75
     0
 76
     0
 77
     0
 78
     0
170
     0
171
     2
172
     0
173
     0
174
     0
175
     0
176
     0
177
     0
178
     0
  0
ENDTAB
  0
ENDSEC
  0
SECTION
  2
BLOCKS
  0
BLOCK
  8
0
  2
$MODEL_SPACE
 70
     0
 10
0.0
 20
0.0
 30
0.0
  3
$MODEL_SPACE
  1

  0
ENDBLK
  5
10BC
  8
0
  0
BLOCK
 67
     1
  8
0
  2
$PAPER_SPACE
 70
     0
 10
0.0
 20
0.0
 30
0.0
  3
$PAPER_SPACE
  1

  0
ENDBLK
  5
10B8
 67
     1
  8
0
  0
ENDSEC
  0
SECTION
  2
ENTITIES
  0
LINE
  5
B7F
  8
0
 10
193.9480267184
 20
38.404270037800003
 30
0.0
 11
160.27302708979181
 21
38.404270037800003
 31
0.0
  0
LINE
  5
B80
  8
0
 10
160.27302708979181
 20
38.404270037800003
 30
0.0
 11
160.27302708979181
 21
-30.660729962199991
 31
0.0
  0
LINE
  5
B81
  8
0
 10
160.27302708979181
 20
-30.660729962199991
 30
0.0
 11
193.9480267184
 21
-30.660729962200001
 31
0.0
  0
LINE
  5
B82
  8
0
 10
193.9480267184
 20
-30.660729962200001
 30
0.0
 11
193.9480267184
 21
38.404270037800003
 31
0.0
  0
LINE
  5
B83
  8
0
 10
193.94802689517269
 20
37.885270037373118
 30
0.0
 11
160.27302708979181
 21
37.885270037373118
 31
0.0
  0
LINE
  5
B84
  8
0
 10
193.9480283634
 20
36.839270037373133
 30
0.0
 11
160.27302708979181
 21
36.839270037373133
 31
0.0
  0
LINE
  5
B85
  8
0
 10
160.4011132933
 20
36.839270036946232
 30
0.0
 11
160.40113403377819
 21
-30.660729962200001
 31
0.0
  0
LINE
  5
B86
  8
0
 10
161.70802671839999
 20
36.839270036946232
 30
0.0
 11
161.7080473001578
 21
-30.660729962200001
 31
0.0
  0
LINE
  5
B87
  8
0
 10
168.9036891511
 20
38.404270037800003
 30
0.0
 11
168.9036891511
 21
38.464270037799999
 31
0.0
  0
LINE
  5
B88
  8
0
 10
168.9036891511
 20
38.464270037799999
 30
0.0
 11
168.91523615649999
 21
38.464270037799999
 31
0.0
  0
LINE
  5
B89
  8
0
 10
168.91523615649999
 20
38.464270037799999
 30
0.0
 11
168.91523615649999
 21
38.508907465800007
 31
0.0
  0
LINE
  5
B8A
  8
0
 10
168.91523615649999
 20
38.508907465800007
 30
0.0
 11
168.9246370916
 21
38.51427003780001
 31
0.0
  0
LINE
  5
B8B
  8
0
 10
168.9246370916
 20
38.51427003780001
 30
0.0
 11
169.17141634519999
 21
38.51427003780001
 31
0.0
  0
LINE
  5
B8C
  8
0
 10
169.17141634519999
 20
38.51427003780001
 30
0.0
 11
169.1808172803
 21
38.508907465800007
 31
0.0
  0
LINE
  5
B8D
  8
0
 10
169.1808172803
 20
38.508907465800007
 30
0.0
 11
169.1808172803
 21
38.464270037799999
 31
0.0
  0
LINE
  5
B8E
  8
0
 10
169.1808172803
 20
38.464270037799999
 30
0.0
 11
169.19236428569999
 21
38.464270037799999
 31
0.0
  0
LINE
  5
B8F
  8
0
 10
169.19236428569999
 20
38.464270037799999
 30
0.0
 11
169.19236428569999
 21
38.404270037800003
 31
0.0
  0
LINE
  5
B90
  8
0
 10
169.12019550209999
 20
38.404270037800003
 30
0.0
 11
169.12019550209999
 21
38.503105488200013
 31
0.0
  0
LINE
  5
B91
  8
0
 10
168.97585793479999
 20
38.404270037800003
 30
0.0
 11
168.97585793479999
 21
38.503105488200013
 31
0.0
  0
ARC
  5
B92
  8
0
 10
168.9402279836352
 20
38.450430426822308
 30
0.0
 40
0.0635936750876608
 50
55.925176761347181
 51
113.1408200954447
  0
ARC
  5
B93
  8
0
 10
169.04802671844999
 20
38.274324496951962
 30
0.0
 40
0.2398938833942366
 50
72.492161002524981
 51
107.50783899747501
  0
ARC
  5
B94
  8
0
 10
169.15582545321681
 20
38.450430426893277
 30
0.0
 40
0.0635936750019486
 50
66.859179922480592
 51
124.0748232386528
  0
LINE
  5
B95
  8
0
 10
168.02014730050001
 20
36.771709746800013
 30
0.0
 11
168.0540267184
 21
36.791270037800011
 31
0.0
  0
LINE
  5
B96
  8
0
 10
168.0540267184
 20
36.791270037800011
 30
0.0
 11
168.49202671840001
 21
36.791270037800011
 31
0.0
  0
LINE
  5
B97
  8
0
 10
168.49202671840001
 20
36.791270037800011
 30
0.0
 11
168.52590613629999
 21
36.771709746800013
 31
0.0
  0
LINE
  5
B98
  8
0
 10
168.52590613629999
 20
36.771709746800013
 30
0.0
 11
168.52590613629999
 21
36.591830328900024
 31
0.0
  0
LINE
  5
B99
  8
0
 10
168.52590613629999
 20
36.591830328900024
 30
0.0
 11
168.49202671840001
 21
36.572270037800003
 31
0.0
  0
LINE
  5
B9A
  8
0
 10
192.3605641122
 20
36.572270037800003
 30
0.0
 11
167.41502671839999
 21
36.572270037800003
 31
0.0
  0
LINE
  5
B9B
  8
0
 10
168.0540267184
 20
36.572270037800003
 30
0.0
 11
168.02014730050001
 21
36.591830328900024
 31
0.0
  0
LINE
  5
B9C
  8
0
 10
168.02014730050001
 20
36.591830328900024
 30
0.0
 11
168.02014730050001
 21
36.771709746800013
 31
0.0
  0
ARC
  5
B9D
  8
0
 10
168.08336715499999
 20
36.676489339538961
 30
0.0
 40
0.1142964389732267
 50
56.418552303139101
 51
123.58144769686091
  0
ARC
  5
B9E
  8
0
 10
168.27302671845001
 20
36.358391372149491
 30
0.0
 40
0.4322257267020372
 50
72.990416290758489
 51
107.0095837092415
  0
ARC
  5
B9F
  8
0
 10
168.46268628185001
 20
36.676489339808853
 30
0.0
 40
0.114296438720724
 50
56.418552249186043
 51
123.58144775081379
  0
ARC
  5
BA0
  8
0
 10
168.08336715499999
 20
36.687050736161062
 30
0.0
 40
0.1142964389732267
 50
236.41855230313911
 51
303.58144769686078
  0
ARC
  5
BA1
  8
0
 10
168.27302671845001
 20
37.005148703550532
 30
0.0
 40
0.4322257267020372
 50
252.9904162907585
 51
287.0095837092415
  0
ARC
  5
BA2
  8
0
 10
168.46268628185001
 20
36.687050735891162
 30
0.0
 40
0.114296438720724
 50
236.41855224918609
 51
303.58144775081388
  0
LINE
  5
BA3
  8
0
 10
168.14802671839999
 20
36.791270037800011
 30
0.0
 11
168.14802671839999
 21
36.839270037373133
 31
0.0
  0
LINE
  5
BA4
  8
0
 10
168.39802671839999
 20
36.791270037800011
 30
0.0
 11
168.39802671839999
 21
36.839270037373133
 31
0.0
  0
LINE
  5
BA5
  8
0
 10
168.14658700950031
 20
36.77170974680012
 30
0.0
 11
168.14658700949931
 21
36.59183032890023
 31
0.0
  0
LINE
  5
BA6
  8
0
 10
168.3994664274
 20
36.771709746800013
 30
0.0
 11
168.39946642740011
 21
36.591830328899952
 31
0.0
  0
LINE
  5
BA7
  8
0
 10
167.41502671839999
 20
36.839270036946232
 30
0.0
 11
167.41502671839999
 21
-29.260729962199999
 31
0.0
  0
LINE
  5
BA8
  8
0
 10
192.64002671840001
 20
36.839270036946232
 30
0.0
 11
192.64004793694889
 21
-30.660729962200001
 31
0.0
  0
LINE
  5
BA9
  8
0
 10
193.83216566089999
 20
36.839270037800013
 30
0.0
 11
193.83218609662279
 21
-30.660729962200001
 31
0.0
  0
LINE
  5
BAA
  8
0
 10
192.6400267609753
 20
36.714270037800013
 30
0.0
 11
191.81806411220001
 21
36.714270037800013
 31
0.0
  0
LINE
  5
BAB
  8
0
 10
191.81806411220001
 20
36.714270037800013
 30
0.0
 11
191.81806411220001
 21
36.572270037800003
 31
0.0
  0
LINE
  5
BAC
  8
0
 10
192.3605641122
 20
36.572270037800003
 30
0.0
 11
192.3605644835917
 21
-29.802729962200001
 31
0.0
  0
LINE
  5
BAD
  8
0
 10
192.3605644835917
 20
-29.802729962200001
 30
0.0
 11
167.77302708979181
 21
-29.802729962200001
 31
0.0
  0
LINE
  5
BAE
  8
0
 10
161.7080484115055
 20
-29.260729962199999
 30
0.0
 11
167.77302708979181
 21
-29.260729962199999
 31
0.0
  0
LINE
  5
BAF
  8
0
 10
167.77302708979181
 20
-29.260729962199999
 30
0.0
 11
167.77302708979181
 21
-30.574729962199999
 31
0.0
  0
LINE
  5
BB0
  8
0
 10
167.77302708979181
 20
-29.280729962199999
 30
0.0
 11
167.8730270897918
 21
-29.280729962199999
 31
0.0
  0
LINE
  5
BB1
  8
0
 10
167.8730270897918
 20
-29.280729962199999
 30
0.0
 11
167.8730270897918
 21
-29.760729962199999
 31
0.0
  0
LINE
  5
BB2
  8
0
 10
167.8730270897918
 20
-29.760729962199999
 30
0.0
 11
167.77302708979181
 21
-29.760729962199999
 31
0.0
  0
ARC
  5
BB3
  8
0
 10
167.79302708979179
 20
-30.235729962200001
 30
0.0
 40
0.0199999999999969
 50
179.9999999999898
 51
270.00000000000807
  0
LINE
  5
BB4
  8
0
 10
167.79302708979179
 20
-30.25572996219999
 30
0.0
 11
168.7530270897918
 21
-30.255729962199869
 31
0.0
  0
ARC
  5
BB5
  8
0
 10
168.7530270897918
 20
-30.235729962199869
 30
0.0
 40
0.0200000000000031
 50
270.00000000000489
 51
359.99999999962341
  0
LINE
  5
BB6
  8
0
 10
168.77302708979181
 20
-30.235729962200001
 30
0.0
 11
168.7730270897944
 21
-29.840729962200001
 31
0.0
  0
ARC
  5
BB7
  8
0
 10
168.7530270897945
 20
-29.84072996219987
 30
0.0
 40
0.019999999999869
 50
359.99999999962102
 51
90.000000007811664
  0
LINE
  5
BB8
  8
0
 10
168.7530270897918
 20
-29.820729962199991
 30
0.0
 11
167.79302708979179
 21
-29.820729962330869
 31
0.0
  0
ARC
  5
BB9
  8
0
 10
167.79302708979441
 20
-29.840729962333601
 30
0.0
 40
0.0200000000027281
 50
90.000000007806761
 51
179.99999961723421
  0
LINE
  5
BBA
  8
0
 10
168.0228501751194
 20
-29.820729962299549
 30
0.0
 11
168.05402708979179
 21
-29.802729962200001
 31
0.0
  0
ARC
  5
BBB
  8
0
 10
168.08336753739181
 20
-29.91266096843605
 30
0.0
 40
0.1099310062360515
 50
56.747364720464041
 51
123.25263527953599
  0
ARC
  5
BBC
  8
0
 10
168.2730271118418
 20
-30.21545398680934
 30
0.0
 40
0.4127240246093402
 50
73.016187854904743
 51
106.9838121450952
  0
ARC
  5
BBD
  8
0
 10
168.46268666423319
 20
-29.91266096829742
 30
0.0
 40
0.109931006097423
 50
56.747364698888063
 51
123.2526353465462
  0
LINE
  5
BBE
  8
0
 10
168.49335195354831
 20
-29.802729962200001
 30
0.0
 11
168.5232040043918
 21
-29.820729962199991
 31
0.0
  0
LINE
  5
BBF
  8
0
 10
168.77302708979329
 20
-30.00572996219999
 30
0.0
 11
192.64004866525161
 21
-30.005721833033839
 31
0.0
  0
LINE
  5
BC0
  8
0
 10
167.77302708979181
 20
-30.525730302802462
 30
0.0
 11
192.64004866525161
 21
-30.525721833033838
 31
0.0
  0
LINE
  5
BC1
  8
0
 10
161.70804885906071
 20
-30.574740497707751
 30
0.0
 11
192.64004866525161
 21
-30.574729962192649
 31
0.0
  0
LINE
  5
BC2
  8
0
 10
190.9325644835917
 20
-28.935229962200001
 30
0.0
 11
167.41502708979181
 21
-28.935229962200001
 31
0.0
  0
LINE
  5
BC3
  8
0
 10
167.8730270897918
 20
-29.3427299622
 30
0.0
 11
190.9325644835917
 21
-29.3427299622
 31
0.0
  0
LINE
  5
BC4
  8
0
 10
190.93266410640001
 20
-29.802729962200001
 30
0.0
 11
190.93266410640001
 21
36.572270037800003
 31
0.0
  0
LINE
  5
BC5
  8
0
 10
192.53906411220001
 20
36.71427003780002
 30
0.0
 11
192.53906411220001
 21
-30.0057299622
 31
0.0
  0
LINE
  5
BC6
  8
0
 10
191.8180644835918
 20
-29.802729962200001
 30
0.0
 11
191.8180645527313
 21
-30.005722113003639
 31
0.0
  0
LINE
  5
BC7
  8
0
 10
191.85738548640001
 20
36.572270037800003
 30
0.0
 11
191.85738548640001
 21
-29.802729962200001
 31
0.0
  0
LINE
  5
BC8
  8
0
 10
190.9325641122
 20
35.657770037800013
 30
0.0
 11
167.41502671839999
 21
35.657770037800013
 31
0.0
  0
LINE
  5
BC9
  8
0
 10
190.9325641122
 20
36.112270037800002
 30
0.0
 11
167.41502671839999
 21
36.112270037800002
 31
0.0
  0
LINE
  5
BCA
  8
0
 10
193.9480267184
 20
36.904270037800003
 30
0.0
 11
160.27302708979181
 21
36.904270037800003
 31
0.0
  0
LINE
  5
BCB
  8
0
 10
193.9480283634
 20
36.942531455700028
 30
0.0
 11
160.27302708979181
 21
36.942531455700028
 31
0.0
  0
LINE
  5
BCC
  8
0
 10
161.70802708979181
 20
-29.740848380199989
 30
0.0
 11
167.77302708979181
 21
-29.740848380199989
 31
0.0
  0
ATTDEF
  5
F80
  8
DEFPOINTS
 10
177.10574501952121
 20
-30.668500732697989
 30
0.0
 40
0.001
  1
ALUMINUM/GLASS
  3

  2
MATERIAL
 70
     0
1001
ACDBATTR
1070
     0
1070
     1
  0
ATTDEF
  5
F81
  8
DEFPOINTS
 10
177.10574501952121
 20
-30.666834066031331
 30
0.0
 40
0.001
  1
SHOWER DOOR
  3

  2
PRODUCT
 70
     0
1001
ACDBATTR
1070
     0
1070
     1
  0
ATTDEF
  5
F82
  8
DEFPOINTS
 10
177.10574501952121
 20
-30.665167399364648
 30
0.0
 40
0.001
  1
VISTA PIVOT II
  3

  2
TRADENAME
 70
     0
1001
ACDBATTR
1070
     0
1070
     1
  0
ATTDEF
  5
F83
  8
DEFPOINTS
 10
177.10574501952121
 20
-30.66350073269799
 30
0.0
 40
0.001
  1
1530D-36
  3

  2
MODELNUMBER
 70
     0
1001
ACDBATTR
1070
     0
1070
     1
  0
ENDSEC
  0
EOF
