  0
SECTION
  2
HEADER
  9
$ACADVER
  1
AC1009
  9
$INSBASE
 10
150.2694188609789
 20
10.370957562699999
 30
0.0
  9
$EXTMIN
 10
139.26981676849189
 20
2.3223866413000001
 30
0.0
  9
$EXTMAX
 10
161.2690209534658
 20
10.6509575627
 30
0.0
  9
$LIMMIN
 10
0.0
 20
0.0
  9
$LIMMAX
 10
11.692913385800001
 20
8.2677165353999982
  9
$ORTHOMODE
 70
     0
  9
$REGENMODE
 70
     1
  9
$FILLMODE
 70
     1
  9
$QTEXTMODE
 70
     0
  9
$MIRRTEXT
 70
     0
  9
$DRAGMODE
 70
     2
  9
$LTSCALE
 40
0.6431102362
  9
$OSMODE
 70
  3071
  9
$ATTMODE
 70
     1
  9
$TEXTSIZE
 40
0.2
  9
$TRACEWID
 40
0.05
  9
$TEXTSTYLE
  7
STANDARD
  9
$CLAYER
  8
0
  9
$CELTYPE
  6
BYLAYER
  9
$CECOLOR
 62
   256
  9
$DIMSCALE
 40
1.0
  9
$DIMASZ
 40
0.1875
  9
$DIMEXO
 40
0.0625
  9
$DIMDLI
 40
0.4443307087
  9
$DIMRND
 40
0.0
  9
$DIMDLE
 40
0.0
  9
$DIMEXE
 40
0.125
  9
$DIMTP
 40
0.01
  9
$DIMTM
 40
0.01
  9
$DIMTXT
 40
1.0
  9
$DIMCEN
 40
0.1052362205
  9
$DIMTSZ
 40
0.0
  9
$DIMTOL
 70
     1
  9
$DIMLIM
 70
     0
  9
$DIMTIH
 70
     1
  9
$DIMTOH
 70
     1
  9
$DIMSE1
 70
     0
  9
$DIMSE2
 70
     0
  9
$DIMTAD
 70
     0
  9
$DIMZIN
 70
     0
  9
$DIMBLK
  1

  9
$DIMASO
 70
     1
  9
$DIMSHO
 70
     1
  9
$DIMPOST
  1
\X
  9
$DIMAPOST
  1

  9
$DIMALT
 70
     1
  9
$DIMALTD
 70
     2
  9
$DIMALTF
 40
25.399999999999999
  9
$DIMLFAC
 40
1.0
  9
$DIMTOFL
 70
     0
  9
$DIMTVP
 40
0.0
  9
$DIMTIX
 70
     0
  9
$DIMSOXD
 70
     0
  9
$DIMSAH
 70
     0
  9
$DIMBLK1
  1

  9
$DIMBLK2
  1

  9
$DIMSTYLE
  2
STANDARD
  9
$DIMCLRD
 70
     0
  9
$DIMCLRE
 70
     0
  9
$DIMCLRT
 70
     0
  9
$DIMTFAC
 40
1.0
  9
$DIMGAP
 40
0.09
  9
$LUNITS
 70
     2
  9
$LUPREC
 70
     4
  9
$SKETCHINC
 40
0.1
  9
$FILLETRAD
 40
0.0
  9
$AUNITS
 70
     0
  9
$AUPREC
 70
     0
  9
$MENU
  1
.
  9
$ELEVATION
 40
0.0
  9
$PELEVATION
 40
0.0
  9
$THICKNESS
 40
0.0
  9
$LIMCHECK
 70
     0
  9
$BLIPMODE
 70
     0
  9
$CHAMFERA
 40
0.0
  9
$CHAMFERB
 40
0.0
  9
$SKPOLY
 70
     0
  9
$TDCREATE
 40
2458103.736169803
  9
$TDUPDATE
 40
2458103.803129225
  9
$TDINDWG
 40
0.053015162
  9
$TDUSRTIMER
 40
0.053015162
  9
$USRTIMER
 70
     1
  9
$ANGBASE
 50
0.0
  9
$ANGDIR
 70
     0
  9
$PDMODE
 70
     0
  9
$PDSIZE
 40
0.3125
  9
$PLINEWID
 40
0.0
  9
$COORDS
 70
     1
  9
$SPLFRAME
 70
     0
  9
$SPLINETYPE
 70
     6
  9
$SPLINESEGS
 70
     8
  9
$ATTDIA
 70
     1
  9
$ATTREQ
 70
     1
  9
$HANDLING
 70
     1
  9
$HANDSEED
  5
15BF
  9
$SURFTAB1
 70
     6
  9
$SURFTAB2
 70
     6
  9
$SURFTYPE
 70
     6
  9
$SURFU
 70
     6
  9
$SURFV
 70
     6
  9
$UCSNAME
  2

  9
$UCSORG
 10
0.0
 20
0.0
 30
0.0
  9
$UCSXDIR
 10
1.0
 20
0.0
 30
0.0
  9
$UCSYDIR
 10
0.0
 20
1.0
 30
0.0
  9
$PUCSNAME
  2

  9
$PUCSORG
 10
0.0
 20
0.0
 30
0.0
  9
$PUCSXDIR
 10
1.0
 20
0.0
 30
0.0
  9
$PUCSYDIR
 10
0.0
 20
1.0
 30
0.0
  9
$USERI1
 70
     0
  9
$USERI2
 70
     0
  9
$USERI3
 70
     0
  9
$USERI4
 70
     0
  9
$USERI5
 70
     0
  9
$USERR1
 40
0.0
  9
$USERR2
 40
0.0
  9
$USERR3
 40
0.0
  9
$USERR4
 40
0.0
  9
$USERR5
 40
0.0
  9
$WORLDVIEW
 70
     1
  9
$SHADEDGE
 70
     3
  9
$SHADEDIF
 70
    70
  9
$TILEMODE
 70
     1
  9
$MAXACTVP
 70
    64
  9
$PLIMCHECK
 70
     0
  9
$PEXTMIN
 10
1.0000000000000000E+020
 20
1.0000000000000000E+020
 30
1.0000000000000000E+020
  9
$PEXTMAX
 10
-1.0000000000000000E+020
 20
-1.0000000000000000E+020
 30
-1.0000000000000000E+020
  9
$PLIMMIN
 10
0.0
 20
0.0
  9
$PLIMMAX
 10
12.0
 20
9.0
  9
$UNITMODE
 70
     0
  9
$VISRETAIN
 70
     1
  9
$PLINEGEN
 70
     0
  9
$PSLTSCALE
 70
     1
  0
ENDSEC
  0
SECTION
  2
TABLES
  0
TABLE
  2
VPORT
 70
     1
  0
VPORT
  2
*ACTIVE
 70
     0
 10
0.0
 20
0.0
 11
1.0
 21
1.0
 12
0.0
 22
0.0
 13
0.0
 23
0.0
 14
1.0
 24
1.0
 15
0.0
 25
0.0
 16
-0.0000000000000284
 26
0.0
 36
65.721088166093566
 17
150.2694188609789
 27
6.4866721019999991
 37
0.0
 40
23.536737627931348
 41
2.0811403508771931
 42
50.0
 43
0.0
 44
0.0
 50
0.0
 51
0.0
 71
     0
 72
   100
 73
     1
 74
     1
 75
     0
 76
     0
 77
     0
 78
     0
  0
ENDTAB
  0
TABLE
  2
LTYPE
 70
     2
  0
LTYPE
  2
CONTINUOUS
 70
     0
  3
Solid line
 72
    65
 73
     0
 40
0.0
  0
LTYPE
  2
PHANTOM2
 70
     0
  3
___ _ _ ___ _ _ ___ _ _ ___ _ _
 72
    65
 73
     6
 40
1.25
 49
0.625
 49
-0.125
 49
0.125
 49
-0.125
 49
0.125
 49
-0.125
  0
ENDTAB
  0
TABLE
  2
LAYER
 70
     2
  0
LAYER
  2
0
 70
     0
 62
   255
  6
CONTINUOUS
  0
LAYER
  2
DEFPOINTS
 70
     0
 62
     7
  6
CONTINUOUS
  0
ENDTAB
  0
TABLE
  2
STYLE
 70
     1
  0
STYLE
  2
STANDARD
 70
     0
 40
0.0
 41
0.8
 50
0.0
 71
     0
 42
0.2
  3
txt
  4

  0
ENDTAB
  0
TABLE
  2
VIEW
 70
     0
  0
ENDTAB
  0
TABLE
  2
UCS
 70
     0
  0
ENDTAB
  0
TABLE
  2
APPID
 70
    10
  0
APPID
  2
ACAD
 70
     0
  0
APPID
  2
ACAD_MLEADERVER
 70
     0
  0
APPID
  2
ACAD_EXEMPT_FROM_CAD_STANDARDS
 70
     0
  0
APPID
  2
ACAD_NAV_VCDISPLAY
 70
     0
  0
APPID
  2
ACAD_DSTYLE_DIMJAG
 70
     0
  0
APPID
  2
ACAD_DSTYLE_DIMTALN
 70
     0
  0
APPID
  2
ACADANNOMONITORALERTICONDI
 70
     0
  0
APPID
  2
ACAECLAYERSTANDARD
 70
     0
  0
APPID
  2
ACCMTRANSPARENCY
 70
     0
  0
APPID
  2
ACDBATTR
 70
     0
  0
ENDTAB
  0
TABLE
  2
DIMSTYLE
 70
     1
  0
DIMSTYLE
  2
STANDARD
 70
     0
  3

  4

  5

  6

  7

 40
1.0
 41
0.1875
 42
0.0625
 43
0.38
 44
0.125
 45
0.0
 46
0.0
 47
0.01
 48
0.01
140
0.15625
141
0.09
142
0.0
143
25.399999999999999
144
1.0
145
0.0
146
1.0
147
0.09
 71
     1
 72
     0
 73
     1
 74
     1
 75
     0
 76
     0
 77
     0
 78
     4
170
     0
171
     2
172
     0
173
     0
174
     0
175
     0
176
     0
177
     0
178
     0
  0
ENDTAB
  0
ENDSEC
  0
SECTION
  2
BLOCKS
  0
BLOCK
  8
0
  2
$MODEL_SPACE
 70
     0
 10
0.0
 20
0.0
 30
0.0
  3
$MODEL_SPACE
  1

  0
ENDBLK
  5
21
  8
0
  0
BLOCK
 67
     1
  8
0
  2
$PAPER_SPACE
 70
     0
 10
0.0
 20
0.0
 30
0.0
  3
$PAPER_SPACE
  1

  0
ENDBLK
  5
1D
 67
     1
  8
0
  0
ENDSEC
  0
SECTION
  2
ENTITIES
  0
ARC
  5
1268
  8
0
 10
140.96242373461359
 20
10.1090061159234
 30
0.0
 40
0.2622203051071158
 50
4.4161089169538839
 51
87.405203316453793
  0
LINE
  5
1269
  8
0
 10
141.2238655451286
 20
10.129196908999999
 30
0.0
 11
141.5538511244232
 21
4.3475889239883996
 31
0.0
  0
ARC
  5
126A
  8
0
 10
143.08893184026749
 20
4.4057244020026261
 30
0.0
 40
1.536181154018279
 50
182.16882827476689
 51
265.80576782869701
  0
ARC
  5
126B
  8
0
 10
139.61608120023561
 20
10.499044181719411
 30
0.0
 40
0.1520624271144233
 50
92.537011924290439
 51
121.61314616236599
  0
LINE
  5
126C
  8
0
 10
139.53637291710319
 20
10.628541561382409
 30
0.0
 11
139.2913506768291
 21
10.462336023700001
 31
0.0
  0
ARC
  5
126D
  8
0
 10
139.31941886089459
 20
10.42095756265328
 30
0.0
 40
0.0499999999532838
 50
124.15015798283351
 51
270.00000003955898
  0
ARC
  5
126E
  8
0
 10
160.92275652172211
 20
10.499044181719411
 30
0.0
 40
0.1520624271144233
 50
58.386853837634007
 51
87.462988075709546
  0
LINE
  5
126F
  8
0
 10
161.00246480485461
 20
10.628541561382409
 30
0.0
 11
161.24748704512859
 21
10.462336023700001
 31
0.0
  0
ARC
  5
1270
  8
0
 10
161.21941886106319
 20
10.42095756265328
 30
0.0
 40
0.0499999999532838
 50
269.99999996044102
 51
55.849842017166416
  0
LINE
  5
1271
  8
0
 10
139.6093501959291
 20
10.6509575627
 30
0.0
 11
160.92948752592861
 21
10.6509575627
 31
0.0
  0
LINE
  5
1272
  8
0
 10
139.31941886092909
 20
10.370957562699999
 30
0.0
 11
161.21941886092861
 21
10.370957562699999
 31
0.0
  0
LINE
  5
1273
  8
0
 10
142.97657893102871
 20
2.8736573793999929
 30
0.0
 11
146.4475830111287
 21
2.6188964387999989
 31
0.0
  0
ARC
  5
1274
  8
0
 10
146.43860134357951
 20
2.4859568127014842
 30
0.0
 40
0.1332426903780343
 50
22.081788742596661
 51
86.134856150980056
  0
ARC
  5
1275
  8
0
 10
146.72106091596331
 20
2.6325766368962649
 30
0.0
 40
0.1859999998797332
 50
211.26373171614921
 51
248.9624889820075
  0
LINE
  5
1276
  8
0
 10
146.65429080732861
 20
2.4589743541999991
 30
0.0
 11
147.00941886092869
 21
2.3223866413000001
 31
0.0
  0
LINE
  5
1277
  8
0
 10
154.7622587908287
 20
2.8736573793999942
 30
0.0
 11
151.29125509311851
 21
2.618896456399999
 31
0.0
  0
ARC
  5
1278
  8
0
 10
151.3002363562974
 20
2.485956830011733
 30
0.0
 40
0.1332426634098096
 50
93.864970352545939
 51
157.91821458560969
  0
ARC
  5
1279
  8
0
 10
151.017776805994
 20
2.6325766368962649
 30
0.0
 40
0.1859999998797332
 50
291.03751101799247
 51
328.73626828385079
  0
LINE
  5
127A
  8
0
 10
151.08454691462859
 20
2.4589743541999991
 30
0.0
 11
150.72941886102871
 21
2.3223866413000001
 31
0.0
  0
LINE
  5
127B
  8
0
 10
147.00941886092869
 20
2.3223866413000001
 30
0.0
 11
150.7294188609286
 21
2.3223866413000001
 31
0.0
  0
LINE
  5
127C
  8
0
 10
146.4475830111287
 20
2.6188964387999989
 30
0.0
 11
151.29125509311851
 21
2.618896456399999
 31
0.0
  0
ARC
  5
127D
  8
0
 10
156.7764139872437
 20
10.1090061159234
 30
0.0
 40
0.2622203051071158
 50
92.594796683546221
 51
175.5838910830461
  0
LINE
  5
127E
  8
0
 10
156.51497217672869
 20
10.129196908999999
 30
0.0
 11
156.18498659743409
 21
4.3475889239883996
 31
0.0
  0
ARC
  5
127F
  8
0
 10
154.6499058815898
 20
4.4057244020026261
 30
0.0
 40
1.536181154018279
 50
274.19423217130299
 51
357.83117172523311
  0
ATTDEF
  5
1367
  8
DEFPOINTS
 10
150.26609665669679
 20
10.37775101233987
 30
0.0
 40
0.001
  1
STAINLESS STEEL
  3

  2
MATERIAL
 70
     0
1001
ACDBATTR
1070
     0
1070
     1
  0
ATTDEF
  5
1368
  8
DEFPOINTS
 10
150.26609665669679
 20
10.37941767900654
 30
0.0
 40
0.001
  1
KITCHEN SINK
  3

  2
PRODUCT
 70
     0
1001
ACDBATTR
1070
     0
1070
     1
  0
ATTDEF
  5
1369
  8
DEFPOINTS
 10
150.26609665669679
 20
10.38108434567321
 30
0.0
 40
0.001
  1
MIDDLETON
  3

  2
TRADENAME
 70
     0
1001
ACDBATTR
1070
     0
1070
     1
  0
ATTDEF
  5
136A
  8
DEFPOINTS
 10
150.26609665669679
 20
10.38275101233987
 30
0.0
 40
0.001
  1
14711-4
  3

  2
MODELNUMBER
 70
     0
1001
ACDBATTR
1070
     0
1070
     1
  0
ENDSEC
  0
EOF
