  0
SECTION
  2
HEADER
  9
$ACADVER
  1
AC1009
  9
$INSBASE
 10
150.4783042713884
 20
46.599314017752299
 30
0.0
  9
$EXTMIN
 10
133.9783042713884
 20
35.599314017752292
 30
0.0
  9
$EXTMAX
 10
166.9783042713884
 20
57.599314017752292
 30
0.0
  9
$LIMMIN
 10
0.0
 20
0.0
  9
$LIMMAX
 10
11.692913385800001
 20
8.2677165353999982
  9
$ORTHOMODE
 70
     0
  9
$REGENMODE
 70
     1
  9
$FILLMODE
 70
     1
  9
$QTEXTMODE
 70
     0
  9
$MIRRTEXT
 70
     0
  9
$DRAGMODE
 70
     2
  9
$LTSCALE
 40
0.6431102362
  9
$OSMODE
 70
  3071
  9
$ATTMODE
 70
     1
  9
$TEXTSIZE
 40
0.2
  9
$TRACEWID
 40
0.05
  9
$TEXTSTYLE
  7
STANDARD
  9
$CLAYER
  8
0
  9
$CELTYPE
  6
BYLAYER
  9
$CECOLOR
 62
   256
  9
$DIMSCALE
 40
1.0
  9
$DIMASZ
 40
0.1875
  9
$DIMEXO
 40
0.0625
  9
$DIMDLI
 40
0.4443307087
  9
$DIMRND
 40
0.0
  9
$DIMDLE
 40
0.0
  9
$DIMEXE
 40
0.125
  9
$DIMTP
 40
0.01
  9
$DIMTM
 40
0.01
  9
$DIMTXT
 40
2.0
  9
$DIMCEN
 40
0.1052362205
  9
$DIMTSZ
 40
0.0
  9
$DIMTOL
 70
     1
  9
$DIMLIM
 70
     0
  9
$DIMTIH
 70
     1
  9
$DIMTOH
 70
     1
  9
$DIMSE1
 70
     0
  9
$DIMSE2
 70
     0
  9
$DIMTAD
 70
     0
  9
$DIMZIN
 70
     0
  9
$DIMBLK
  1

  9
$DIMASO
 70
     1
  9
$DIMSHO
 70
     1
  9
$DIMPOST
  1
\X
  9
$DIMAPOST
  1

  9
$DIMALT
 70
     1
  9
$DIMALTD
 70
     2
  9
$DIMALTF
 40
25.399999999999999
  9
$DIMLFAC
 40
1.0
  9
$DIMTOFL
 70
     0
  9
$DIMTVP
 40
0.0
  9
$DIMTIX
 70
     0
  9
$DIMSOXD
 70
     0
  9
$DIMSAH
 70
     0
  9
$DIMBLK1
  1

  9
$DIMBLK2
  1

  9
$DIMSTYLE
  2
STANDARD
  9
$DIMCLRD
 70
     0
  9
$DIMCLRE
 70
     0
  9
$DIMCLRT
 70
     0
  9
$DIMTFAC
 40
1.0
  9
$DIMGAP
 40
0.09
  9
$LUNITS
 70
     2
  9
$LUPREC
 70
     4
  9
$SKETCHINC
 40
0.1
  9
$FILLETRAD
 40
0.0
  9
$AUNITS
 70
     0
  9
$AUPREC
 70
     0
  9
$MENU
  1
.
  9
$ELEVATION
 40
0.0
  9
$PELEVATION
 40
0.0
  9
$THICKNESS
 40
0.0
  9
$LIMCHECK
 70
     0
  9
$BLIPMODE
 70
     0
  9
$CHAMFERA
 40
0.0
  9
$CHAMFERB
 40
0.0
  9
$SKPOLY
 70
     0
  9
$TDCREATE
 40
2458095.6173564121
  9
$TDUPDATE
 40
2458099.4549576272
  9
$TDINDWG
 40
0.0339585648
  9
$TDUSRTIMER
 40
0.0339585648
  9
$USRTIMER
 70
     1
  9
$ANGBASE
 50
0.0
  9
$ANGDIR
 70
     0
  9
$PDMODE
 70
     0
  9
$PDSIZE
 40
0.3125
  9
$PLINEWID
 40
0.0
  9
$COORDS
 70
     1
  9
$SPLFRAME
 70
     0
  9
$SPLINETYPE
 70
     6
  9
$SPLINESEGS
 70
     8
  9
$ATTDIA
 70
     1
  9
$ATTREQ
 70
     1
  9
$HANDLING
 70
     1
  9
$HANDSEED
  5
1A8C
  9
$SURFTAB1
 70
     6
  9
$SURFTAB2
 70
     6
  9
$SURFTYPE
 70
     6
  9
$SURFU
 70
     6
  9
$SURFV
 70
     6
  9
$UCSNAME
  2

  9
$UCSORG
 10
0.0
 20
0.0
 30
0.0
  9
$UCSXDIR
 10
1.0
 20
0.0
 30
0.0
  9
$UCSYDIR
 10
0.0
 20
1.0
 30
0.0
  9
$PUCSNAME
  2

  9
$PUCSORG
 10
0.0
 20
0.0
 30
0.0
  9
$PUCSXDIR
 10
1.0
 20
0.0
 30
0.0
  9
$PUCSYDIR
 10
0.0
 20
1.0
 30
0.0
  9
$USERI1
 70
     0
  9
$USERI2
 70
     0
  9
$USERI3
 70
     0
  9
$USERI4
 70
     0
  9
$USERI5
 70
     0
  9
$USERR1
 40
0.0
  9
$USERR2
 40
0.0
  9
$USERR3
 40
0.0
  9
$USERR4
 40
0.0
  9
$USERR5
 40
0.0
  9
$WORLDVIEW
 70
     1
  9
$SHADEDGE
 70
     3
  9
$SHADEDIF
 70
    70
  9
$TILEMODE
 70
     1
  9
$MAXACTVP
 70
    64
  9
$PLIMCHECK
 70
     0
  9
$PEXTMIN
 10
1.0000000000000000E+020
 20
1.0000000000000000E+020
 30
1.0000000000000000E+020
  9
$PEXTMAX
 10
-1.0000000000000000E+020
 20
-1.0000000000000000E+020
 30
-1.0000000000000000E+020
  9
$PLIMMIN
 10
0.0
 20
0.0
  9
$PLIMMAX
 10
12.0
 20
9.0
  9
$UNITMODE
 70
     0
  9
$VISRETAIN
 70
     1
  9
$PLINEGEN
 70
     0
  9
$PSLTSCALE
 70
     1
  0
ENDSEC
  0
SECTION
  2
TABLES
  0
TABLE
  2
VPORT
 70
     1
  0
VPORT
  2
*ACTIVE
 70
     0
 10
0.0
 20
0.0
 11
1.0
 21
1.0
 12
0.0
 22
0.0
 13
0.0
 23
0.0
 14
1.0
 24
1.0
 15
0.0
 25
0.0
 16
-0.0000000000000284
 26
0.0
 36
111.5263301357199
 17
150.4783042713884
 27
46.599314017752292
 37
0.0
 40
39.661064030103908
 41
2.0983240223463682
 42
50.0
 43
0.0
 44
0.0
 50
0.0
 51
0.0
 71
     0
 72
   100
 73
     1
 74
     1
 75
     0
 76
     0
 77
     0
 78
     0
  0
ENDTAB
  0
TABLE
  2
LTYPE
 70
     2
  0
LTYPE
  2
CONTINUOUS
 70
     0
  3
Solid line
 72
    65
 73
     0
 40
0.0
  0
LTYPE
  2
PHANTOM2
 70
     0
  3
___ _ _ ___ _ _ ___ _ _ ___ _ _
 72
    65
 73
     6
 40
1.25
 49
0.625
 49
-0.125
 49
0.125
 49
-0.125
 49
0.125
 49
-0.125
  0
ENDTAB
  0
TABLE
  2
LAYER
 70
     3
  0
LAYER
  2
0
 70
     0
 62
   255
  6
CONTINUOUS
  0
LAYER
  2
DEFPOINTS
 70
     0
 62
     7
  6
CONTINUOUS
  0
ENDTAB
  0
TABLE
  2
STYLE
 70
     1
  0
STYLE
  2
STANDARD
 70
     0
 40
0.0
 41
0.8
 50
0.0
 71
     0
 42
0.2
  3
txt
  4

  0
ENDTAB
  0
TABLE
  2
VIEW
 70
     0
  0
ENDTAB
  0
TABLE
  2
UCS
 70
     0
  0
ENDTAB
  0
TABLE
  2
APPID
 70
    10
  0
APPID
  2
ACAD
 70
     0
  0
APPID
  2
ACAD_MLEADERVER
 70
     0
  0
APPID
  2
ACAD_EXEMPT_FROM_CAD_STANDARDS
 70
     0
  0
APPID
  2
ACAD_NAV_VCDISPLAY
 70
     0
  0
APPID
  2
ACAD_DSTYLE_DIMJAG
 70
     0
  0
APPID
  2
ACAD_DSTYLE_DIMTALN
 70
     0
  0
APPID
  2
ACADANNOTATIVE
 70
     0
  0
APPID
  2
ACAECLAYERSTANDARD
 70
     0
  0
APPID
  2
ACCMTRANSPARENCY
 70
     0
  0
APPID
  2
ACDBATTR
 70
     0
  0
ENDTAB
  0
TABLE
  2
DIMSTYLE
 70
     1
  0
DIMSTYLE
  2
STANDARD
 70
     0
  3

  4

  5

  6

  7

 40
1.0
 41
0.1875
 42
0.0625
 43
0.38
 44
0.125
 45
0.0
 46
0.0
 47
0.01
 48
0.01
140
0.15625
141
0.09
142
0.0
143
25.399999999999999
144
1.0
145
0.0
146
1.0
147
0.09
 71
     1
 72
     0
 73
     1
 74
     1
 75
     0
 76
     0
 77
     0
 78
     4
170
     0
171
     2
172
     0
173
     0
174
     0
175
     0
176
     0
177
     0
178
     0
  0
ENDTAB
  0
ENDSEC
  0
SECTION
  2
BLOCKS
  0
BLOCK
  8
0
  2
$MODEL_SPACE
 70
     0
 10
0.0
 20
0.0
 30
0.0
  3
$MODEL_SPACE
  1

  0
ENDBLK
  5
21
  8
0
  0
BLOCK
 67
     1
  8
0
  2
$PAPER_SPACE
 70
     0
 10
0.0
 20
0.0
 30
0.0
  3
$PAPER_SPACE
  1

  0
ENDBLK
  5
1D
 67
     1
  8
0
  0
ENDSEC
  0
SECTION
  2
ENTITIES
  0
LINE
  5
1467
  8
0
 10
135.7219691347884
 20
56.389131118152299
 30
0.0
 11
135.1884871709884
 21
55.855649154252298
 31
0.0
  0
LINE
  5
1468
  8
0
 10
133.9783042713884
 20
36.537314017752301
 30
0.0
 11
133.9783042713884
 21
56.599314017752299
 31
0.0
  0
LINE
  5
1469
  8
0
 10
135.4923349340884
 20
55.653639053052288
 30
0.0
 11
135.9239792360884
 21
56.085283355052297
 31
0.0
  0
LINE
  5
146A
  8
0
 10
135.18848717108841
 20
37.842978881152298
 30
0.0
 11
136.2219691347884
 21
36.809496917352298
 31
0.0
  0
LINE
  5
146B
  8
0
 10
136.4239792360884
 20
37.113344680552302
 30
0.0
 11
135.4923349340884
 21
38.044988982552297
 31
0.0
  0
LINE
  5
146C
  8
0
 10
134.9544565081884
 20
38.407978881252298
 30
0.0
 11
134.9544565081884
 21
55.2906491542523
 31
0.0
  0
LINE
  5
146D
  8
0
 10
135.31215203448841
 20
55.218639053052293
 30
0.0
 11
135.31215203448841
 21
38.4799889825523
 31
0.0
  0
LINE
  5
146E
  8
0
 10
166.04030427138841
 20
35.599314017752299
 30
0.0
 11
134.91630427138841
 21
35.599314017752299
 31
0.0
  0
LINE
  5
146F
  8
0
 10
140.35609889698841
 20
45.1993140177523
 30
0.0
 11
140.35609961478841
 21
45.196705779352293
 31
0.0
  0
LINE
  5
1470
  8
0
 10
140.7994565081884
 20
54.4907264456523
 30
0.0
 11
140.7994565081884
 21
55.217940008052288
 31
0.0
  0
LINE
  5
1471
  8
0
 10
141.0321520344884
 20
55.238173414052298
 30
0.0
 11
141.0321520344884
 21
54.510959851652288
 31
0.0
  0
LINE
  5
1472
  8
0
 10
164.16963940788841
 20
36.575466254652298
 30
0.0
 11
136.78696913478839
 21
36.575466254652298
 31
0.0
  0
LINE
  5
1473
  8
0
 10
136.8589792360884
 20
36.933161780852302
 30
0.0
 11
164.0976293065884
 21
36.933161780852302
 31
0.0
  0
LINE
  5
1474
  8
0
 10
141.03348717098839
 20
53.925726445652302
 30
0.0
 11
141.2447166992884
 21
53.714496917352299
 31
0.0
  0
LINE
  5
1475
  8
0
 10
141.3949501051884
 20
53.893344680552289
 30
0.0
 11
141.2123349340884
 21
54.075959851652293
 31
0.0
  0
LINE
  5
1476
  8
0
 10
140.1869302615884
 20
56.085283355052297
 30
0.0
 11
140.6192736085884
 21
55.652940008052298
 31
0.0
  0
LINE
  5
1477
  8
0
 10
140.79812137168841
 20
55.803173414052303
 30
0.0
 11
140.33716366758841
 21
56.264131118152299
 31
0.0
  0
LINE
  5
1478
  8
0
 10
160.61944487508839
 20
56.264131118152299
 30
0.0
 11
160.15848717098839
 21
55.803173414052303
 31
0.0
  0
LINE
  5
1479
  8
0
 10
160.3373349340884
 20
55.652940008052298
 30
0.0
 11
160.7696782810884
 21
56.085283355052297
 31
0.0
  0
LINE
  5
147A
  8
0
 10
159.7442736085884
 20
54.075959851552291
 30
0.0
 11
159.5616584374884
 21
53.893344680552289
 31
0.0
  0
LINE
  5
147B
  8
0
 10
159.7118918433884
 20
53.714496917352299
 30
0.0
 11
159.92312137168841
 21
53.925726445652302
 31
0.0
  0
LINE
  5
147C
  8
0
 10
159.14689184348839
 20
53.480466254652292
 30
0.0
 11
141.8097166992884
 21
53.480466254652292
 31
0.0
  0
LINE
  5
147D
  8
0
 10
141.8299501051884
 20
53.713161780852303
 30
0.0
 11
159.1266584374884
 21
53.713161780852303
 31
0.0
  0
LINE
  5
147E
  8
0
 10
159.9244565081884
 20
54.510959851652288
 30
0.0
 11
159.9244565081884
 21
55.238173414052298
 31
0.0
  0
LINE
  5
147F
  8
0
 10
160.1571520344884
 20
55.217940008052288
 30
0.0
 11
160.1571520344884
 21
54.4907264456523
 31
0.0
  0
LINE
  5
1480
  8
0
 10
164.5976293065884
 20
56.265466254652303
 30
0.0
 11
161.20467828108841
 21
56.265466254652303
 31
0.0
  0
LINE
  5
1481
  8
0
 10
139.7519302615884
 20
56.265466254652303
 30
0.0
 11
136.3589792360884
 21
56.265466254652303
 31
0.0
  0
LINE
  5
1482
  8
0
 10
160.78534815228841
 20
56.392537197152301
 30
0.0
 11
140.1712603903884
 21
56.392537197152301
 31
0.0
  0
LINE
  5
1483
  8
0
 10
136.28696913478839
 20
56.6231617808523
 30
0.0
 11
164.66963940788841
 21
56.6231617808523
 31
0.0
  0
LINE
  5
1484
  8
0
 10
134.9783042713884
 20
57.599314017752292
 30
0.0
 11
165.9783042713884
 21
57.599314017752292
 31
0.0
  0
LINE
  5
1485
  8
0
 10
165.6444565081884
 20
38.4799889825523
 30
0.0
 11
165.6444565081884
 21
55.218639053052293
 31
0.0
  0
LINE
  5
1486
  8
0
 10
166.0021520344884
 20
55.2906491542523
 30
0.0
 11
166.0021520344884
 21
38.407978881252298
 31
0.0
  0
LINE
  5
1487
  8
0
 10
166.9783042713884
 20
56.599314017752299
 30
0.0
 11
166.9783042713884
 21
36.537314017752301
 31
0.0
  0
LINE
  5
1488
  8
0
 10
165.4642736085884
 20
38.044988982552297
 30
0.0
 11
164.5326293065884
 21
37.113344680552302
 31
0.0
  0
LINE
  5
1489
  8
0
 10
164.73463940788841
 20
36.809496917352298
 30
0.0
 11
165.76812137168841
 21
37.842978881252293
 31
0.0
  0
LINE
  5
148A
  8
0
 10
165.0326293065884
 20
56.085283355052297
 30
0.0
 11
165.4642736085884
 21
55.653639053052288
 31
0.0
  0
LINE
  5
148B
  8
0
 10
165.76812137168841
 20
55.855649154252298
 30
0.0
 11
165.2346394079884
 21
56.389131118052298
 31
0.0
  0
ARC
  5
148C
  8
0
 10
142.73380427138841
 20
12.928314017752291
 30
0.0
 40
39.980134012800001
 50
86.05752256909976
 51
93.942477575999249
  0
ARC
  5
148D
  8
0
 10
134.91630427138841
 20
36.537314017752301
 30
0.0
 40
0.9379999999999999
 50
180.0
 51
270.0
  0
ARC
  5
148E
  8
0
 10
140.2758153249884
 20
41.804913552652287
 30
0.0
 40
4.2301340127999989
 50
185.44833846889981
 51
266.05752722089971
  0
ARC
  5
148F
  8
0
 10
145.1917932176884
 20
41.804913552652287
 30
0.0
 40
4.2301340127999989
 50
273.94247416909928
 51
354.55166287120022
  0
ARC
  5
1490
  8
0
 10
125.0923042713884
 20
45.1993140177523
 30
0.0
 40
39.980134012800001
 50
354.55165824149981
 51
5.448341618599966
  0
ARC
  5
1491
  8
0
 10
109.6033042713884
 20
45.1993140177523
 30
0.0
 40
39.980134012800001
 50
354.55165838139999
 51
5.4483417584997866
  0
ARC
  5
1492
  8
0
 10
140.2758153249884
 20
48.593714482952301
 30
0.0
 40
4.2301340127999989
 50
93.942474169200466
 51
174.55166287120019
  0
ARC
  5
1493
  8
0
 10
134.9783042713884
 20
56.599314017752299
 30
0.0
 40
1.0
 50
90.0
 51
180.0
  0
ARC
  5
1494
  8
0
 10
142.73380427138841
 20
45.1993140177523
 30
0.0
 40
2.3777053743000001
 50
180.06285094859999
 51
0.0
  0
ARC
  5
1495
  8
0
 10
142.73380427138841
 20
45.1993140177523
 30
0.0
 40
2.3777053743000001
 50
0.0620618743000492
 51
180.0
  0
CIRCLE
  5
1496
  8
0
 10
142.73380427138841
 20
45.1993140177523
 30
0.0
 40
1.678089546699999
  0
ARC
  5
1497
  8
0
 10
145.1917932176884
 20
48.593714482952301
 30
0.0
 40
4.2301340127999989
 50
5.4483384687995713
 51
86.057527220899672
  0
CIRCLE
  5
1498
  8
0
 10
146.4783042713884
 20
55.049314017752287
 30
0.0
 40
0.72
  0
ARC
  5
1499
  8
0
 10
142.73380427138841
 20
77.470314017752287
 30
0.0
 40
39.980134012800001
 50
266.05752256909977
 51
273.9424775760009
  0
ARC
  5
149A
  8
0
 10
158.22280427138841
 20
12.928314017752291
 30
0.0
 40
39.980134012800001
 50
86.057522423999103
 51
93.942477430900254
  0
ARC
  5
149B
  8
0
 10
155.7648153249884
 20
41.804913552652287
 30
0.0
 40
4.2301340127999989
 50
185.44833712879969
 51
266.05752583089912
  0
ARC
  5
149C
  8
0
 10
160.6807932176884
 20
41.804913552652287
 30
0.0
 40
4.2301340127999989
 50
273.94247277910029
 51
354.55166153110019
  0
ARC
  5
149D
  8
0
 10
166.04030427138841
 20
36.537314017752301
 30
0.0
 40
0.9379999999999999
 50
270.0
 51
0.0
  0
ARC
  5
149E
  8
0
 10
155.7648153249884
 20
48.593714482952301
 30
0.0
 40
4.2301340127999989
 50
93.942472779100314
 51
174.55166153120041
  0
CIRCLE
  5
149F
  8
0
 10
150.4783042713884
 20
55.049314017752287
 30
0.0
 40
0.72
  0
CIRCLE
  5
14A0
  8
0
 10
154.4783042713884
 20
55.049314017752287
 30
0.0
 40
0.72
  0
ARC
  5
14A1
  8
0
 10
160.6807932176884
 20
48.593714482952301
 30
0.0
 40
4.2301340127999989
 50
5.4483371287997766
 51
86.057525830900715
  0
ARC
  5
14A2
  8
0
 10
165.9783042713884
 20
56.599314017752299
 30
0.0
 40
1.0
 50
0.0
 51
90.0
  0
ARC
  5
14A3
  8
0
 10
158.22280427138841
 20
77.470314017752287
 30
0.0
 40
39.980134012800001
 50
266.0575224239991
 51
273.94247743090023
  0
ARC
  5
14A4
  8
0
 10
191.3533042713884
 20
45.1993140177523
 30
0.0
 40
39.980134012800001
 50
174.55165824150021
 51
185.4483416185999
  0
ARC
  5
14A5
  8
0
 10
175.86430427138839
 20
45.1993140177523
 30
0.0
 40
39.980134012800001
 50
174.55165838139999
 51
185.44834175849971
  0
LINE
  5
14A6
  8
0
 10
145.11150942428841
 20
45.1993140177523
 30
0.0
 11
145.11150872688839
 21
45.201889510352288
 31
0.0
  0
LINE
  5
14A7
  8
0
 10
155.84509889698839
 20
45.1993140177523
 30
0.0
 11
155.84509961478841
 21
45.196705779352293
 31
0.0
  0
ARC
  5
14A8
  8
0
 10
158.22280427138841
 20
45.1993140177523
 30
0.0
 40
2.3777053743000001
 50
180.06285094859999
 51
0.0
  0
ARC
  5
14A9
  8
0
 10
158.22280427138841
 20
45.1993140177523
 30
0.0
 40
2.3777053743000001
 50
0.0620618743000492
 51
180.0
  0
CIRCLE
  5
14AA
  8
0
 10
158.22280427138841
 20
45.1993140177523
 30
0.0
 40
1.678089546699999
  0
LINE
  5
14AB
  8
0
 10
160.60050942428839
 20
45.1993140177523
 30
0.0
 11
160.60050872688839
 21
45.201889510352288
 31
0.0
  0
ARC
  5
14AC
  8
0
 10
136.91402591597691
 20
37.681239121421527
 30
0.0
 40
0.7500998896412938
 50
229.20847977979949
 51
265.79152020497662
  0
ARC
  5
14AD
  8
0
 10
136.87088269134409
 20
37.577082163830497
 30
0.0
 40
1.0051248253290239
 50
229.78895274459299
 51
265.21104726246818
  0
ARC
  5
14AE
  8
0
 10
136.01138024773579
 20
38.51480169126701
 30
0.0
 40
0.7000942928557126
 50
182.85025062909421
 51
222.14974936364399
  0
ARC
  5
14AF
  8
0
 10
135.72399930391171
 20
38.395764606861228
 30
0.0
 40
0.7696397228238939
 50
179.09067095751689
 51
225.90932906287361
  0
ARC
  5
14B0
  8
0
 10
135.60909551585021
 20
55.350458136035471
 30
0.0
 40
0.6573654574544516
 50
129.77984783812079
 51
185.22015215163009
  0
ARC
  5
14B1
  8
0
 10
135.94406183682671
 20
55.211710543128547
 30
0.0
 40
0.631947784663332
 50
135.62818850632061
 51
179.37181150094199
  0
ARC
  5
14B2
  8
0
 10
136.4318805312889
 20
55.474284059322983
 30
0.0
 40
0.7945337406605321
 50
95.264495862694588
 51
129.7355041300429
  0
ARC
  5
14B3
  8
0
 10
136.34803014605109
 20
55.676716796464788
 30
0.0
 40
0.9484126504685034
 50
93.691388670907131
 51
131.30861132203071
  0
ARC
  5
14B4
  8
0
 10
142.56628712332341
 20
59.315582411550231
 30
0.0
 40
3.7789345557826128
 50
230.67017564633511
 51
233.85140287854
  0
ARC
  5
14B5
  8
0
 10
139.67703190858731
 20
55.469462735294812
 30
0.0
 40
0.7995194594953772
 50
50.375305220535957
 51
84.624694786726693
  0
ARC
  5
14B6
  8
0
 10
140.0752293926156
 20
55.172772414951787
 30
0.0
 40
0.7256342235571605
 50
3.568721604813669
 51
41.431278387922028
  0
ARC
  5
14B7
  8
0
 10
139.96507372112211
 20
55.127144441713646
 30
0.0
 40
1.0728390184717189
 50
5.9402222704061671
 51
39.059777739842879
  0
ARC
  5
14B8
  8
0
 10
141.73235951558061
 20
54.546178186389469
 30
0.0
 40
0.7010926099161955
 50
182.87937930799851
 51
222.1206206847408
  0
ARC
  5
14B9
  8
0
 10
141.48973849209099
 20
54.445681268035152
 30
0.0
 40
0.6917501610603613
 50
176.2663889800987
 51
228.73361103014909
  0
ARC
  5
14BA
  8
0
 10
141.820373424368
 20
54.305224527610612
 30
0.0
 40
0.5921401936319976
 50
224.0733151864614
 51
270.92668479831559
  0
ARC
  5
14BB
  8
0
 10
141.8118470506748
 20
54.28464004070203
 30
0.0
 40
0.8041766078210602
 50
225.15178294242281
 51
269.8482170646389
  0
ARC
  5
14BC
  8
0
 10
158.3903214193534
 20
59.315582411550231
 30
0.0
 40
3.7789345557826128
 50
306.14859712146
 51
309.3298243536629
  0
ARC
  5
14BD
  8
0
 10
161.27957663408961
 20
55.469462735294812
 30
0.0
 40
0.7995194594953772
 50
95.375305213273307
 51
129.62469477946399
  0
ARC
  5
14BE
  8
0
 10
160.88137915006121
 20
55.172772414951787
 30
0.0
 40
0.7256342235571605
 50
138.56872161207801
 51
176.4312783951863
  0
ARC
  5
14BF
  8
0
 10
160.99153482155481
 20
55.127144441713646
 30
0.0
 40
1.0728390184717189
 50
140.9402222601571
 51
174.0597777295938
  0
ARC
  5
14C0
  8
0
 10
159.22424902709619
 20
54.546178186389469
 30
0.0
 40
0.7010926099161955
 50
317.87937931525943
 51
357.12062069200113
  0
ARC
  5
14C1
  8
0
 10
159.46687005058581
 20
54.445681268035152
 30
0.0
 40
0.6917501610603613
 50
311.26638896985088
 51
3.7336110199012991
  0
ARC
  5
14C2
  8
0
 10
159.1362351183088
 20
54.305224527610612
 30
0.0
 40
0.5921401936319976
 50
269.0733152016843
 51
315.9266848135386
  0
ARC
  5
14C3
  8
0
 10
159.14476149200209
 20
54.28464004070203
 30
0.0
 40
0.8041766078210602
 50
270.1517829353611
 51
314.84821705757707
  0
ARC
  5
14C4
  8
0
 10
164.0425826268
 20
37.681239121421527
 30
0.0
 40
0.7500998896412938
 50
274.20847979502338
 51
310.79152022020043
  0
ARC
  5
14C5
  8
0
 10
164.08572585143281
 20
37.577082163830497
 30
0.0
 40
1.0051248253290239
 50
274.7889527375317
 51
310.21104725540698
  0
ARC
  5
14C6
  8
0
 10
164.94522829504109
 20
38.51480169126701
 30
0.0
 40
0.7000942928557126
 50
317.8502506363559
 51
357.14974937090619
  0
ARC
  5
14C7
  8
0
 10
165.23260923886519
 20
38.395764606861228
 30
0.0
 40
0.7696397228238939
 50
314.09067093712628
 51
0.9093290424830884
  0
ARC
  5
14C8
  8
0
 10
165.34751302692669
 20
55.350458136035471
 30
0.0
 40
0.6573654574544516
 50
354.7798478483698
 51
50.220152161879199
  0
ARC
  5
14C9
  8
0
 10
165.0125467059502
 20
55.211710543128547
 30
0.0
 40
0.631947784663332
 50
0.6281884990579421
 51
44.371811493679502
  0
ARC
  5
14CA
  8
0
 10
164.52472801148801
 20
55.474284059322983
 30
0.0
 40
0.7945337406605321
 50
50.264495869957102
 51
84.735504137305426
  0
ARC
  5
14CB
  8
0
 10
164.60857839672579
 20
55.676716796464788
 30
0.0
 40
0.9484126504685034
 50
48.691388677969222
 51
86.308611329092884
  0
ATTDEF
  5
1705
  8
DEFPOINTS
 10
150.47576425565131
 20
46.600630310592102
 30
0.0
 40
0.001
  1
STAINLESS STEEL
  3

  2
MATERIAL
 70
     0
1001
ACDBATTR
1070
     0
1070
     1
  0
ATTDEF
  5
1706
  8
DEFPOINTS
 10
150.47576425565131
 20
46.602296977258767
 30
0.0
 40
0.001
  1
KITCHEN SINK
  3

  2
PRODUCT
 70
     0
1001
ACDBATTR
1070
     0
1070
     1
  0
ATTDEF
  5
1707
  8
DEFPOINTS
 10
150.47576425565131
 20
46.603963643925432
 30
0.0
 40
0.001
  1
MIDDLETON
  3

  2
TRADENAME
 70
     0
1001
ACDBATTR
1070
     0
1070
     1
  0
ATTDEF
  5
1708
  8
DEFPOINTS
 10
150.47576425565131
 20
46.605630310592097
 30
0.0
 40
0.001
  1
14633-3
  3

  2
MODELNUMBER
 70
     0
1001
ACDBATTR
1070
     0
1070
     1
  0
POINT
  5
186A
  8
DEFPOINTS
 10
150.4783042713884
 20
55.049314017752287
 30
0.0
  0
CIRCLE
  5
19C1
  8
0
 10
142.73380427138841
 20
45.1993140177523
 30
0.0
 40
0.31
  0
CIRCLE
  5
19C2
  8
0
 10
142.73380427138841
 20
45.1993140177523
 30
0.0
 40
0.2760938555
  0
CIRCLE
  5
19C3
  8
0
 10
158.22280427138841
 20
45.1993140177523
 30
0.0
 40
0.31
  0
CIRCLE
  5
19C4
  8
0
 10
158.22280427138841
 20
45.1993140177523
 30
0.0
 40
0.2760938555
  0
ENDSEC
  0
EOF
