  0
SECTION
  2
HEADER
  9
$ACADVER
  1
AC1009
  9
$INSBASE
 10
130.8065207965752
 20
9.3279262907760554
 30
0.0
  9
$EXTMIN
 10
119.8064070664786
 20
3.3329262907760602
 30
0.0
  9
$EXTMAX
 10
141.8066345266719
 20
9.6079262907760583
 30
0.0
  9
$LIMMIN
 10
0.0
 20
0.0
  9
$LIMMAX
 10
11.692913385800001
 20
8.2677165353999982
  9
$ORTHOMODE
 70
     1
  9
$REGENMODE
 70
     1
  9
$FILLMODE
 70
     1
  9
$QTEXTMODE
 70
     0
  9
$MIRRTEXT
 70
     0
  9
$DRAGMODE
 70
     2
  9
$LTSCALE
 40
0.6431102362
  9
$OSMODE
 70
  3071
  9
$ATTMODE
 70
     1
  9
$TEXTSIZE
 40
0.2
  9
$TRACEWID
 40
0.05
  9
$TEXTSTYLE
  7
STANDARD
  9
$CLAYER
  8
0
  9
$CELTYPE
  6
BYLAYER
  9
$CECOLOR
 62
   256
  9
$DIMSCALE
 40
1.0
  9
$DIMASZ
 40
0.1875
  9
$DIMEXO
 40
0.0625
  9
$DIMDLI
 40
0.4443307087
  9
$DIMRND
 40
0.0
  9
$DIMDLE
 40
0.0
  9
$DIMEXE
 40
0.125
  9
$DIMTP
 40
0.01
  9
$DIMTM
 40
0.01
  9
$DIMTXT
 40
2.0
  9
$DIMCEN
 40
0.1052362205
  9
$DIMTSZ
 40
0.0
  9
$DIMTOL
 70
     1
  9
$DIMLIM
 70
     0
  9
$DIMTIH
 70
     1
  9
$DIMTOH
 70
     1
  9
$DIMSE1
 70
     0
  9
$DIMSE2
 70
     0
  9
$DIMTAD
 70
     0
  9
$DIMZIN
 70
     0
  9
$DIMBLK
  1

  9
$DIMASO
 70
     1
  9
$DIMSHO
 70
     1
  9
$DIMPOST
  1
\X
  9
$DIMAPOST
  1

  9
$DIMALT
 70
     1
  9
$DIMALTD
 70
     2
  9
$DIMALTF
 40
25.399999999999999
  9
$DIMLFAC
 40
1.0
  9
$DIMTOFL
 70
     0
  9
$DIMTVP
 40
0.0
  9
$DIMTIX
 70
     0
  9
$DIMSOXD
 70
     0
  9
$DIMSAH
 70
     0
  9
$DIMBLK1
  1

  9
$DIMBLK2
  1

  9
$DIMSTYLE
  2
STANDARD
  9
$DIMCLRD
 70
     0
  9
$DIMCLRE
 70
     0
  9
$DIMCLRT
 70
     0
  9
$DIMTFAC
 40
1.0
  9
$DIMGAP
 40
0.09
  9
$LUNITS
 70
     2
  9
$LUPREC
 70
     4
  9
$SKETCHINC
 40
0.1
  9
$FILLETRAD
 40
0.0
  9
$AUNITS
 70
     0
  9
$AUPREC
 70
     0
  9
$MENU
  1
.
  9
$ELEVATION
 40
0.0
  9
$PELEVATION
 40
0.0
  9
$THICKNESS
 40
0.0
  9
$LIMCHECK
 70
     0
  9
$BLIPMODE
 70
     0
  9
$CHAMFERA
 40
0.0
  9
$CHAMFERB
 40
0.0
  9
$SKPOLY
 70
     0
  9
$TDCREATE
 40
2458095.605403021
  9
$TDUPDATE
 40
2458096.6682990859
  9
$TDINDWG
 40
0.0483243403
  9
$TDUSRTIMER
 40
0.0483243403
  9
$USRTIMER
 70
     1
  9
$ANGBASE
 50
0.0
  9
$ANGDIR
 70
     0
  9
$PDMODE
 70
     0
  9
$PDSIZE
 40
0.3125
  9
$PLINEWID
 40
0.0
  9
$COORDS
 70
     1
  9
$SPLFRAME
 70
     0
  9
$SPLINETYPE
 70
     6
  9
$SPLINESEGS
 70
     8
  9
$ATTDIA
 70
     1
  9
$ATTREQ
 70
     1
  9
$HANDLING
 70
     1
  9
$HANDSEED
  5
E12
  9
$SURFTAB1
 70
     6
  9
$SURFTAB2
 70
     6
  9
$SURFTYPE
 70
     6
  9
$SURFU
 70
     6
  9
$SURFV
 70
     6
  9
$UCSNAME
  2

  9
$UCSORG
 10
0.0
 20
0.0
 30
0.0
  9
$UCSXDIR
 10
1.0
 20
0.0
 30
0.0
  9
$UCSYDIR
 10
0.0
 20
1.0
 30
0.0
  9
$PUCSNAME
  2

  9
$PUCSORG
 10
0.0
 20
0.0
 30
0.0
  9
$PUCSXDIR
 10
1.0
 20
0.0
 30
0.0
  9
$PUCSYDIR
 10
0.0
 20
1.0
 30
0.0
  9
$USERI1
 70
     0
  9
$USERI2
 70
     0
  9
$USERI3
 70
     0
  9
$USERI4
 70
     0
  9
$USERI5
 70
     0
  9
$USERR1
 40
0.0
  9
$USERR2
 40
0.0
  9
$USERR3
 40
0.0
  9
$USERR4
 40
0.0
  9
$USERR5
 40
0.0
  9
$WORLDVIEW
 70
     1
  9
$SHADEDGE
 70
     3
  9
$SHADEDIF
 70
    70
  9
$TILEMODE
 70
     1
  9
$MAXACTVP
 70
    64
  9
$PLIMCHECK
 70
     0
  9
$PEXTMIN
 10
1.0000000000000000E+020
 20
1.0000000000000000E+020
 30
1.0000000000000000E+020
  9
$PEXTMAX
 10
-1.0000000000000000E+020
 20
-1.0000000000000000E+020
 30
-1.0000000000000000E+020
  9
$PLIMMIN
 10
0.0
 20
0.0
  9
$PLIMMAX
 10
12.0
 20
9.0
  9
$UNITMODE
 70
     0
  9
$VISRETAIN
 70
     1
  9
$PLINEGEN
 70
     0
  9
$PSLTSCALE
 70
     1
  0
ENDSEC
  0
SECTION
  2
TABLES
  0
TABLE
  2
VPORT
 70
     1
  0
VPORT
  2
*ACTIVE
 70
     0
 10
0.0
 20
0.0
 11
1.0
 21
1.0
 12
0.0
 22
0.0
 13
0.0
 23
0.0
 14
1.0
 24
1.0
 15
0.0
 25
0.0
 16
-0.0000000000000284
 26
0.0
 36
64.253023133113544
 17
130.8065207377056
 27
6.470426290776059
 37
0.0
 40
22.87762223971227
 41
2.095078299776286
 42
50.0
 43
0.0
 44
0.0
 50
0.0
 51
0.0
 71
     0
 72
   100
 73
     1
 74
     1
 75
     0
 76
     0
 77
     0
 78
     0
  0
ENDTAB
  0
TABLE
  2
LTYPE
 70
     2
  0
LTYPE
  2
CONTINUOUS
 70
     0
  3
Solid line
 72
    65
 73
     0
 40
0.0
  0
LTYPE
  2
PHANTOM2
 70
     0
  3
___ _ _ ___ _ _ ___ _ _ ___ _ _
 72
    65
 73
     6
 40
1.25
 49
0.625
 49
-0.125
 49
0.125
 49
-0.125
 49
0.125
 49
-0.125
  0
ENDTAB
  0
TABLE
  2
LAYER
 70
     2
  0
LAYER
  2
0
 70
     0
 62
   255
  6
CONTINUOUS
  0
LAYER
  2
DEFPOINTS
 70
     0
 62
     7
  6
CONTINUOUS
  0
ENDTAB
  0
TABLE
  2
STYLE
 70
     1
  0
STYLE
  2
STANDARD
 70
     0
 40
0.0
 41
0.8
 50
0.0
 71
     0
 42
0.2
  3
txt
  4

  0
ENDTAB
  0
TABLE
  2
VIEW
 70
     0
  0
ENDTAB
  0
TABLE
  2
UCS
 70
     0
  0
ENDTAB
  0
TABLE
  2
APPID
 70
    10
  0
APPID
  2
ACAD
 70
     0
  0
APPID
  2
ACAD_MLEADERVER
 70
     0
  0
APPID
  2
ACAD_EXEMPT_FROM_CAD_STANDARDS
 70
     0
  0
APPID
  2
ACAD_NAV_VCDISPLAY
 70
     0
  0
APPID
  2
ACAD_DSTYLE_DIMJAG
 70
     0
  0
APPID
  2
ACAD_DSTYLE_DIMTALN
 70
     0
  0
APPID
  2
ACADANNOTATIVE
 70
     0
  0
APPID
  2
ACAECLAYERSTANDARD
 70
     0
  0
APPID
  2
ACCMTRANSPARENCY
 70
     0
  0
APPID
  2
ACDBATTR
 70
     0
  0
ENDTAB
  0
TABLE
  2
DIMSTYLE
 70
     1
  0
DIMSTYLE
  2
STANDARD
 70
     0
  3

  4

  5

  6

  7

 40
1.0
 41
0.1875
 42
0.0625
 43
0.38
 44
0.125
 45
0.0
 46
0.0
 47
0.01
 48
0.01
140
0.15625
141
0.09
142
0.0
143
25.399999999999999
144
1.0
145
0.0
146
1.0
147
0.09
 71
     1
 72
     0
 73
     1
 74
     1
 75
     0
 76
     0
 77
     0
 78
     4
170
     0
171
     2
172
     0
173
     0
174
     0
175
     0
176
     0
177
     0
178
     0
  0
ENDTAB
  0
ENDSEC
  0
SECTION
  2
BLOCKS
  0
BLOCK
  8
0
  2
$MODEL_SPACE
 70
     0
 10
0.0
 20
0.0
 30
0.0
  3
$MODEL_SPACE
  1

  0
ENDBLK
  5
21
  8
0
  0
BLOCK
 67
     1
  8
0
  2
$PAPER_SPACE
 70
     0
 10
0.0
 20
0.0
 30
0.0
  3
$PAPER_SPACE
  1

  0
ENDBLK
  5
1D
 67
     1
  8
0
  0
ENDSEC
  0
SECTION
  2
ENTITIES
  0
LINE
  5
981
  8
0
 10
119.8284343986719
 20
9.4193084049760571
 30
0.0
 11
120.0735339219719
 21
9.5855197875760556
 31
0.0
  0
LINE
  5
982
  8
0
 10
121.89391637647191
 20
6.5453944700760562
 30
0.0
 11
121.76647981517191
 21
8.9770289148760565
 31
0.0
  0
LINE
  5
983
  8
0
 10
134.06502001017191
 20
3.674385018876055
 30
0.0
 11
134.0650247603719
 21
3.6743849207760562
 31
0.0
  0
LINE
  5
984
  8
0
 10
136.91921534687191
 20
6.5453944700760562
 30
0.0
 11
137.0466519081719
 21
8.9770289148760565
 31
0.0
  0
LINE
  5
985
  8
0
 10
119.8564971966719
 20
9.3279262907760536
 30
0.0
 11
141.75663452667189
 21
9.3279262907760572
 31
0.0
  0
LINE
  5
986
  8
0
 10
120.1464971966719
 20
9.6079262907760583
 30
0.0
 11
141.4666345266719
 21
9.6079262907760583
 31
0.0
  0
LINE
  5
987
  8
0
 10
141.53959780137191
 20
9.5855197875760556
 30
0.0
 11
141.7846973246719
 21
9.4193084049760571
 31
0.0
  0
ARC
  5
988
  8
0
 10
124.9248069404719
 20
6.7042367137760559
 30
0.0
 40
3.0350000006000002
 50
182.99999999999989
 51
266.66323270839928
  0
ARC
  5
989
  8
0
 10
121.4013511105087
 20
8.957636352627242
 30
0.0
 40
0.3656433267901352
 50
3.0402128372053001
 51
89.901448399301003
  0
ARC
  5
98A
  8
0
 10
120.1464971966719
 20
9.4779262907760558
 30
0.0
 40
0.13
 50
90.0
 51
124.1427002852996
  0
ARC
  5
98B
  8
0
 10
119.8563673647002
 20
9.3778864202999994
 30
0.0
 40
0.0499602982215894
 50
123.9938054124211
 51
270.14889487577909
  0
ARC
  5
98C
  8
0
 10
133.88832478277189
 20
6.7042367137760559
 30
0.0
 40
3.0350000006000002
 50
273.33676729160072
 51
356.99999999999977
  0
ARC
  5
98D
  8
0
 10
137.41839098658281
 20
8.9545887810261195
 30
0.0
 40
0.3724157649871493
 50
91.113830852073775
 51
176.54551613123181
  0
ARC
  5
98E
  8
0
 10
141.4666345266719
 20
9.4779262907760558
 30
0.0
 40
0.13
 50
55.857299716099611
 51
90.0
  0
ARC
  5
98F
  8
0
 10
141.75663452667189
 20
9.3779262907760543
 30
0.0
 40
0.05
 50
270.0
 51
55.857299716099611
  0
ARC
  5
990
  8
0
 10
129.40724083519461
 20
83.586890062024025
 30
0.0
 40
80.048210513430135
 50
266.66330006162377
 51
268.29548685695488
  0
ARC
  5
991
  8
0
 10
129.4065658612719
 20
83.573696472976067
 30
0.0
 40
80.035000005099988
 50
271.70424660380019
 51
273.33676729160072
  0
ARC
  5
AA8
  8
0
 10
127.0248707107032
 20
3.5291201017298031
 30
0.0
 40
0.0449990515902419
 50
36.026780903414661
 51
88.296345877986681
  0
LINE
  5
AA9
  8
0
 10
127.06126334118871
 20
3.5555868939622091
 30
0.0
 11
127.10671419034441
 21
3.4930919763231372
 31
0.0
  0
ARC
  5
AAA
  8
0
 10
127.18354411837861
 20
3.5489682875760589
 30
0.0
 40
0.094999999999999
 50
216.02737340066761
 51
251.995838394201
  0
LINE
  5
AAB
  8
0
 10
127.1541809414159
 20
3.4586200510760601
 30
0.0
 11
127.5409309730786
 21
3.3329262907760602
 31
0.0
  0
LINE
  5
AAC
  8
0
 10
127.5409309730786
 20
3.3329262907760602
 30
0.0
 11
131.2720204898786
 21
3.3329262907760602
 31
0.0
  0
ARC
  5
AAD
  8
0
 10
131.78808075225399
 20
3.5291201017298031
 30
0.0
 40
0.0449990515902419
 50
91.70365412201329
 51
143.9732190965853
  0
LINE
  5
AAE
  8
0
 10
131.7516881217685
 20
3.5555868939622091
 30
0.0
 11
131.7062372726129
 21
3.4930919763231372
 31
0.0
  0
ARC
  5
AAF
  8
0
 10
131.6294073445786
 20
3.5489682875760589
 30
0.0
 40
0.094999999999999
 50
288.00416160579903
 51
323.97262659933159
  0
LINE
  5
AB0
  8
0
 10
131.65877052154119
 20
3.4586200510760601
 30
0.0
 11
131.2720204898786
 21
3.3329262907760602
 31
0.0
  0
ATTDEF
  5
D03
  8
DEFPOINTS
 10
130.80311187325219
 20
9.3334109196667185
 30
0.0
 40
0.001
  1
STAINLESS STEEL
  3

  2
MATERIAL
 70
     0
1001
ACDBATTR
1070
     0
1070
     1
  0
ATTDEF
  5
D04
  8
DEFPOINTS
 10
130.80311187325219
 20
9.3350775863333837
 30
0.0
 40
0.001
  1
KITCHEN SINK
  3

  2
PRODUCT
 70
     0
1001
ACDBATTR
1070
     0
1070
     1
  0
ATTDEF
  5
D05
  8
DEFPOINTS
 10
130.80311187325219
 20
9.3367442530000488
 30
0.0
 40
0.001
  1
MIDDLETON
  3

  2
TRADENAME
 70
     0
1001
ACDBATTR
1070
     0
1070
     1
  0
ATTDEF
  5
D06
  8
DEFPOINTS
 10
130.80311187325219
 20
9.3384109196667122
 30
0.0
 40
0.001
  1
14631-3
  3

  2
MODELNUMBER
 70
     0
1001
ACDBATTR
1070
     0
1070
     1
  0
ENDSEC
  0
EOF
