  0
SECTION
  2
HEADER
  9
$ACADVER
  1
AC1009
  9
$INSBASE
 10
96.408349018478603
 20
27.217589734050001
 30
0.0
  9
$EXTMIN
 10
83.908349018478603
 20
16.217521069099998
 30
0.0
  9
$EXTMAX
 10
108.9083490184786
 20
38.217658399000001
 30
0.0
  9
$LIMMIN
 10
0.0
 20
0.0
  9
$LIMMAX
 10
11.692913385800001
 20
8.2677165353999982
  9
$ORTHOMODE
 70
     0
  9
$REGENMODE
 70
     1
  9
$FILLMODE
 70
     1
  9
$QTEXTMODE
 70
     0
  9
$MIRRTEXT
 70
     0
  9
$DRAGMODE
 70
     2
  9
$LTSCALE
 40
0.6431102362
  9
$OSMODE
 70
  3071
  9
$ATTMODE
 70
     1
  9
$TEXTSIZE
 40
0.2
  9
$TRACEWID
 40
0.05
  9
$TEXTSTYLE
  7
STANDARD
  9
$CLAYER
  8
0
  9
$CELTYPE
  6
BYLAYER
  9
$CECOLOR
 62
   256
  9
$DIMSCALE
 40
1.0
  9
$DIMASZ
 40
0.1875
  9
$DIMEXO
 40
0.0625
  9
$DIMDLI
 40
0.4443307087
  9
$DIMRND
 40
0.0
  9
$DIMDLE
 40
0.0
  9
$DIMEXE
 40
0.125
  9
$DIMTP
 40
0.01
  9
$DIMTM
 40
0.01
  9
$DIMTXT
 40
2.0
  9
$DIMCEN
 40
0.1052362205
  9
$DIMTSZ
 40
0.0
  9
$DIMTOL
 70
     1
  9
$DIMLIM
 70
     0
  9
$DIMTIH
 70
     1
  9
$DIMTOH
 70
     1
  9
$DIMSE1
 70
     0
  9
$DIMSE2
 70
     0
  9
$DIMTAD
 70
     0
  9
$DIMZIN
 70
     0
  9
$DIMBLK
  1

  9
$DIMASO
 70
     1
  9
$DIMSHO
 70
     1
  9
$DIMPOST
  1
\X
  9
$DIMAPOST
  1

  9
$DIMALT
 70
     1
  9
$DIMALTD
 70
     2
  9
$DIMALTF
 40
25.399999999999999
  9
$DIMLFAC
 40
1.0
  9
$DIMTOFL
 70
     0
  9
$DIMTVP
 40
0.0
  9
$DIMTIX
 70
     0
  9
$DIMSOXD
 70
     0
  9
$DIMSAH
 70
     0
  9
$DIMBLK1
  1

  9
$DIMBLK2
  1

  9
$DIMSTYLE
  2
STANDARD
  9
$DIMCLRD
 70
     0
  9
$DIMCLRE
 70
     0
  9
$DIMCLRT
 70
     0
  9
$DIMTFAC
 40
1.0
  9
$DIMGAP
 40
0.09
  9
$LUNITS
 70
     2
  9
$LUPREC
 70
     4
  9
$SKETCHINC
 40
0.1
  9
$FILLETRAD
 40
0.0
  9
$AUNITS
 70
     0
  9
$AUPREC
 70
     0
  9
$MENU
  1
.
  9
$ELEVATION
 40
0.0
  9
$PELEVATION
 40
0.0
  9
$THICKNESS
 40
0.0
  9
$LIMCHECK
 70
     0
  9
$BLIPMODE
 70
     0
  9
$CHAMFERA
 40
0.0
  9
$CHAMFERB
 40
0.0
  9
$SKPOLY
 70
     0
  9
$TDCREATE
 40
2458095.605403021
  9
$TDUPDATE
 40
2458099.4289457761
  9
$TDINDWG
 40
0.0520807176
  9
$TDUSRTIMER
 40
0.0520807176
  9
$USRTIMER
 70
     1
  9
$ANGBASE
 50
0.0
  9
$ANGDIR
 70
     0
  9
$PDMODE
 70
     0
  9
$PDSIZE
 40
0.3125
  9
$PLINEWID
 40
0.0
  9
$COORDS
 70
     1
  9
$SPLFRAME
 70
     0
  9
$SPLINETYPE
 70
     6
  9
$SPLINESEGS
 70
     8
  9
$ATTDIA
 70
     1
  9
$ATTREQ
 70
     1
  9
$HANDLING
 70
     1
  9
$HANDSEED
  5
1140
  9
$SURFTAB1
 70
     6
  9
$SURFTAB2
 70
     6
  9
$SURFTYPE
 70
     6
  9
$SURFU
 70
     6
  9
$SURFV
 70
     6
  9
$UCSNAME
  2

  9
$UCSORG
 10
0.0
 20
0.0
 30
0.0
  9
$UCSXDIR
 10
1.0
 20
0.0
 30
0.0
  9
$UCSYDIR
 10
0.0
 20
1.0
 30
0.0
  9
$PUCSNAME
  2

  9
$PUCSORG
 10
0.0
 20
0.0
 30
0.0
  9
$PUCSXDIR
 10
1.0
 20
0.0
 30
0.0
  9
$PUCSYDIR
 10
0.0
 20
1.0
 30
0.0
  9
$USERI1
 70
     0
  9
$USERI2
 70
     0
  9
$USERI3
 70
     0
  9
$USERI4
 70
     0
  9
$USERI5
 70
     0
  9
$USERR1
 40
0.0
  9
$USERR2
 40
0.0
  9
$USERR3
 40
0.0
  9
$USERR4
 40
0.0
  9
$USERR5
 40
0.0
  9
$WORLDVIEW
 70
     1
  9
$SHADEDGE
 70
     3
  9
$SHADEDIF
 70
    70
  9
$TILEMODE
 70
     1
  9
$MAXACTVP
 70
    64
  9
$PLIMCHECK
 70
     0
  9
$PEXTMIN
 10
1.0000000000000000E+020
 20
1.0000000000000000E+020
 30
1.0000000000000000E+020
  9
$PEXTMAX
 10
-1.0000000000000000E+020
 20
-1.0000000000000000E+020
 30
-1.0000000000000000E+020
  9
$PLIMMIN
 10
0.0
 20
0.0
  9
$PLIMMAX
 10
12.0
 20
9.0
  9
$UNITMODE
 70
     0
  9
$VISRETAIN
 70
     1
  9
$PLINEGEN
 70
     0
  9
$PSLTSCALE
 70
     1
  0
ENDSEC
  0
SECTION
  2
TABLES
  0
TABLE
  2
VPORT
 70
     1
  0
VPORT
  2
*ACTIVE
 70
     0
 10
0.0
 20
0.0
 11
1.0
 21
1.0
 12
0.0
 22
0.0
 13
0.0
 23
0.0
 14
1.0
 24
1.0
 15
0.0
 25
0.0
 16
-0.0000000000000142
 26
0.0
 36
93.644010834109025
 17
96.408349018478603
 27
27.217589734050001
 37
0.0
 40
33.301742334815749
 41
2.0983240223463682
 42
50.0
 43
0.0
 44
0.0
 50
0.0
 51
0.0
 71
     0
 72
   100
 73
     1
 74
     1
 75
     0
 76
     0
 77
     0
 78
     0
  0
ENDTAB
  0
TABLE
  2
LTYPE
 70
     2
  0
LTYPE
  2
CONTINUOUS
 70
     0
  3
Solid line
 72
    65
 73
     0
 40
0.0
  0
LTYPE
  2
PHANTOM2
 70
     0
  3
___ _ _ ___ _ _ ___ _ _ ___ _ _
 72
    65
 73
     6
 40
1.25
 49
0.625
 49
-0.125
 49
0.125
 49
-0.125
 49
0.125
 49
-0.125
  0
ENDTAB
  0
TABLE
  2
LAYER
 70
     2
  0
LAYER
  2
0
 70
     0
 62
   255
  6
CONTINUOUS
  0
LAYER
  2
DEFPOINTS
 70
     0
 62
     7
  6
CONTINUOUS
  0
ENDTAB
  0
TABLE
  2
STYLE
 70
     1
  0
STYLE
  2
STANDARD
 70
     0
 40
0.0
 41
0.8
 50
0.0
 71
     0
 42
0.2
  3
txt
  4

  0
ENDTAB
  0
TABLE
  2
VIEW
 70
     0
  0
ENDTAB
  0
TABLE
  2
UCS
 70
     0
  0
ENDTAB
  0
TABLE
  2
APPID
 70
    10
  0
APPID
  2
ACAD
 70
     0
  0
APPID
  2
ACAD_MLEADERVER
 70
     0
  0
APPID
  2
ACAD_EXEMPT_FROM_CAD_STANDARDS
 70
     0
  0
APPID
  2
ACAD_NAV_VCDISPLAY
 70
     0
  0
APPID
  2
ACAD_DSTYLE_DIMJAG
 70
     0
  0
APPID
  2
ACAD_DSTYLE_DIMTALN
 70
     0
  0
APPID
  2
ACADANNOTATIVE
 70
     0
  0
APPID
  2
ACAECLAYERSTANDARD
 70
     0
  0
APPID
  2
ACCMTRANSPARENCY
 70
     0
  0
APPID
  2
ACDBATTR
 70
     0
  0
ENDTAB
  0
TABLE
  2
DIMSTYLE
 70
     1
  0
DIMSTYLE
  2
STANDARD
 70
     0
  3

  4

  5

  6

  7

 40
1.0
 41
0.1875
 42
0.0625
 43
0.38
 44
0.125
 45
0.0
 46
0.0
 47
0.01
 48
0.01
140
0.15625
141
0.09
142
0.0
143
25.399999999999999
144
1.0
145
0.0
146
1.0
147
0.09
 71
     1
 72
     0
 73
     1
 74
     1
 75
     0
 76
     0
 77
     0
 78
     4
170
     0
171
     2
172
     0
173
     0
174
     0
175
     0
176
     0
177
     0
178
     0
  0
ENDTAB
  0
ENDSEC
  0
SECTION
  2
BLOCKS
  0
BLOCK
  8
0
  2
$MODEL_SPACE
 70
     0
 10
0.0
 20
0.0
 30
0.0
  3
$MODEL_SPACE
  1

  0
ENDBLK
  5
21
  8
0
  0
BLOCK
 67
     1
  8
0
  2
$PAPER_SPACE
 70
     0
 10
0.0
 20
0.0
 30
0.0
  3
$PAPER_SPACE
  1

  0
ENDBLK
  5
1D
 67
     1
  8
0
  0
ENDSEC
  0
SECTION
  2
ENTITIES
  0
LINE
  5
927
  8
0
 10
85.652013882078606
 20
37.007406834299999
 30
0.0
 11
85.118531918278606
 21
36.473924870499999
 31
0.0
  0
LINE
  5
928
  8
0
 10
85.422379681278599
 20
36.271914769299997
 30
0.0
 11
85.854023983278609
 21
36.703559071299992
 31
0.0
  0
LINE
  5
929
  8
0
 10
85.118531918278606
 20
18.461254597599989
 30
0.0
 11
86.152013882078606
 21
17.4277726338
 31
0.0
  0
LINE
  5
92A
  8
0
 10
86.354023983278594
 20
17.7316203968
 30
0.0
 11
85.422379681178583
 21
18.663264698799988
 31
0.0
  0
LINE
  5
92B
  8
0
 10
83.908349018478603
 20
17.177521069099999
 30
0.0
 11
83.908349018478603
 21
37.257658398999993
 31
0.0
  0
LINE
  5
92C
  8
0
 10
84.884501255578584
 20
19.026254597600001
 30
0.0
 11
84.884501255578584
 21
35.908924870699991
 31
0.0
  0
LINE
  5
92D
  8
0
 10
85.242196781578599
 20
35.836914769299987
 30
0.0
 11
85.242196781578599
 21
19.098264698800001
 31
0.0
  0
LINE
  5
92E
  8
0
 10
107.94834901847859
 20
16.217521069099998
 30
0.0
 11
84.868349018478597
 21
16.217521069099998
 31
0.0
  0
LINE
  5
92F
  8
0
 10
106.0996841548786
 20
17.1937419711
 30
0.0
 11
86.717013882078604
 21
17.1937419711
 31
0.0
  0
LINE
  5
930
  8
0
 10
86.789023983278625
 20
17.551437497199998
 30
0.0
 11
106.0276740537786
 21
17.551437497199998
 31
0.0
  0
LINE
  5
931
  8
0
 10
90.729501255478596
 20
35.109002163699998
 30
0.0
 11
90.729501255478596
 21
35.836215722600002
 31
0.0
  0
LINE
  5
932
  8
0
 10
90.96219678147861
 20
35.856449127199987
 30
0.0
 11
90.96219678147861
 21
35.129235570900001
 31
0.0
  0
LINE
  5
933
  8
0
 10
102.5494896223786
 20
36.882406834299999
 30
0.0
 11
102.0885319182786
 21
36.421449130100001
 31
0.0
  0
LINE
  5
934
  8
0
 10
102.2673796812786
 20
36.271215724299992
 30
0.0
 11
102.6997230282786
 21
36.703559071299992
 31
0.0
  0
LINE
  5
935
  8
0
 10
101.6743183557786
 20
34.694235567900002
 30
0.0
 11
101.4917031845786
 21
34.511620396700003
 31
0.0
  0
LINE
  5
936
  8
0
 10
101.6419365905786
 20
34.332772633799991
 30
0.0
 11
101.8531661187786
 21
34.544002161999998
 31
0.0
  0
LINE
  5
937
  8
0
 10
90.963531918278605
 20
34.544002161999998
 30
0.0
 11
91.174761446478584
 21
34.332772633799991
 31
0.0
  0
LINE
  5
938
  8
0
 10
91.324994852378609
 20
34.511620396799998
 30
0.0
 11
91.142379681278584
 21
34.694235567900002
 31
0.0
  0
LINE
  5
939
  8
0
 10
90.11697500877861
 20
36.703559071299992
 30
0.0
 11
90.549318355778595
 21
36.271215724299992
 31
0.0
  0
LINE
  5
93A
  8
0
 10
90.728166118778589
 20
36.421449130200003
 30
0.0
 11
90.267208414678606
 21
36.882406834199998
 31
0.0
  0
LINE
  5
93B
  8
0
 10
101.8545012554786
 20
35.129235569400002
 30
0.0
 11
101.8545012554786
 21
35.856449128900003
 31
0.0
  0
LINE
  5
93C
  8
0
 10
102.0871967815786
 20
35.8362157225
 30
0.0
 11
102.0871967815786
 21
35.1090021638
 31
0.0
  0
LINE
  5
93D
  8
0
 10
101.0769365906786
 20
34.098741971099997
 30
0.0
 11
91.73976144647861
 21
34.098741971099997
 31
0.0
  0
LINE
  5
93E
  8
0
 10
91.759994852378611
 20
34.3314374972
 30
0.0
 11
101.0567031846786
 21
34.3314374972
 31
0.0
  0
LINE
  5
93F
  8
0
 10
106.5276740537786
 20
36.88374197089999
 30
0.0
 11
103.1347230282786
 21
36.88374197089999
 31
0.0
  0
LINE
  5
940
  8
0
 10
89.681975008778608
 20
36.88374197089999
 30
0.0
 11
86.289023983278611
 21
36.88374197089999
 31
0.0
  0
LINE
  5
941
  8
0
 10
102.71543641077859
 20
37.010808573200002
 30
0.0
 11
90.101261178078602
 21
37.010808573200002
 31
0.0
  0
LINE
  5
942
  8
0
 10
86.217013882078604
 20
37.241437497
 30
0.0
 11
106.59968415517859
 21
37.241437497
 31
0.0
  0
LINE
  5
943
  8
0
 10
107.57450125537861
 20
19.098264698800001
 30
0.0
 11
107.57450125537861
 21
35.836914769299987
 31
0.0
  0
LINE
  5
944
  8
0
 10
84.868349018478597
 20
38.217658399000001
 30
0.0
 11
107.94834901847859
 21
38.217658399000001
 31
0.0
  0
LINE
  5
945
  8
0
 10
107.93219678147859
 20
35.908924870500002
 30
0.0
 11
107.93219678147859
 21
19.026254597600001
 31
0.0
  0
LINE
  5
946
  8
0
 10
108.9083490184786
 20
37.257658398999993
 30
0.0
 11
108.9083490184786
 21
17.177521069099999
 31
0.0
  0
LINE
  5
947
  8
0
 10
107.39431835577859
 20
18.663264698799988
 30
0.0
 11
106.4626740537786
 21
17.7316203968
 31
0.0
  0
LINE
  5
948
  8
0
 10
106.6646841549786
 20
17.4277726338
 30
0.0
 11
107.6981661187786
 21
18.461254597599989
 31
0.0
  0
LINE
  5
949
  8
0
 10
106.9626740537786
 20
36.703559071299992
 30
0.0
 11
107.39431835577859
 21
36.271914769299997
 31
0.0
  0
LINE
  5
94A
  8
0
 10
107.6981661187786
 20
36.473924870399998
 30
0.0
 11
107.1646841549786
 21
37.007406834299999
 31
0.0
  0
ARC
  5
94B
  8
0
 10
96.408349018478603
 20
-46.557410265900003
 30
0.0
 40
79.980134012899995
 50
85.380309610499651
 51
94.619691926899847
  0
ARC
  5
94C
  8
0
 10
84.868349018478597
 20
17.177521069099999
 30
0.0
 40
0.9599999999999999
 50
180.0
 51
270.0
  0
ARC
  5
94D
  8
0
 10
96.407568712178602
 20
25.81758557920001
 30
0.0
 40
2.3800064211
 50
0.0001000222000565
 51
0.6099932473000114
  0
ARC
  5
94E
  8
0
 10
66.908349018478603
 20
25.8175897341
 30
0.0
 40
39.980134013000011
 50
354.99959882960002
 51
5.0004035477000137
  0
ARC
  5
94F
  8
0
 10
84.868349018478597
 20
37.257658398999993
 30
0.0
 40
0.9599999999999999
 50
90.0
 51
180.0
  0
ARC
  5
950
  8
0
 10
96.408349018478603
 20
25.8175897341
 30
0.0
 40
2.3792261146999989
 50
0.6100932515000443
 51
0.0
  0
CIRCLE
  5
951
  8
0
 10
96.408349018478603
 20
25.8175897341
 30
0.0
 40
1.7515000000000001
  0
CIRCLE
  5
952
  8
0
 10
92.408349018478589
 20
35.667589734100012
 30
0.0
 40
0.72
  0
CIRCLE
  5
953
  8
0
 10
96.408349018478603
 20
35.667589734100012
 30
0.0
 40
0.72
  0
ARC
  5
954
  8
0
 10
96.408349018478603
 20
98.192589734099997
 30
0.0
 40
79.980134012899995
 50
265.38030961049958
 51
274.6196919268998
  0
ARC
  5
955
  8
0
 10
107.94834901847859
 20
17.177521069099999
 30
0.0
 40
0.9599999999999999
 50
270.0
 51
0.0
  0
ARC
  5
956
  8
0
 10
107.94834901847859
 20
37.257658398999993
 30
0.0
 40
0.9599999999999999
 50
0.0
 51
90.0
  0
CIRCLE
  5
957
  8
0
 10
100.4083490184786
 20
35.667589734100012
 30
0.0
 40
0.72
  0
ARC
  5
958
  8
0
 10
125.9083490184786
 20
25.8175897341
 30
0.0
 40
39.980134013000011
 50
174.99959882959999
 51
185.00040354769999
  0
ARC
  5
959
  8
0
 10
91.818107768603255
 20
35.086917387433999
 30
0.0
 40
0.7577116704790292
 50
229.3986358876447
 51
265.60136411961582
  0
ARC
  5
95A
  8
0
 10
91.725691365179941
 20
34.863804452838437
 30
0.0
 40
0.7651918505522274
 50
223.94640578774681
 51
271.05359421931558
  0
ARC
  5
95B
  8
0
 10
91.547448781480043
 20
35.11683778335771
 30
0.0
 40
0.8179850562371406
 50
180.54885452865869
 51
224.45114535968801
  0
ARC
  5
95C
  8
0
 10
91.593536807397257
 20
35.135928068864558
 30
0.0
 40
0.6313754967180505
 50
180.60733916777639
 51
224.39266059052261
  0
ARC
  5
95D
  8
0
 10
90.098266269509907
 20
35.829566732390859
 30
0.0
 40
0.6312700029160975
 50
0.6034915637011981
 51
44.396508293190379
  0
ARC
  5
95E
  8
0
 10
90.192922729406462
 20
35.868774721882417
 30
0.0
 40
0.7693727883645036
 50
359.0820642770048
 51
45.917935500811801
  0
ARC
  5
95F
  8
0
 10
88.431964619816256
 20
34.68196241274245
 30
0.0
 40
2.865322920458429
 50
50.170770406249723
 51
54.367376919161181
  0
ARC
  5
960
  8
0
 10
89.678608254942404
 20
36.260431008415708
 30
0.0
 40
0.6233200550154673
 50
45.309474605252042
 51
89.690525402010906
  0
ARC
  5
961
  8
0
 10
85.996460370151851
 20
35.779305661587102
 30
0.0
 40
0.7564604221893392
 50
139.36765438263129
 51
175.63234560214499
  0
ARC
  5
962
  8
0
 10
86.268623520620068
 20
36.317810144827483
 30
0.0
 40
0.5662994001749019
 50
87.935520732073385
 51
137.06447926066389
  0
ARC
  5
963
  8
0
 10
85.744306962437904
 20
35.883751023008571
 30
0.0
 40
0.8601741545497741
 50
136.6770571262708
 51
178.322942866451
  0
ARC
  5
964
  8
0
 10
86.160164377273972
 20
36.579653679698147
 30
0.0
 40
0.6642211130633552
 50
85.090149161518923
 51
139.909850831418
  0
ARC
  5
965
  8
0
 10
90.518960883103034
 20
28.72053662101856
 30
0.0
 40
4.4765570738833622
 50
97.087397325106821
 51
172.53198467590701
  0
ARC
  5
966
  8
0
 10
90.811813516744479
 20
23.209447856566211
 30
0.0
 40
4.8119635267962346
 50
190.49668453890351
 51
259.88398482519409
  0
ARC
  5
967
  8
0
 10
86.824687703033007
 20
18.252720232841451
 30
0.0
 40
0.7021889889591552
 50
227.91126774312789
 51
267.08873226413232
  0
ARC
  5
968
  8
0
 10
86.734491217021116
 20
18.034966652998971
 30
0.0
 40
0.8414062173960472
 50
226.19020936304571
 51
268.8097906440172
  0
ARC
  5
969
  8
0
 10
85.892143056325224
 20
19.112664160211331
 30
0.0
 40
0.650105764122987
 50
181.26917170390291
 51
223.73082828883531
  0
ARC
  5
96A
  8
0
 10
85.629003516706774
 20
19.00366819408066
 30
0.0
 40
0.7448447908449719
 50
178.26231716902791
 51
226.7376828239087
  0
ARC
  5
96B
  8
0
 10
100.9985902685539
 20
35.086917387433999
 30
0.0
 40
0.7577116704790292
 50
274.39863588038418
 51
310.60136411235533
  0
ARC
  5
96C
  8
0
 10
101.0910066719773
 20
34.863804452838437
 30
0.0
 40
0.7651918505522274
 50
268.94640578068442
 51
316.05359421225319
  0
ARC
  5
96D
  8
0
 10
101.2692492556771
 20
35.11683778335771
 30
0.0
 40
0.8179850562371406
 50
315.54885464031202
 51
359.45114547134131
  0
ARC
  5
96E
  8
0
 10
101.2231612297599
 20
35.135928068864551
 30
0.0
 40
0.6313754967180505
 50
315.60733940947739
 51
359.39266083222338
  0
ARC
  5
96F
  8
0
 10
102.7184317676473
 20
35.829566732390859
 30
0.0
 40
0.6312700029160975
 50
135.60349170680959
 51
179.3965084362988
  0
ARC
  5
970
  8
0
 10
102.62377530775071
 20
35.868774721882417
 30
0.0
 40
0.7693727883645036
 50
134.08206449918819
 51
180.9179357229952
  0
ARC
  5
971
  8
0
 10
104.3847334173409
 20
34.681962412742443
 30
0.0
 40
2.865322920458429
 50
125.6326230808388
 51
129.8292295937502
  0
ARC
  5
972
  8
0
 10
103.13808978221481
 20
36.260431008415686
 30
0.0
 40
0.6233200550154673
 50
90.309474597989094
 51
134.69052539474791
  0
ARC
  5
973
  8
0
 10
106.8202376670053
 20
35.779305661587088
 30
0.0
 40
0.7564604221893392
 50
4.3676543978549054
 51
40.632345617368607
  0
ARC
  5
974
  8
0
 10
106.5480745165371
 20
36.317810144827483
 30
0.0
 40
0.5662994001749019
 50
42.935520739336091
 51
92.064479267926615
  0
ARC
  5
975
  8
0
 10
107.07239107471931
 20
35.883751023008557
 30
0.0
 40
0.8601741545497741
 50
1.6770571335487741
 51
43.32294287372909
  0
ARC
  5
976
  8
0
 10
106.65653365988319
 20
36.579653679698147
 30
0.0
 40
0.6642211130633552
 50
40.090149168582023
 51
94.909850838481077
  0
ARC
  5
977
  8
0
 10
102.2977371540541
 20
28.72053662101855
 30
0.0
 40
4.4765570738833622
 50
7.4680153240928311
 51
82.912602674893179
  0
ARC
  5
978
  8
0
 10
102.0048845204127
 20
23.2094478565662
 30
0.0
 40
4.8119635267962346
 50
280.11601517480602
 51
349.50331546109641
  0
ARC
  5
979
  8
0
 10
105.9920103341242
 20
18.25272023284144
 30
0.0
 40
0.7021889889591552
 50
272.91126773586689
 51
312.08873225687211
  0
ARC
  5
97A
  8
0
 10
106.08220682013609
 20
18.034966652998961
 30
0.0
 40
0.8414062173960472
 50
271.1902093559828
 51
313.80979063695418
  0
ARC
  5
97B
  8
0
 10
106.924554980832
 20
19.11266416021132
 30
0.0
 40
0.650105764122987
 50
316.26917171116469
 51
358.73082829609712
  0
ARC
  5
97C
  8
0
 10
107.18769452045041
 20
19.003668194080639
 30
0.0
 40
0.7448447908449719
 50
313.26231717609028
 51
1.7376828309720469
  0
ATTDEF
  5
D03
  8
DEFPOINTS
 10
96.405194052553824
 20
27.218633128762029
 30
0.0
 40
0.001
  1
STAINLESS STEEL
  3

  2
MATERIAL
 70
     0
1001
ACDBATTR
1070
     0
1070
     1
  0
ATTDEF
  5
D04
  8
DEFPOINTS
 10
96.405194052553824
 20
27.220299795428691
 30
0.0
 40
0.001
  1
KITCHEN SINK
  3

  2
PRODUCT
 70
     0
1001
ACDBATTR
1070
     0
1070
     1
  0
ATTDEF
  5
D05
  8
DEFPOINTS
 10
96.405194052553824
 20
27.221966462095359
 30
0.0
 40
0.001
  1
MIDDLETON
  3

  2
TRADENAME
 70
     0
1001
ACDBATTR
1070
     0
1070
     1
  0
ATTDEF
  5
D06
  8
DEFPOINTS
 10
96.405194052553824
 20
27.223633128762032
 30
0.0
 40
0.001
  1
14631-3
  3

  2
MODELNUMBER
 70
     0
1001
ACDBATTR
1070
     0
1070
     1
  0
POINT
  5
E5D
  8
DEFPOINTS
 10
96.408349018478603
 20
35.667589734100012
 30
0.0
  0
CIRCLE
  5
EEC
  8
0
 10
96.408349018478603
 20
25.8175897341
 30
0.0
 40
0.31
  0
CIRCLE
  5
EED
  8
0
 10
96.408349018478603
 20
25.8175897341
 30
0.0
 40
0.2760938555
  0
ENDSEC
  0
EOF
