  0
SECTION
  2
HEADER
  9
$ACADVER
  1
AC1009
  9
$INSBASE
 10
69.782305259829315
 20
23.954394318999999
 30
0.0
  9
$EXTMIN
 10
61.657305259829307
 20
15.079394319
 30
0.0
  9
$EXTMAX
 10
77.907305259829315
 20
32.829394319000002
 30
0.0
  9
$LIMMIN
 10
0.0
 20
0.0
  9
$LIMMAX
 10
11.692913385800001
 20
8.2677165353999982
  9
$ORTHOMODE
 70
     0
  9
$REGENMODE
 70
     1
  9
$FILLMODE
 70
     1
  9
$QTEXTMODE
 70
     0
  9
$MIRRTEXT
 70
     0
  9
$DRAGMODE
 70
     2
  9
$LTSCALE
 40
0.6431102362
  9
$OSMODE
 70
  3071
  9
$ATTMODE
 70
     1
  9
$TEXTSIZE
 40
0.2
  9
$TRACEWID
 40
0.05
  9
$TEXTSTYLE
  7
STANDARD
  9
$CLAYER
  8
0
  9
$CELTYPE
  6
BYLAYER
  9
$CECOLOR
 62
   256
  9
$DIMSCALE
 40
1.0
  9
$DIMASZ
 40
0.1875
  9
$DIMEXO
 40
0.0625
  9
$DIMDLI
 40
0.4443307087
  9
$DIMRND
 40
0.0
  9
$DIMDLE
 40
0.0
  9
$DIMEXE
 40
0.125
  9
$DIMTP
 40
0.01
  9
$DIMTM
 40
0.01
  9
$DIMTXT
 40
1.0
  9
$DIMCEN
 40
0.1052362205
  9
$DIMTSZ
 40
0.0
  9
$DIMTOL
 70
     1
  9
$DIMLIM
 70
     0
  9
$DIMTIH
 70
     1
  9
$DIMTOH
 70
     1
  9
$DIMSE1
 70
     0
  9
$DIMSE2
 70
     0
  9
$DIMTAD
 70
     0
  9
$DIMZIN
 70
     0
  9
$DIMBLK
  1

  9
$DIMASO
 70
     1
  9
$DIMSHO
 70
     1
  9
$DIMPOST
  1
\X
  9
$DIMAPOST
  1

  9
$DIMALT
 70
     1
  9
$DIMALTD
 70
     2
  9
$DIMALTF
 40
25.399999999999999
  9
$DIMLFAC
 40
1.0
  9
$DIMTOFL
 70
     0
  9
$DIMTVP
 40
0.0
  9
$DIMTIX
 70
     0
  9
$DIMSOXD
 70
     0
  9
$DIMSAH
 70
     0
  9
$DIMBLK1
  1

  9
$DIMBLK2
  1

  9
$DIMSTYLE
  2
STANDARD
  9
$DIMCLRD
 70
     0
  9
$DIMCLRE
 70
     0
  9
$DIMCLRT
 70
     0
  9
$DIMTFAC
 40
1.0
  9
$DIMGAP
 40
0.09
  9
$LUNITS
 70
     2
  9
$LUPREC
 70
     4
  9
$SKETCHINC
 40
0.1
  9
$FILLETRAD
 40
0.0
  9
$AUNITS
 70
     0
  9
$AUPREC
 70
     0
  9
$MENU
  1
.
  9
$ELEVATION
 40
0.0
  9
$PELEVATION
 40
0.0
  9
$THICKNESS
 40
0.0
  9
$LIMCHECK
 70
     0
  9
$BLIPMODE
 70
     0
  9
$CHAMFERA
 40
0.0
  9
$CHAMFERB
 40
0.0
  9
$SKPOLY
 70
     0
  9
$TDCREATE
 40
2458031.6156063769
  9
$TDUPDATE
 40
2458033.650411678
  9
$TDINDWG
 40
0.0470729745
  9
$TDUSRTIMER
 40
0.0470729745
  9
$USRTIMER
 70
     1
  9
$ANGBASE
 50
0.0
  9
$ANGDIR
 70
     0
  9
$PDMODE
 70
     0
  9
$PDSIZE
 40
0.3125
  9
$PLINEWID
 40
0.0
  9
$COORDS
 70
     1
  9
$SPLFRAME
 70
     0
  9
$SPLINETYPE
 70
     6
  9
$SPLINESEGS
 70
     8
  9
$ATTDIA
 70
     1
  9
$ATTREQ
 70
     1
  9
$HANDLING
 70
     1
  9
$HANDSEED
  5
1633
  9
$SURFTAB1
 70
     6
  9
$SURFTAB2
 70
     6
  9
$SURFTYPE
 70
     6
  9
$SURFU
 70
     6
  9
$SURFV
 70
     6
  9
$UCSNAME
  2

  9
$UCSORG
 10
0.0
 20
0.0
 30
0.0
  9
$UCSXDIR
 10
1.0
 20
0.0
 30
0.0
  9
$UCSYDIR
 10
0.0
 20
1.0
 30
0.0
  9
$PUCSNAME
  2

  9
$PUCSORG
 10
0.0
 20
0.0
 30
0.0
  9
$PUCSXDIR
 10
1.0
 20
0.0
 30
0.0
  9
$PUCSYDIR
 10
0.0
 20
1.0
 30
0.0
  9
$USERI1
 70
     0
  9
$USERI2
 70
     0
  9
$USERI3
 70
     0
  9
$USERI4
 70
     0
  9
$USERI5
 70
     0
  9
$USERR1
 40
0.0
  9
$USERR2
 40
0.0
  9
$USERR3
 40
0.0
  9
$USERR4
 40
0.0
  9
$USERR5
 40
0.0
  9
$WORLDVIEW
 70
     1
  9
$SHADEDGE
 70
     3
  9
$SHADEDIF
 70
    70
  9
$TILEMODE
 70
     1
  9
$MAXACTVP
 70
    64
  9
$PLIMCHECK
 70
     0
  9
$PEXTMIN
 10
1.0000000000000000E+020
 20
1.0000000000000000E+020
 30
1.0000000000000000E+020
  9
$PEXTMAX
 10
-1.0000000000000000E+020
 20
-1.0000000000000000E+020
 30
-1.0000000000000000E+020
  9
$PLIMMIN
 10
0.0
 20
0.0
  9
$PLIMMAX
 10
12.0
 20
9.0
  9
$UNITMODE
 70
     0
  9
$VISRETAIN
 70
     1
  9
$PLINEGEN
 70
     0
  9
$PSLTSCALE
 70
     1
  0
ENDSEC
  0
SECTION
  2
TABLES
  0
TABLE
  2
VPORT
 70
     1
  0
VPORT
  2
*ACTIVE
 70
     0
 10
0.0
 20
0.0
 11
1.0
 21
1.0
 12
0.0
 22
0.0
 13
0.0
 23
0.0
 14
1.0
 24
1.0
 15
0.0
 25
0.0
 16
-0.0000000000000142
 26
0.0
 36
67.730213301384282
 17
69.782305259829315
 27
23.954394318999999
 37
0.0
 40
24.065016102217761
 41
2.1006711409395971
 42
50.0
 43
0.0
 44
0.0
 50
0.0
 51
0.0
 71
     0
 72
   100
 73
     1
 74
     1
 75
     0
 76
     0
 77
     0
 78
     0
  0
ENDTAB
  0
TABLE
  2
LTYPE
 70
     2
  0
LTYPE
  2
CONTINUOUS
 70
     0
  3
Solid line
 72
    65
 73
     0
 40
0.0
  0
LTYPE
  2
PHANTOM2
 70
     0
  3
___ _ _ ___ _ _ ___ _ _ ___ _ _
 72
    65
 73
     6
 40
1.25
 49
0.625
 49
-0.125
 49
0.125
 49
-0.125
 49
0.125
 49
-0.125
  0
ENDTAB
  0
TABLE
  2
LAYER
 70
     2
  0
LAYER
  2
0
 70
     0
 62
   255
  6
CONTINUOUS
  0
LAYER
  2
DEFPOINTS
 70
     0
 62
     7
  6
CONTINUOUS
  0
ENDTAB
  0
TABLE
  2
STYLE
 70
     1
  0
STYLE
  2
STANDARD
 70
     0
 40
0.0
 41
0.8
 50
0.0
 71
     0
 42
0.2
  3
txt
  4

  0
ENDTAB
  0
TABLE
  2
VIEW
 70
     0
  0
ENDTAB
  0
TABLE
  2
UCS
 70
     0
  0
ENDTAB
  0
TABLE
  2
APPID
 70
     9
  0
APPID
  2
ACAD
 70
     0
  0
APPID
  2
ACAD_MLEADERVER
 70
     0
  0
APPID
  2
ACAD_EXEMPT_FROM_CAD_STANDARDS
 70
     0
  0
APPID
  2
ACAD_NAV_VCDISPLAY
 70
     0
  0
APPID
  2
ACAECLAYERSTANDARD
 70
     0
  0
APPID
  2
ACCMTRANSPARENCY
 70
     0
  0
APPID
  2
ACAD_DSTYLE_DIMJAG
 70
     0
  0
APPID
  2
ACAD_DSTYLE_DIMTALN
 70
     0
  0
APPID
  2
ACDBATTR
 70
     0
  0
ENDTAB
  0
TABLE
  2
DIMSTYLE
 70
     1
  0
DIMSTYLE
  2
STANDARD
 70
     0
  3

  4

  5

  6

  7

 40
1.0
 41
0.1875
 42
0.0625
 43
0.38
 44
0.125
 45
0.0
 46
0.0
 47
0.01
 48
0.01
140
0.15625
141
0.09
142
0.0
143
25.399999999999999
144
1.0
145
0.0
146
1.0
147
0.09
 71
     1
 72
     0
 73
     1
 74
     1
 75
     0
 76
     0
 77
     0
 78
     4
170
     0
171
     2
172
     0
173
     0
174
     0
175
     0
176
     0
177
     0
178
     0
  0
ENDTAB
  0
ENDSEC
  0
SECTION
  2
BLOCKS
  0
BLOCK
  8
0
  2
$MODEL_SPACE
 70
     0
 10
0.0
 20
0.0
 30
0.0
  3
$MODEL_SPACE
  1

  0
ENDBLK
  5
21
  8
0
  0
BLOCK
 67
     1
  8
0
  2
$PAPER_SPACE
 70
     0
 10
0.0
 20
0.0
 30
0.0
  3
$PAPER_SPACE
  1

  0
ENDBLK
  5
1D
 67
     1
  8
0
  0
ENDSEC
  0
SECTION
  2
ENTITIES
  0
LINE
  5
61E
  8
0
 10
64.157305259829315
 20
15.079394319
 30
0.0
 11
75.407305259829315
 21
15.079394319
 31
0.0
  0
LINE
  5
61F
  8
0
 10
75.407305259829315
 20
15.079394319
 30
0.0
 11
77.907305259829315
 21
17.579394318999999
 31
0.0
  0
LINE
  5
620
  8
0
 10
77.907305259829315
 20
17.579394318999999
 30
0.0
 11
77.907305259829315
 21
31.329394319000009
 31
0.0
  0
LINE
  5
621
  8
0
 10
77.907305259829315
 20
31.329394319000009
 30
0.0
 11
76.407305259829315
 21
32.829394319000002
 31
0.0
  0
LINE
  5
622
  8
0
 10
76.407305259829315
 20
32.829394319000002
 30
0.0
 11
63.157305259829322
 21
32.829394319000002
 31
0.0
  0
LINE
  5
623
  8
0
 10
63.157305259829322
 20
32.829394319000002
 30
0.0
 11
61.657305259829307
 21
31.329394319000009
 31
0.0
  0
LINE
  5
624
  8
0
 10
61.657305259829307
 20
31.329394319000009
 30
0.0
 11
61.657305259829307
 21
17.579394318999999
 31
0.0
  0
LINE
  5
625
  8
0
 10
61.657305259829307
 20
17.579394318999999
 30
0.0
 11
64.157305259829315
 21
15.079394319
 31
0.0
  0
LINE
  5
626
  8
0
 10
65.977652750029307
 20
31.809879629699999
 30
0.0
 11
73.520435620529312
 21
31.809879629699999
 31
0.0
  0
LINE
  5
627
  8
0
 10
66.142400139729304
 20
16.0989090084
 30
0.0
 11
73.520428973508643
 21
16.098903860450431
 31
0.0
  0
ARC
  5
628
  8
0
 10
65.843304954877581
 20
28.513404545233509
 30
0.0
 40
3.2992116198526129
 50
87.666202871022804
 51
119.746387910742
  0
ARC
  5
629
  8
0
 10
65.523777461326347
 20
29.281389887881829
 30
0.0
 40
2.476049970659143
 50
122.1419523419457
 51
148.99500174525861
  0
ARC
  5
62A
  8
0
 10
66.246880812553513
 20
28.812462541658721
 30
0.0
 40
3.3375184479398929
 50
148.48945109427061
 51
156.94977376531929
  0
ARC
  5
62B
  8
0
 10
69.883505810190286
 20
27.603473830069731
 30
0.0
 40
7.1639390168559194
 50
159.44116360204319
 51
179.546948916464
  0
ARC
  5
62C
  8
0
 10
73.648839943078087
 20
28.62194223092925
 30
0.0
 40
3.1905222971373219
 50
58.751593834603632
 51
92.306523055218548
  0
ARC
  5
62D
  8
0
 10
73.889344113564007
 20
29.239676762674581
 30
0.0
 40
2.5402404001878489
 50
30.461807354327998
 51
56.160552302571091
  0
ARC
  5
62E
  8
0
 10
73.07969636271055
 20
28.72444494139577
 30
0.0
 40
3.4994960040498291
 50
23.07580507715717
 51
31.012766187903711
  0
ARC
  5
62F
  8
0
 10
69.911462263154135
 20
27.581167482639909
 30
0.0
 40
6.8649659151008651
 50
1.275592317467994
 51
21.489969711732378
  0
ARC
  5
630
  8
0
 10
66.007269012154012
 20
19.121982616158292
 30
0.0
 40
3.0260922754543529
 50
235.28738675692509
 51
272.55941263384011
  0
ARC
  5
631
  8
0
 10
65.832315188698956
 20
18.68888548039731
 30
0.0
 40
2.572504514889093
 50
208.72512777835439
 51
232.9968115422725
  0
ARC
  5
632
  8
0
 10
66.839825074695455
 20
19.317268622908149
 30
0.0
 40
3.7586259732743938
 50
202.6257907991068
 51
209.74398656933181
  0
ARC
  5
633
  8
0
 10
70.447629997557243
 20
20.556244107573601
 30
0.0
 40
7.569355959615585
 50
183.4733133759502
 51
200.77594267996099
  0
ARC
  5
634
  8
0
 10
73.648835993571012
 20
19.286841150569089
 30
0.0
 40
3.1905222971373219
 50
267.69342846323133
 51
301.24835768384622
  0
ARC
  5
635
  8
0
 10
73.889339641352933
 20
18.669106415318328
 30
0.0
 40
2.5402404001878489
 50
303.83939921587921
 51
329.53814416412189
  0
ARC
  5
636
  8
0
 10
73.079692326469726
 20
19.18433892169066
 30
0.0
 40
3.4994960040498291
 50
328.9871853305462
 51
336.92414644129252
  0
ARC
  5
637
  8
0
 10
69.86958623741107
 20
20.336058088448478
 30
0.0
 40
6.9070235268947409
 50
338.57209153203519
 51
358.66218778435172
  0
ARC
  5
638
  8
0
 10
13.657304621678779
 20
23.954394338089749
 30
0.0
 40
63.230485948950523
 50
356.57310834916501
 51
3.426893425534475
  0
ARC
  5
639
  8
0
 10
126.3140408029498
 20
25.326567847822052
 30
0.0
 40
63.637049789832922
 50
177.8985090836691
 51
184.71316962585351
  0
LINE
  5
6BC
  8
0
 10
67.201210883229507
 20
29.701973900099919
 30
0.0
 11
72.32773507322932
 21
29.701968583999999
 31
0.0
  0
LINE
  5
6BD
  8
0
 10
67.301943676529319
 20
18.206750635500001
 30
0.0
 11
72.320681298229303
 21
18.2067631072
 31
0.0
  0
ARC
  5
6BE
  8
0
 10
72.652882848530695
 20
11.51101189887464
 30
0.0
 40
18.193862322109901
 50
88.357203082145418
 51
91.024003959035255
  0
ARC
  5
6BF
  8
0
 10
71.178060071017555
 20
-784.02589230293916
 30
0.0
 40
813.73758396968105
 50
90.280013588834152
 51
90.339633313944788
  0
ARC
  5
6C0
  8
0
 10
67.062391605312527
 20
47.382631624384089
 30
0.0
 40
29.17686440782062
 50
268.89874164134
 51
270.47042330082252
  0
ARC
  5
6C1
  8
0
 10
64.401511892365974
 20
1564.3507484324759
 30
0.0
 40
1546.1642657239261
 50
270.29345974298599
 51
270.32509826441321
  0
ARC
  5
6C2
  8
0
 10
121.7914571395936
 20
25.229317816538479
 30
0.0
 40
57.014521812273912
 50
178.90755323612689
 51
183.767661664211
  0
ARC
  5
6C3
  8
0
 10
17.842906217625568
 20
23.95487441928168
 30
0.0
 40
56.945897195614521
 50
357.56276467568171
 51
2.4333367250043998
  0
ARC
  5
6C4
  8
0
 10
123.06068431919179
 20
25.153997965288131
 30
0.0
 40
58.284976717766561
 50
177.9936401562781
 51
178.8573130781258
  0
ARC
  5
6C5
  8
0
 10
76.157371928956138
 20
21.89389540763576
 30
0.0
 40
11.26471382973541
 50
182.09115406157741
 51
186.37704187676371
  0
ARC
  5
6C6
  8
0
 10
83.98107369206663
 20
27.270960705157862
 30
0.0
 40
9.2871681598184264
 50
180.25221475021681
 51
185.55082673886449
  0
ARC
  5
6C7
  8
0
 10
17.24113965590406
 20
24.019487799248509
 30
0.0
 40
57.549880274120433
 50
356.67209616090571
 51
357.52397187888681
  0
ARC
  5
6C8
  8
0
 10
66.325813621816238
 20
27.230558611521769
 30
0.0
 40
2.467003156104139
 50
89.334210071275834
 51
102.9301917658172
  0
ARC
  5
6C9
  8
0
 10
66.014448373357681
 20
28.60155628571535
 30
0.0
 40
1.0611022077992109
 50
103.108891503416
 51
118.4826014973308
  0
ARC
  5
6CA
  8
0
 10
66.206753961962605
 20
28.581786594410278
 30
0.0
 40
1.181021802779378
 50
126.24921938867089
 51
166.150648212308
  0
ARC
  5
6CB
  8
0
 10
70.60128145759117
 20
27.186012391203711
 30
0.0
 40
5.789848415998132
 50
163.14804968848989
 51
179.9152156506442
  0
ARC
  5
6CC
  8
0
 10
73.231374901640379
 20
27.82220463962167
 30
0.0
 40
1.876054776973503
 50
73.884439151540704
 51
91.738183481825757
  0
ARC
  5
6CD
  8
0
 10
73.522855891363051
 20
28.77914508791913
 30
0.0
 40
0.8759288770461154
 50
56.649653400576163
 51
74.826641757861111
  0
ARC
  5
6CE
  8
0
 10
73.116336864703442
 20
28.487941094126281
 30
0.0
 40
1.3546087780938341
 50
15.425378104006169
 51
49.035646933534537
  0
ARC
  5
6CF
  8
0
 10
69.448970806689914
 20
27.180850606403439
 30
0.0
 40
5.2452557225276788
 50
0.5377462369880083
 51
18.535129453981281
  0
ARC
  5
6D0
  8
0
 10
66.473957211309354
 20
20.322864429684689
 30
0.0
 40
2.1118892694121421
 50
254.906840507065
 51
270.75078046421021
  0
ARC
  5
6D1
  8
0
 10
66.144725283237818
 20
19.065734999000881
 30
0.0
 40
0.8124528430665943
 50
234.7640528044941
 51
254.23910051631779
  0
ARC
  5
6D2
  8
0
 10
66.656126125285468
 20
19.479413598063982
 30
0.0
 40
1.4564344723231
 50
196.5992918814149
 51
227.70304641783929
  0
ARC
  5
6D3
  8
0
 10
71.342567274893113
 20
21.028860986688201
 30
0.0
 40
6.3918833466239739
 50
183.46345593324381
 51
197.90875007070159
  0
ARC
  5
6D4
  8
0
 10
73.231365090145161
 20
20.086563168641039
 30
0.0
 40
1.876054776973503
 50
268.26167117605411
 51
286.11541550633882
  0
ARC
  5
6D5
  8
0
 10
73.522843652397441
 20
19.12962198094727
 30
0.0
 40
0.8759288770461154
 50
285.17321290001843
 51
303.35020125730318
  0
ARC
  5
6D6
  8
0
 10
73.116325364435895
 20
19.420827005955399
 30
0.0
 40
1.3546087780938341
 50
310.9642077243451
 51
344.5744765538733
  0
ARC
  5
6D7
  8
0
 10
69.356503249884923
 20
20.743407260081479
 30
0.0
 40
5.337860394716861
 50
341.62266648980221
 51
359.30547041261622
  0
CIRCLE
  5
6D8
  8
0
 10
69.782305259829315
 20
23.954394318999999
 30
0.0
 40
1.859999999999999
  0
CIRCLE
  5
6D9
  8
0
 10
69.782305259829315
 20
23.954394318999999
 30
0.0
 40
2.3796843902036908
  0
CIRCLE
  5
1446
  8
0
 10
69.782305259829315
 20
23.954394318999999
 30
0.0
 40
0.276093855500001
  0
CIRCLE
  5
1447
  8
0
 10
69.782305259829315
 20
23.954394318999999
 30
0.0
 40
0.3099999999999987
  0
ATTDEF
  5
1562
  8
DEFPOINTS
 10
69.779940152996232
 20
23.957382685542779
 30
0.0
 40
0.001
  1
STAINLESS STEEL
  3

  2
MATERIAL
 70
     0
1001
ACDBATTR
1070
     0
1070
     1
  0
ATTDEF
  5
1563
  8
DEFPOINTS
 10
69.779940152996232
 20
23.959049352209441
 30
0.0
 40
0.001
  1
KITCHEN SINK
  3

  2
PRODUCT
 70
     0
1001
ACDBATTR
1070
     0
1070
     1
  0
ATTDEF
  5
1564
  8
DEFPOINTS
 10
69.779940152996232
 20
23.960716018876099
 30
0.0
 40
0.001
  1
SPRINGDALE
  3

  2
TRADENAME
 70
     0
1001
ACDBATTR
1070
     0
1070
     1
  0
ATTDEF
  5
1565
  8
DEFPOINTS
 10
69.779940152996232
 20
23.962382685542771
 30
0.0
 40
0.001
  1
11448
  3

  2
MODELNUMBER
 70
     0
1001
ACDBATTR
1070
     0
1070
     1
  0
ENDSEC
  0
EOF
