  0
SECTION
  2
HEADER
  9
$ACADVER
  1
AC1009
  9
$INSBASE
 10
69.782305259829315
 20
11.052483279300001
 30
0.0
  9
$EXTMIN
 10
61.657305259829307
 20
3.0787541344
 30
0.0
  9
$EXTMAX
 10
77.907305259829315
 20
11.052483279300001
 30
0.0
  9
$LIMMIN
 10
0.0
 20
0.0
  9
$LIMMAX
 10
11.692913385800001
 20
8.2677165353999982
  9
$ORTHOMODE
 70
     0
  9
$REGENMODE
 70
     1
  9
$FILLMODE
 70
     1
  9
$QTEXTMODE
 70
     0
  9
$MIRRTEXT
 70
     0
  9
$DRAGMODE
 70
     2
  9
$LTSCALE
 40
0.6431102362
  9
$OSMODE
 70
  3071
  9
$ATTMODE
 70
     1
  9
$TEXTSIZE
 40
0.2
  9
$TRACEWID
 40
0.05
  9
$TEXTSTYLE
  7
STANDARD
  9
$CLAYER
  8
0
  9
$CELTYPE
  6
BYLAYER
  9
$CECOLOR
 62
   256
  9
$DIMSCALE
 40
1.0
  9
$DIMASZ
 40
0.1875
  9
$DIMEXO
 40
0.0625
  9
$DIMDLI
 40
0.4443307087
  9
$DIMRND
 40
0.0
  9
$DIMDLE
 40
0.0
  9
$DIMEXE
 40
0.125
  9
$DIMTP
 40
0.01
  9
$DIMTM
 40
0.01
  9
$DIMTXT
 40
1.0
  9
$DIMCEN
 40
0.1052362205
  9
$DIMTSZ
 40
0.0
  9
$DIMTOL
 70
     1
  9
$DIMLIM
 70
     0
  9
$DIMTIH
 70
     1
  9
$DIMTOH
 70
     1
  9
$DIMSE1
 70
     0
  9
$DIMSE2
 70
     0
  9
$DIMTAD
 70
     0
  9
$DIMZIN
 70
     0
  9
$DIMBLK
  1

  9
$DIMASO
 70
     1
  9
$DIMSHO
 70
     1
  9
$DIMPOST
  1
\X
  9
$DIMAPOST
  1

  9
$DIMALT
 70
     1
  9
$DIMALTD
 70
     2
  9
$DIMALTF
 40
25.399999999999999
  9
$DIMLFAC
 40
1.0
  9
$DIMTOFL
 70
     0
  9
$DIMTVP
 40
0.0
  9
$DIMTIX
 70
     0
  9
$DIMSOXD
 70
     0
  9
$DIMSAH
 70
     0
  9
$DIMBLK1
  1

  9
$DIMBLK2
  1

  9
$DIMSTYLE
  2
STANDARD
  9
$DIMCLRD
 70
     0
  9
$DIMCLRE
 70
     0
  9
$DIMCLRT
 70
     0
  9
$DIMTFAC
 40
1.0
  9
$DIMGAP
 40
0.09
  9
$LUNITS
 70
     2
  9
$LUPREC
 70
     4
  9
$SKETCHINC
 40
0.1
  9
$FILLETRAD
 40
0.0
  9
$AUNITS
 70
     0
  9
$AUPREC
 70
     0
  9
$MENU
  1
.
  9
$ELEVATION
 40
0.0
  9
$PELEVATION
 40
0.0
  9
$THICKNESS
 40
0.0
  9
$LIMCHECK
 70
     0
  9
$BLIPMODE
 70
     0
  9
$CHAMFERA
 40
0.0
  9
$CHAMFERB
 40
0.0
  9
$SKPOLY
 70
     0
  9
$TDCREATE
 40
2458031.6156063769
  9
$TDUPDATE
 40
2458031.7124055671
  9
$TDINDWG
 40
0.0486345139
  9
$TDUSRTIMER
 40
0.0486345139
  9
$USRTIMER
 70
     1
  9
$ANGBASE
 50
0.0
  9
$ANGDIR
 70
     0
  9
$PDMODE
 70
     0
  9
$PDSIZE
 40
0.3125
  9
$PLINEWID
 40
0.0
  9
$COORDS
 70
     1
  9
$SPLFRAME
 70
     0
  9
$SPLINETYPE
 70
     6
  9
$SPLINESEGS
 70
     8
  9
$ATTDIA
 70
     1
  9
$ATTREQ
 70
     1
  9
$HANDLING
 70
     1
  9
$HANDSEED
  5
1213
  9
$SURFTAB1
 70
     6
  9
$SURFTAB2
 70
     6
  9
$SURFTYPE
 70
     6
  9
$SURFU
 70
     6
  9
$SURFV
 70
     6
  9
$UCSNAME
  2

  9
$UCSORG
 10
0.0
 20
0.0
 30
0.0
  9
$UCSXDIR
 10
1.0
 20
0.0
 30
0.0
  9
$UCSYDIR
 10
0.0
 20
1.0
 30
0.0
  9
$PUCSNAME
  2

  9
$PUCSORG
 10
0.0
 20
0.0
 30
0.0
  9
$PUCSXDIR
 10
1.0
 20
0.0
 30
0.0
  9
$PUCSYDIR
 10
0.0
 20
1.0
 30
0.0
  9
$USERI1
 70
     0
  9
$USERI2
 70
     0
  9
$USERI3
 70
     0
  9
$USERI4
 70
     0
  9
$USERI5
 70
     0
  9
$USERR1
 40
0.0
  9
$USERR2
 40
0.0
  9
$USERR3
 40
0.0
  9
$USERR4
 40
0.0
  9
$USERR5
 40
0.0
  9
$WORLDVIEW
 70
     1
  9
$SHADEDGE
 70
     3
  9
$SHADEDIF
 70
    70
  9
$TILEMODE
 70
     1
  9
$MAXACTVP
 70
    64
  9
$PLIMCHECK
 70
     0
  9
$PEXTMIN
 10
1.0000000000000000E+020
 20
1.0000000000000000E+020
 30
1.0000000000000000E+020
  9
$PEXTMAX
 10
-1.0000000000000000E+020
 20
-1.0000000000000000E+020
 30
-1.0000000000000000E+020
  9
$PLIMMIN
 10
0.0
 20
0.0
  9
$PLIMMAX
 10
12.0
 20
9.0
  9
$UNITMODE
 70
     0
  9
$VISRETAIN
 70
     1
  9
$PLINEGEN
 70
     0
  9
$PSLTSCALE
 70
     1
  0
ENDSEC
  0
SECTION
  2
TABLES
  0
TABLE
  2
VPORT
 70
     1
  0
VPORT
  2
*ACTIVE
 70
     0
 10
0.0
 20
0.0
 11
1.0
 21
1.0
 12
0.0
 22
1.2900800948990641
 13
0.0
 23
0.0
 14
1.0
 24
1.0
 15
0.0
 25
0.0
 16
-0.0000000000000142
 26
0.0
 36
52.433715235865968
 17
69.782304763793945
 27
7.0656188726425171
 37
0.0
 40
18.10716291477226
 41
2.1781609195402289
 42
50.0
 43
0.0
 44
0.0
 50
0.0
 51
0.0
 71
     0
 72
   100
 73
     1
 74
     1
 75
     0
 76
     0
 77
     0
 78
     0
  0
ENDTAB
  0
TABLE
  2
LTYPE
 70
     2
  0
LTYPE
  2
CONTINUOUS
 70
     0
  3
Solid line
 72
    65
 73
     0
 40
0.0
  0
LTYPE
  2
PHANTOM2
 70
     0
  3
___ _ _ ___ _ _ ___ _ _ ___ _ _
 72
    65
 73
     6
 40
1.25
 49
0.625
 49
-0.125
 49
0.125
 49
-0.125
 49
0.125
 49
-0.125
  0
ENDTAB
  0
TABLE
  2
LAYER
 70
     2
  0
LAYER
  2
0
 70
     0
 62
   255
  6
CONTINUOUS
  0
LAYER
  2
DEFPOINTS
 70
     0
 62
     7
  6
CONTINUOUS
  0
ENDTAB
  0
TABLE
  2
STYLE
 70
     1
  0
STYLE
  2
STANDARD
 70
     0
 40
0.0
 41
0.8
 50
0.0
 71
     0
 42
0.2
  3
txt
  4

  0
ENDTAB
  0
TABLE
  2
VIEW
 70
     0
  0
ENDTAB
  0
TABLE
  2
UCS
 70
     0
  0
ENDTAB
  0
TABLE
  2
APPID
 70
     9
  0
APPID
  2
ACAD
 70
     0
  0
APPID
  2
ACAD_MLEADERVER
 70
     0
  0
APPID
  2
ACAD_EXEMPT_FROM_CAD_STANDARDS
 70
     0
  0
APPID
  2
ACAD_NAV_VCDISPLAY
 70
     0
  0
APPID
  2
ACAECLAYERSTANDARD
 70
     0
  0
APPID
  2
ACCMTRANSPARENCY
 70
     0
  0
APPID
  2
ACAD_DSTYLE_DIMJAG
 70
     0
  0
APPID
  2
ACAD_DSTYLE_DIMTALN
 70
     0
  0
APPID
  2
ACDBATTR
 70
     0
  0
ENDTAB
  0
TABLE
  2
DIMSTYLE
 70
     1
  0
DIMSTYLE
  2
STANDARD
 70
     0
  3

  4

  5

  6

  7

 40
1.0
 41
0.1875
 42
0.0625
 43
0.38
 44
0.125
 45
0.0
 46
0.0
 47
0.01
 48
0.01
140
0.15625
141
0.09
142
0.0
143
25.399999999999999
144
1.0
145
0.0
146
1.0
147
0.09
 71
     1
 72
     0
 73
     1
 74
     1
 75
     0
 76
     0
 77
     0
 78
     4
170
     0
171
     2
172
     0
173
     0
174
     0
175
     0
176
     0
177
     0
178
     0
  0
ENDTAB
  0
ENDSEC
  0
SECTION
  2
BLOCKS
  0
BLOCK
  8
0
  2
$MODEL_SPACE
 70
     0
 10
0.0
 20
0.0
 30
0.0
  3
$MODEL_SPACE
  1

  0
ENDBLK
  5
21
  8
0
  0
BLOCK
 67
     1
  8
0
  2
$PAPER_SPACE
 70
     0
 10
0.0
 20
0.0
 30
0.0
  3
$PAPER_SPACE
  1

  0
ENDBLK
  5
1D
 67
     1
  8
0
  0
ENDSEC
  0
SECTION
  2
ENTITIES
  0
LINE
  5
9CF
  8
0
 10
61.657305259829307
 20
11.052483279300001
 30
0.0
 11
77.907305259829315
 21
11.052483279300001
 31
0.0
  0
LINE
  5
9D0
  8
0
 10
77.907305259829315
 20
11.052483279300001
 30
0.0
 11
77.907305259829315
 21
11.0044832793
 31
0.0
  0
LINE
  5
9D1
  8
0
 10
77.907305259829315
 20
11.0044832793
 30
0.0
 11
61.657305259829307
 21
11.0044832793
 31
0.0
  0
LINE
  5
9D2
  8
0
 10
61.657305259829307
 20
11.0044832793
 30
0.0
 11
61.657305259829307
 21
11.052483279300001
 31
0.0
  0
ARC
  5
9D3
  8
0
 10
62.37755073390322
 20
10.752483279233759
 30
0.0
 40
0.2520000000662393
 50
4.000000017799473
 51
89.999999994067579
  0
LINE
  5
9D4
  8
0
 10
62.628936874594757
 20
10.77006191068396
 30
0.0
 11
63.028296443229308
 21
5.0589540030999984
 31
0.0
  0
ARC
  5
9D5
  8
0
 10
64.824214714568015
 20
5.185814720701635
 30
0.0
 40
1.800393312306668
 50
184.0405681859875
 51
269.68578043185829
  0
ARC
  5
9D6
  8
0
 10
-329.90790279377859
 20
-15059.123445711981
 30
0.0
 40
15067.67997528237
 50
88.488970701388595
 51
88.4988726708077
  0
LINE
  5
9D7
  8
0
 10
67.417467642664207
 20
3.3170068685042251
 30
0.0
 11
67.477361164643241
 21
3.2345704880228849
 31
0.0
  0
ARC
  5
9D8
  8
0
 10
67.542082347429314
 20
3.281593551499991
 30
0.0
 40
0.07999999999999
 50
216.0002153805498
 51
251.9999999916283
  0
LINE
  5
9D9
  8
0
 10
67.517360988028315
 20
3.2055090301479749
 30
0.0
 11
67.90747244402931
 21
3.0787541344
 31
0.0
  0
LINE
  5
9DA
  8
0
 10
67.90747244402931
 20
3.0787541344
 30
0.0
 11
71.657138075529318
 21
3.0787541344
 31
0.0
  0
LINE
  5
9DB
  8
0
 10
71.657138075529318
 20
3.0787541344
 30
0.0
 11
72.047249531530312
 21
3.2055090301479749
 31
0.0
  0
LINE
  5
9DC
  8
0
 10
72.087244556429312
 20
3.2345707312999989
 30
0.0
 11
72.147142876934097
 21
3.3170068685170011
 31
0.0
  0
ARC
  5
9DD
  8
0
 10
72.02254706639259
 20
3.2815564694203938
 30
0.0
 40
0.0799588944631592
 50
287.99533479523001
 51
324.01144345773872
  0
ARC
  5
9DE
  8
0
 10
52.636559847248279
 20
797.12443133105671
 30
0.0
 40
794.04715853785035
 50
271.40795992488739
 51
271.59865719734847
  0
ARC
  5
9DF
  8
0
 10
74.74269665046441
 20
5.1836922477144887
 30
0.0
 40
1.79794956399899
 50
271.47749264343668
 51
356.00000636793322
  0
LINE
  5
9E0
  8
0
 10
76.536266513629315
 20
5.0582738254999979
 30
0.0
 11
76.935673644929309
 21
10.770061910700001
 31
0.0
  0
ARC
  5
9E1
  8
0
 10
77.18705974375932
 20
10.75248332416181
 30
0.0
 40
0.2519999551381957
 50
89.999990480261332
 51
176.00000950787131
  0
LINE
  5
9E2
  8
0
 10
67.417467642667361
 20
3.3170068684999019
 30
0.0
 11
72.147142876872877
 21
3.3170068684994471
 31
0.0
  0
ATTDEF
  5
1102
  8
DEFPOINTS
 10
69.779034162156265
 20
11.049056472248459
 30
0.0
 40
0.001
  1
11448
  3

  2
MODELNUMBER
 70
     0
1001
ACDBATTR
1070
     0
1070
     1
  0
ATTDEF
  5
1103
  8
DEFPOINTS
 10
69.779034162156265
 20
11.047389805581791
 30
0.0
 40
0.001
  1
SPRINGDALE
  3

  2
TRADENAME
 70
     0
1001
ACDBATTR
1070
     0
1070
     1
  0
ATTDEF
  5
1104
  8
DEFPOINTS
 10
69.779034162156265
 20
11.045723138915131
 30
0.0
 40
0.001
  1
KITCHEN SINK
  3

  2
PRODUCT
 70
     0
1001
ACDBATTR
1070
     0
1070
     1
  0
ATTDEF
  5
1105
  8
DEFPOINTS
 10
69.779034162156265
 20
11.04405647224846
 30
0.0
 40
0.001
  1
STAINLESS STEEL
  3

  2
MATERIAL
 70
     0
1001
ACDBATTR
1070
     0
1070
     1
  0
ENDSEC
  0
EOF
