  0
SECTION
  2
HEADER
  9
$ACADVER
  1
AC1009
  9
$INSBASE
 10
140.74553549889001
 20
34.859143044600003
 30
0.0
  9
$EXTMIN
 10
124.77553549888999
 20
25.794143044599998
 30
0.0
  9
$EXTMAX
 10
156.71553549889001
 20
43.924143044599987
 30
0.0
  9
$LIMMIN
 10
0.0
 20
0.0
  9
$LIMMAX
 10
11.692913385800001
 20
8.2677165353999982
  9
$ORTHOMODE
 70
     0
  9
$REGENMODE
 70
     1
  9
$FILLMODE
 70
     1
  9
$QTEXTMODE
 70
     0
  9
$MIRRTEXT
 70
     0
  9
$DRAGMODE
 70
     2
  9
$LTSCALE
 40
0.6431102362
  9
$OSMODE
 70
  3071
  9
$ATTMODE
 70
     1
  9
$TEXTSIZE
 40
0.2
  9
$TRACEWID
 40
0.05
  9
$TEXTSTYLE
  7
STANDARD
  9
$CLAYER
  8
0
  9
$CELTYPE
  6
BYLAYER
  9
$CECOLOR
 62
   256
  9
$DIMSCALE
 40
1.0
  9
$DIMASZ
 40
0.1875
  9
$DIMEXO
 40
0.0625
  9
$DIMDLI
 40
0.4443307087
  9
$DIMRND
 40
0.0
  9
$DIMDLE
 40
0.0
  9
$DIMEXE
 40
0.125
  9
$DIMTP
 40
0.01
  9
$DIMTM
 40
0.01
  9
$DIMTXT
 40
2.0
  9
$DIMCEN
 40
0.1052362205
  9
$DIMTSZ
 40
0.0
  9
$DIMTOL
 70
     1
  9
$DIMLIM
 70
     0
  9
$DIMTIH
 70
     1
  9
$DIMTOH
 70
     1
  9
$DIMSE1
 70
     0
  9
$DIMSE2
 70
     0
  9
$DIMTAD
 70
     0
  9
$DIMZIN
 70
     0
  9
$DIMBLK
  1

  9
$DIMASO
 70
     1
  9
$DIMSHO
 70
     1
  9
$DIMPOST
  1
\X
  9
$DIMAPOST
  1

  9
$DIMALT
 70
     1
  9
$DIMALTD
 70
     2
  9
$DIMALTF
 40
25.399999999999999
  9
$DIMLFAC
 40
1.0
  9
$DIMTOFL
 70
     0
  9
$DIMTVP
 40
0.0
  9
$DIMTIX
 70
     0
  9
$DIMSOXD
 70
     0
  9
$DIMSAH
 70
     0
  9
$DIMBLK1
  1

  9
$DIMBLK2
  1

  9
$DIMSTYLE
  2
STANDARD
  9
$DIMCLRD
 70
     0
  9
$DIMCLRE
 70
     0
  9
$DIMCLRT
 70
     0
  9
$DIMTFAC
 40
1.0
  9
$DIMGAP
 40
0.09
  9
$LUNITS
 70
     2
  9
$LUPREC
 70
     4
  9
$SKETCHINC
 40
0.1
  9
$FILLETRAD
 40
0.0
  9
$AUNITS
 70
     0
  9
$AUPREC
 70
     0
  9
$MENU
  1
.
  9
$ELEVATION
 40
0.0
  9
$PELEVATION
 40
0.0
  9
$THICKNESS
 40
0.0
  9
$LIMCHECK
 70
     0
  9
$BLIPMODE
 70
     0
  9
$CHAMFERA
 40
0.0
  9
$CHAMFERB
 40
0.0
  9
$SKPOLY
 70
     0
  9
$TDCREATE
 40
2458101.5289245262
  9
$TDUPDATE
 40
2458101.6924211108
  9
$TDINDWG
 40
0.1025954282
  9
$TDUSRTIMER
 40
0.1025954282
  9
$USRTIMER
 70
     1
  9
$ANGBASE
 50
0.0
  9
$ANGDIR
 70
     0
  9
$PDMODE
 70
     0
  9
$PDSIZE
 40
0.3125
  9
$PLINEWID
 40
0.0
  9
$COORDS
 70
     1
  9
$SPLFRAME
 70
     0
  9
$SPLINETYPE
 70
     6
  9
$SPLINESEGS
 70
     8
  9
$ATTDIA
 70
     1
  9
$ATTREQ
 70
     1
  9
$HANDLING
 70
     1
  9
$HANDSEED
  5
15F5
  9
$SURFTAB1
 70
     6
  9
$SURFTAB2
 70
     6
  9
$SURFTYPE
 70
     6
  9
$SURFU
 70
     6
  9
$SURFV
 70
     6
  9
$UCSNAME
  2

  9
$UCSORG
 10
0.0
 20
0.0
 30
0.0
  9
$UCSXDIR
 10
1.0
 20
0.0
 30
0.0
  9
$UCSYDIR
 10
0.0
 20
1.0
 30
0.0
  9
$PUCSNAME
  2

  9
$PUCSORG
 10
0.0
 20
0.0
 30
0.0
  9
$PUCSXDIR
 10
1.0
 20
0.0
 30
0.0
  9
$PUCSYDIR
 10
0.0
 20
1.0
 30
0.0
  9
$USERI1
 70
     0
  9
$USERI2
 70
     0
  9
$USERI3
 70
     0
  9
$USERI4
 70
     0
  9
$USERI5
 70
     0
  9
$USERR1
 40
0.0
  9
$USERR2
 40
0.0
  9
$USERR3
 40
0.0
  9
$USERR4
 40
0.0
  9
$USERR5
 40
0.0
  9
$WORLDVIEW
 70
     1
  9
$SHADEDGE
 70
     3
  9
$SHADEDIF
 70
    70
  9
$TILEMODE
 70
     1
  9
$MAXACTVP
 70
    64
  9
$PLIMCHECK
 70
     0
  9
$PEXTMIN
 10
1.0000000000000000E+020
 20
1.0000000000000000E+020
 30
1.0000000000000000E+020
  9
$PEXTMAX
 10
-1.0000000000000000E+020
 20
-1.0000000000000000E+020
 30
-1.0000000000000000E+020
  9
$PLIMMIN
 10
0.0
 20
0.0
  9
$PLIMMAX
 10
12.0
 20
9.0
  9
$UNITMODE
 70
     0
  9
$VISRETAIN
 70
     1
  9
$PLINEGEN
 70
     0
  9
$PSLTSCALE
 70
     1
  0
ENDSEC
  0
SECTION
  2
TABLES
  0
TABLE
  2
VPORT
 70
     1
  0
VPORT
  2
*ACTIVE
 70
     0
 10
0.0
 20
0.0
 11
1.0
 21
1.0
 12
0.0
 22
0.0
 13
0.0
 23
0.0
 14
1.0
 24
1.0
 15
0.0
 25
0.0
 16
-0.0000000000000284
 26
0.0
 36
103.27532463401501
 17
140.74553549889001
 27
34.859143044600003
 37
0.0
 40
36.73782415141185
 41
2.0983240223463682
 42
50.0
 43
0.0
 44
0.0
 50
0.0
 51
0.0
 71
     0
 72
   100
 73
     1
 74
     1
 75
     0
 76
     0
 77
     0
 78
     0
  0
ENDTAB
  0
TABLE
  2
LTYPE
 70
     2
  0
LTYPE
  2
CONTINUOUS
 70
     0
  3
Solid line
 72
    65
 73
     0
 40
0.0
  0
LTYPE
  2
PHANTOM2
 70
     0
  3
___ _ _ ___ _ _ ___ _ _ ___ _ _
 72
    65
 73
     6
 40
1.25
 49
0.625
 49
-0.125
 49
0.125
 49
-0.125
 49
0.125
 49
-0.125
  0
ENDTAB
  0
TABLE
  2
LAYER
 70
     2
  0
LAYER
  2
0
 70
     0
 62
   255
  6
CONTINUOUS
  0
LAYER
  2
DEFPOINTS
 70
     0
 62
     7
  6
CONTINUOUS
  0
ENDTAB
  0
TABLE
  2
STYLE
 70
     1
  0
STYLE
  2
STANDARD
 70
     0
 40
0.0
 41
0.8
 50
0.0
 71
     0
 42
0.2
  3
txt
  4

  0
ENDTAB
  0
TABLE
  2
VIEW
 70
     0
  0
ENDTAB
  0
TABLE
  2
UCS
 70
     0
  0
ENDTAB
  0
TABLE
  2
APPID
 70
    10
  0
APPID
  2
ACAD
 70
     0
  0
APPID
  2
ACAD_MLEADERVER
 70
     0
  0
APPID
  2
ACAD_EXEMPT_FROM_CAD_STANDARDS
 70
     0
  0
APPID
  2
ACAD_NAV_VCDISPLAY
 70
     0
  0
APPID
  2
ACAD_DSTYLE_DIMJAG
 70
     0
  0
APPID
  2
ACAD_DSTYLE_DIMTALN
 70
     0
  0
APPID
  2
ACAECLAYERSTANDARD
 70
     0
  0
APPID
  2
ACCMTRANSPARENCY
 70
     0
  0
APPID
  2
ACAD_DSTYLE_DIMRADIAL_EXTENSION
 70
     0
  0
APPID
  2
ACDBATTR
 70
     0
  0
ENDTAB
  0
TABLE
  2
DIMSTYLE
 70
     1
  0
DIMSTYLE
  2
STANDARD
 70
     0
  3

  4

  5

  6

  7

 40
1.0
 41
0.1875
 42
0.0625
 43
0.38
 44
0.125
 45
0.0
 46
0.0
 47
0.01
 48
0.01
140
0.15625
141
0.09
142
0.0
143
25.399999999999999
144
1.0
145
0.0
146
1.0
147
0.09
 71
     1
 72
     0
 73
     1
 74
     1
 75
     0
 76
     0
 77
     0
 78
     4
170
     0
171
     2
172
     0
173
     0
174
     0
175
     0
176
     0
177
     0
178
     0
  0
ENDTAB
  0
ENDSEC
  0
SECTION
  2
BLOCKS
  0
BLOCK
  8
0
  2
$MODEL_SPACE
 70
     0
 10
0.0
 20
0.0
 30
0.0
  3
$MODEL_SPACE
  1

  0
ENDBLK
  5
21
  8
0
  0
BLOCK
 67
     1
  8
0
  2
$PAPER_SPACE
 70
     0
 10
0.0
 20
0.0
 30
0.0
  3
$PAPER_SPACE
  1

  0
ENDBLK
  5
1D
 67
     1
  8
0
  0
ENDSEC
  0
SECTION
  2
ENTITIES
  0
LINE
  5
11C9
  8
0
 10
124.77553549888999
 20
42.484143044600003
 30
0.0
 11
126.21553549889001
 21
43.924143044599987
 31
0.0
  0
LINE
  5
11CA
  8
0
 10
126.21553549889001
 20
43.924143044599987
 30
0.0
 11
155.27553549889001
 21
43.924143044599987
 31
0.0
  0
LINE
  5
11CB
  8
0
 10
155.27553549889001
 20
43.924143044599987
 30
0.0
 11
156.71553549889001
 21
42.484143044600003
 31
0.0
  0
LINE
  5
11CC
  8
0
 10
156.71553549889001
 20
42.484143044600003
 30
0.0
 11
156.71553549889001
 21
27.2341430446
 31
0.0
  0
LINE
  5
11CD
  8
0
 10
156.71553549889001
 20
27.2341430446
 30
0.0
 11
155.27553549889001
 21
25.794143044599998
 31
0.0
  0
LINE
  5
11CE
  8
0
 10
155.27553549889001
 20
25.794143044599998
 30
0.0
 11
126.21553549889001
 21
25.794143044599998
 31
0.0
  0
LINE
  5
11CF
  8
0
 10
126.21553549889001
 20
25.794143044599998
 30
0.0
 11
124.77553549888999
 21
27.2341430446
 31
0.0
  0
LINE
  5
11D0
  8
0
 10
124.77553549888999
 20
27.2341430446
 30
0.0
 11
124.77553549888999
 21
42.48414304460001
 31
0.0
  0
LINE
  5
11D1
  8
0
 10
128.98244287059001
 20
42.715994652399999
 30
0.0
 11
137.10862995138999
 21
42.715994849099999
 31
0.0
  0
ARC
  5
11D2
  8
0
 10
137.1129659476957
 20
39.726573508692113
 30
0.0
 40
2.9894244849720022
 50
359.91709649966077
 51
90.083104415803788
  0
ARC
  5
11D3
  8
0
 10
128.9781047250118
 20
39.726573624706063
 30
0.0
 40
2.9894241753765498
 50
89.916854382248033
 51
180.08310693901899
  0
LINE
  5
11D4
  8
0
 10
125.98868369439001
 20
39.722237497199998
 30
0.0
 11
125.98868389109001
 21
29.996050407399999
 31
0.0
  0
LINE
  5
11D5
  8
0
 10
128.98244109921191
 20
27.002291240200002
 30
0.0
 11
137.10864044949
 21
27.002291240200002
 31
0.0
  0
LINE
  5
11D6
  8
0
 10
140.10238730328999
 20
29.996048592099999
 30
0.0
 11
140.10238730328999
 21
39.722247995199993
 31
0.0
  0
ARC
  5
11D7
  8
0
 10
128.97810491872349
 20
29.991712270671709
 30
0.0
 40
2.9894241753032968
 50
179.91685455186541
 51
270.08310795448961
  0
ARC
  5
11D8
  8
0
 10
137.11296596302239
 20
29.991712595654111
 30
0.0
 40
2.9894244848318912
 50
269.9170964988848
 51
0.0831044184935101
  0
CIRCLE
  5
11D9
  8
0
 10
133.04553549888999
 20
34.859143044600003
 30
0.0
 40
0.31
  0
CIRCLE
  5
11DA
  8
0
 10
133.04553549888999
 20
34.859143044600003
 30
0.0
 40
0.2760925586
  0
CIRCLE
  5
11DB
  8
0
 10
133.04553549888999
 20
34.859143044600003
 30
0.0
 40
2.25
  0
CIRCLE
  5
11DC
  8
0
 10
133.04553549888999
 20
34.859143044600003
 30
0.0
 40
1.6780895467000001
  0
LINE
  5
11DD
  8
0
 10
144.38244287059001
 20
42.715994652399999
 30
0.0
 11
152.50862995138999
 21
42.715994849099999
 31
0.0
  0
ARC
  5
11DE
  8
0
 10
152.5129659476957
 20
39.726573508692113
 30
0.0
 40
2.9894244849720022
 50
359.91709649966077
 51
90.083104415803788
  0
ARC
  5
11DF
  8
0
 10
144.37810472501181
 20
39.726573624706063
 30
0.0
 40
2.9894241753765498
 50
89.916854382249667
 51
180.08310693901899
  0
LINE
  5
11E0
  8
0
 10
141.38868369439001
 20
39.722237497199998
 30
0.0
 11
141.38868389109001
 21
29.996050407399999
 31
0.0
  0
LINE
  5
11E1
  8
0
 10
144.38244109921189
 20
27.002291240200002
 30
0.0
 11
152.50864044949
 21
27.002291240200002
 31
0.0
  0
LINE
  5
11E2
  8
0
 10
155.50238730328999
 20
29.996048592099999
 30
0.0
 11
155.50238730328999
 21
39.722247995199993
 31
0.0
  0
ARC
  5
11E3
  8
0
 10
144.37810491872361
 20
29.991712270671709
 30
0.0
 40
2.9894241753032968
 50
179.91685455186541
 51
270.0831079544879
  0
ARC
  5
11E4
  8
0
 10
152.5129659630224
 20
29.991712595654111
 30
0.0
 40
2.9894244848318912
 50
269.9170964988848
 51
0.0831044184935103
  0
CIRCLE
  5
11E5
  8
0
 10
148.44553549889
 20
34.859143044600003
 30
0.0
 40
0.31
  0
CIRCLE
  5
11E6
  8
0
 10
148.44553549889
 20
34.859143044600003
 30
0.0
 40
0.2760925586
  0
CIRCLE
  5
11E7
  8
0
 10
148.44553549889
 20
34.859143044600003
 30
0.0
 40
2.25
  0
CIRCLE
  5
11E8
  8
0
 10
148.44553549889
 20
34.859143044600003
 30
0.0
 40
1.6780895467000001
  0
ATTDEF
  5
1460
  8
DEFPOINTS
 10
140.7429721551039
 20
34.864617923663928
 30
0.0
 40
0.001
  1
11445
  3

  2
MODELNUMBER
 70
     0
1001
ACDBATTR
1070
     0
1070
     1
  0
ATTDEF
  5
1461
  8
DEFPOINTS
 10
140.7429721551039
 20
34.862951256997263
 30
0.0
 40
0.001
  1
CARTHAGE
  3

  2
TRADENAME
 70
     0
1001
ACDBATTR
1070
     0
1070
     1
  0
ATTDEF
  5
1462
  8
DEFPOINTS
 10
140.7429721551039
 20
34.861284590330598
 30
0.0
 40
0.001
  1
KITCHEN SINK
  3

  2
PRODUCT
 70
     0
1001
ACDBATTR
1070
     0
1070
     1
  0
ATTDEF
  5
1463
  8
DEFPOINTS
 10
140.7429721551039
 20
34.859617923663933
 30
0.0
 40
0.001
  1
STAINLESS STEEL
  3

  2
MATERIAL
 70
     0
1001
ACDBATTR
1070
     0
1070
     1
  0
ENDSEC
  0
EOF
