  0
SECTION
  2
HEADER
  9
$ACADVER
  1
AC1009
  9
$INSBASE
 10
3017.8477512454578573
 20
162.6574951602468957
 30
0.0
  9
$EXTMIN
 10
2989.1484427240520745
 20
162.6574951602468957
 30
0.0
  9
$EXTMAX
 10
3017.8544960968101805
 20
184.1478226919591066
 30
0.0
  9
$LIMMIN
 10
0.0
 20
0.0
  9
$LIMMAX
 10
11.6929133858000007
 20
8.2677165353999982
  9
$ORTHOMODE
 70
     1
  9
$REGENMODE
 70
     1
  9
$FILLMODE
 70
     1
  9
$QTEXTMODE
 70
     0
  9
$MIRRTEXT
 70
     0
  9
$DRAGMODE
 70
     2
  9
$LTSCALE
 40
0.6431102362
  9
$OSMODE
 70
  4095
  9
$ATTMODE
 70
     1
  9
$TEXTSIZE
 40
0.2
  9
$TRACEWID
 40
0.05
  9
$TEXTSTYLE
  7
STANDARD
  9
$CLAYER
  8
0
  9
$CELTYPE
  6
BYLAYER
  9
$CECOLOR
 62
   256
  9
$DIMSCALE
 40
1.0
  9
$DIMASZ
 40
0.1875
  9
$DIMEXO
 40
0.0625
  9
$DIMDLI
 40
0.4443307087
  9
$DIMRND
 40
0.0
  9
$DIMDLE
 40
0.0
  9
$DIMEXE
 40
0.125
  9
$DIMTP
 40
0.01
  9
$DIMTM
 40
0.01
  9
$DIMTXT
 40
2.0
  9
$DIMCEN
 40
0.1052362205
  9
$DIMTSZ
 40
0.0
  9
$DIMTOL
 70
     1
  9
$DIMLIM
 70
     0
  9
$DIMTIH
 70
     1
  9
$DIMTOH
 70
     1
  9
$DIMSE1
 70
     0
  9
$DIMSE2
 70
     0
  9
$DIMTAD
 70
     0
  9
$DIMZIN
 70
     0
  9
$DIMBLK
  1

  9
$DIMASO
 70
     1
  9
$DIMSHO
 70
     1
  9
$DIMPOST
  1
\X
  9
$DIMAPOST
  1

  9
$DIMALT
 70
     1
  9
$DIMALTD
 70
     2
  9
$DIMALTF
 40
25.3999999999999986
  9
$DIMLFAC
 40
1.0
  9
$DIMTOFL
 70
     0
  9
$DIMTVP
 40
0.0
  9
$DIMTIX
 70
     0
  9
$DIMSOXD
 70
     0
  9
$DIMSAH
 70
     0
  9
$DIMBLK1
  1

  9
$DIMBLK2
  1

  9
$DIMSTYLE
  2
STANDARD
  9
$DIMCLRD
 70
     0
  9
$DIMCLRE
 70
     0
  9
$DIMCLRT
 70
     0
  9
$DIMTFAC
 40
1.0
  9
$DIMGAP
 40
0.09
  9
$LUNITS
 70
     2
  9
$LUPREC
 70
     4
  9
$SKETCHINC
 40
0.1
  9
$FILLETRAD
 40
0.0
  9
$AUNITS
 70
     0
  9
$AUPREC
 70
     0
  9
$MENU
  1
.
  9
$ELEVATION
 40
0.0
  9
$PELEVATION
 40
0.0
  9
$THICKNESS
 40
0.0
  9
$LIMCHECK
 70
     0
  9
$BLIPMODE
 70
     0
  9
$CHAMFERA
 40
0.0
  9
$CHAMFERB
 40
0.0
  9
$SKPOLY
 70
     0
  9
$TDCREATE
 40
2458060.468368056230247
  9
$TDUPDATE
 40
2458757.8989930548705161
  9
$TDINDWG
 40
0.3103542824
  9
$TDUSRTIMER
 40
0.3103542824
  9
$USRTIMER
 70
     1
  9
$ANGBASE
 50
0.0
  9
$ANGDIR
 70
     0
  9
$PDMODE
 70
     0
  9
$PDSIZE
 40
0.3125
  9
$PLINEWID
 40
0.0
  9
$COORDS
 70
     1
  9
$SPLFRAME
 70
     0
  9
$SPLINETYPE
 70
     6
  9
$SPLINESEGS
 70
     8
  9
$ATTDIA
 70
     1
  9
$ATTREQ
 70
     1
  9
$HANDLING
 70
     1
  9
$HANDSEED
  5
68BB
  9
$SURFTAB1
 70
     6
  9
$SURFTAB2
 70
     6
  9
$SURFTYPE
 70
     6
  9
$SURFU
 70
     6
  9
$SURFV
 70
     6
  9
$UCSNAME
  2

  9
$UCSORG
 10
0.0
 20
0.0
 30
0.0
  9
$UCSXDIR
 10
1.0
 20
0.0
 30
0.0
  9
$UCSYDIR
 10
0.0
 20
1.0
 30
0.0
  9
$PUCSNAME
  2

  9
$PUCSORG
 10
0.0
 20
0.0
 30
0.0
  9
$PUCSXDIR
 10
1.0
 20
0.0
 30
0.0
  9
$PUCSYDIR
 10
0.0
 20
1.0
 30
0.0
  9
$USERI1
 70
     0
  9
$USERI2
 70
     0
  9
$USERI3
 70
     0
  9
$USERI4
 70
     0
  9
$USERI5
 70
     0
  9
$USERR1
 40
0.0
  9
$USERR2
 40
0.0
  9
$USERR3
 40
0.0
  9
$USERR4
 40
0.0
  9
$USERR5
 40
0.0
  9
$WORLDVIEW
 70
     1
  9
$SHADEDGE
 70
     3
  9
$SHADEDIF
 70
    70
  9
$TILEMODE
 70
     1
  9
$MAXACTVP
 70
    64
  9
$PLIMCHECK
 70
     0
  9
$PEXTMIN
 10
1.0000000000000000E+20
 20
1.0000000000000000E+20
 30
1.0000000000000000E+20
  9
$PEXTMAX
 10
-1.0000000000000000E+20
 20
-1.0000000000000000E+20
 30
-1.0000000000000000E+20
  9
$PLIMMIN
 10
0.0
 20
0.0
  9
$PLIMMAX
 10
12.0
 20
9.0
  9
$UNITMODE
 70
     0
  9
$VISRETAIN
 70
     1
  9
$PLINEGEN
 70
     0
  9
$PSLTSCALE
 70
     1
  0
ENDSEC
  0
SECTION
  2
TABLES
  0
TABLE
  2
VPORT
 70
     1
  0
VPORT
  2
*ACTIVE
 70
     0
 10
0.0
 20
0.0
 11
1.0
 21
1.0
 12
0.0
 22
0.0
 13
0.0
 23
0.0
 14
1.0
 24
1.0
 15
0.0
 25
0.0
 16
0.0
 26
0.0
 36
102.7306896348203935
 17
3003.5014667985619781
 27
173.4026184082030966
 37
0.0
 40
35.8723392454964909
 41
2.1481900452488678
 42
50.0
 43
0.0
 44
0.0
 50
0.0
 51
0.0
 71
     0
 72
   100
 73
     1
 74
     1
 75
     0
 76
     0
 77
     0
 78
     0
  0
ENDTAB
  0
TABLE
  2
LTYPE
 70
     2
  0
LTYPE
  2
CONTINUOUS
 70
     0
  3
Solid line
 72
    65
 73
     0
 40
0.0
  0
LTYPE
  2
PHANTOM2
 70
     0
  3
___ _ _ ___ _ _ ___ _ _ ___ _ _
 72
    65
 73
     6
 40
1.25
 49
0.625
 49
-0.125
 49
0.125
 49
-0.125
 49
0.125
 49
-0.125
  0
ENDTAB
  0
TABLE
  2
LAYER
 70
     2
  0
LAYER
  2
0
 70
     0
 62
   255
  6
CONTINUOUS
  0
LAYER
  2
DEFPOINTS
 70
     0
 62
     7
  6
CONTINUOUS
  0
ENDTAB
  0
TABLE
  2
STYLE
 70
     1
  0
STYLE
  2
STANDARD
 70
     0
 40
0.0
 41
0.8
 50
0.0
 71
     0
 42
0.2
  3
txt
  4

  0
ENDTAB
  0
TABLE
  2
VIEW
 70
     0
  0
ENDTAB
  0
TABLE
  2
UCS
 70
     0
  0
ENDTAB
  0
TABLE
  2
APPID
 70
     9
  0
APPID
  2
ACAD
 70
     0
  0
APPID
  2
ACAD_MLEADERVER
 70
     0
  0
APPID
  2
ACAD_EXEMPT_FROM_CAD_STANDARDS
 70
     0
  0
APPID
  2
ACAD_NAV_VCDISPLAY
 70
     0
  0
APPID
  2
ACAECLAYERSTANDARD
 70
     0
  0
APPID
  2
ACCMTRANSPARENCY
 70
     0
  0
APPID
  2
ACAD_DSTYLE_DIMJAG
 70
     0
  0
APPID
  2
ACAD_DSTYLE_DIMTALN
 70
     0
  0
APPID
  2
ACDBATTR
 70
     0
  0
ENDTAB
  0
TABLE
  2
DIMSTYLE
 70
     1
  0
DIMSTYLE
  2
STANDARD
 70
     0
  3

  4

  5

  6

  7

 40
1.0
 41
0.1875
 42
0.0625
 43
0.38
 44
0.125
 45
0.0
 46
0.0
 47
0.01
 48
0.01
140
0.15625
141
0.09
142
0.0
143
25.3999999999999986
144
1.0
145
0.0
146
1.0
147
0.09
 71
     1
 72
     0
 73
     1
 74
     1
 75
     0
 76
     0
 77
     0
 78
     4
170
     0
171
     2
172
     0
173
     0
174
     0
175
     0
176
     0
177
     0
178
     0
  0
ENDTAB
  0
ENDSEC
  0
SECTION
  2
BLOCKS
  0
BLOCK
  8
0
  2
$MODEL_SPACE
 70
     0
 10
0.0
 20
0.0
 30
0.0
  3
$MODEL_SPACE
  1

  0
ENDBLK
  5
21
  8
0
  0
BLOCK
 67
     1
  8
0
  2
$PAPER_SPACE
 70
     0
 10
0.0
 20
0.0
 30
0.0
  3
$PAPER_SPACE
  1

  0
ENDBLK
  5
1D
 67
     1
  8
0
  0
ENDSEC
  0
SECTION
  2
ENTITIES
  0
ATTDEF
  5
3930
  8
DEFPOINTS
 10
3017.843829430140886
 20
162.668070255474106
 30
0.0
 40
0.001
  1
K-77795
  3

  2
MODELNUMBER
 70
     0
1001
ACDBATTR
1070
     0
1070
     1
  0
ATTDEF
  5
3931
  8
DEFPOINTS
 10
3017.843829430140886
 20
162.6664035888074125
 30
0.0
 40
0.001
  1
EIR
  3

  2
TRADENAME
 70
     0
1001
ACDBATTR
1070
     0
1070
     1
  0
ATTDEF
  5
3932
  8
DEFPOINTS
 10
3017.843829430140886
 20
162.6647369221408042
 30
0.0
 40
0.001
  1
TOILET
  3

  2
PRODUCT
 70
     0
1001
ACDBATTR
1070
     0
1070
     1
  0
LINE
  5
67B7
  8
0
 10
2989.1484427240520745
 20
180.0412826628468963
 30
0.0
 11
2989.1484427240520745
 21
180.1760963681898886
 31
0.0
  0
LINE
  5
67B8
  8
0
 10
2991.6024296199589116
 20
163.5630069712468924
 30
0.0
 11
2991.6024296199589116
 21
162.6574951602468957
 31
0.0
  0
LINE
  5
67B9
  8
0
 10
2993.7632445268591255
 20
179.0592215084469103
 30
0.0
 11
2993.8149860971589078
 21
179.1109620834469069
 31
0.0
  0
LINE
  5
67BA
  8
0
 10
2992.4359407476581509
 20
179.1335539938469026
 30
0.0
 11
2992.4359407476581509
 21
179.1227731071469123
 31
0.0
  0
LINE
  5
67BB
  8
0
 10
2989.449670680059171
 20
179.1469577261468942
 30
0.0
 11
2989.1484427240520745
 21
180.0412826628468963
 31
0.0
  0
LINE
  5
67BC
  8
0
 10
2993.8579843953589261
 20
179.1227731071469123
 30
0.0
 11
2993.8579843953589261
 21
179.1335539938469026
 31
0.0
  0
LINE
  5
67BD
  8
0
 10
2991.6024296199589116
 20
162.6574951602468957
 30
0.0
 11
3016.2087288325578811
 21
162.6574951602468957
 31
0.0
  0
LINE
  5
67BE
  8
0
 10
3016.2087288325578811
 20
163.586629018546887
 30
0.0
 11
3012.4493507421589129
 21
163.586629018546887
 31
0.0
  0
LINE
  5
67BF
  8
0
 10
3016.0564130249581467
 20
163.6220620894468993
 30
0.0
 11
3016.6469641204589607
 21
163.6220620894468993
 31
0.0
  0
LINE
  5
67C0
  8
0
 10
3009.3691631273231906
 20
163.6496211445468987
 30
0.0
 11
3010.7047073912672204
 21
163.6496211445468987
 31
0.0
  0
LINE
  5
67C1
  8
0
 10
3011.9693417274438616
 20
163.6496211445468987
 30
0.0
 11
3013.7509785470579118
 21
163.6496211445468987
 31
0.0
  0
LINE
  5
67C2
  8
0
 10
3013.7509785470579118
 20
163.6496211445468987
 30
0.0
 11
3016.1050428573012141
 21
163.6496211445254119
 31
0.0
  0
LINE
  5
67C3
  8
0
 10
3016.6015761564221975
 20
164.3504085461468947
 30
0.0
 11
3016.6213963302589036
 21
164.3504085461468947
 31
0.0
  0
LINE
  5
67C4
  8
0
 10
3009.2897358074578733
 20
163.6253720750468972
 30
0.0
 11
3010.6700476126738977
 21
163.6243397148201097
 31
0.0
  0
LINE
  5
67C5
  8
0
 10
3016.648000505058917
 20
163.7485386182468972
 30
0.0
 11
3016.6049577956591747
 21
163.7507943911469113
 31
0.0
  0
LINE
  5
67C6
  8
0
 10
2992.4791534665750987
 20
179.1109620834469069
 30
0.0
 11
2992.530895154593054
 21
179.0592213908144004
 31
0.0
  0
LINE
  5
67C7
  8
0
 10
3009.2945189634419876
 20
163.7243548572039913
 30
0.0
 11
3009.3819450751589102
 21
163.6368194218468943
 31
0.0
  0
LINE
  5
67C8
  8
0
 10
3008.2745566823577974
 20
183.2061260259469009
 30
0.0
 11
3008.2745566823577974
 21
183.0923864145655955
 31
0.0
  0
LINE
  5
67C9
  8
0
 10
3008.6146454458589687
 20
179.1335539938469026
 30
0.0
 11
3008.6146454458589687
 21
179.0333608455468948
 31
0.0
  0
LINE
  5
67CA
  8
0
 10
3009.0768159954582188
 20
163.5630069712468924
 30
0.0
 11
3009.0769552331598788
 21
163.7245423892894109
 31
0.0
  0
LINE
  5
67CB
  8
0
 10
3008.8537649155841791
 20
179.0479049321469063
 30
0.0
 11
3008.8539821570120694
 21
179.0820655502402872
 31
0.0
  0
LINE
  5
67CC
  8
0
 10
3009.467701016258161
 20
163.6496211445468987
 30
0.0
 11
3009.4676633713252158
 21
163.6252389997956982
 31
0.0
  0
LINE
  5
67CD
  8
0
 10
3010.707323011858989
 20
163.7029920364468865
 30
0.0
 11
3010.7072925833581394
 21
163.6636219695469094
 31
0.0
  0
LINE
  5
67CE
  8
0
 10
3016.6588033987118251
 20
178.877967601246894
 30
0.0
 11
3016.5524058226737907
 21
178.8784726268191037
 31
0.0
  0
LINE
  5
67CF
  8
0
 10
3016.5530546449658686
 20
179.0061929597978008
 30
0.0
 11
3016.6666492454592117
 21
179.0061431475469078
 31
0.0
  0
LINE
  5
67D0
  8
0
 10
2993.7075796837589223
 20
179.0361589338469059
 30
0.0
 11
2992.5865598800578482
 21
179.0361589338469059
 31
0.0
  0
LINE
  5
67D1
  8
0
 10
3001.7129603078578839
 20
179.0952140519468969
 30
0.0
 11
3002.8803363930578598
 21
179.0952140519468969
 31
0.0
  0
LINE
  5
67D2
  8
0
 10
2992.4477319823581638
 20
179.1109620834469069
 30
0.0
 11
2993.8460937777581421
 21
179.1109620834469069
 31
0.0
  0
LINE
  5
67D3
  8
0
 10
3012.4493507421589129
 20
163.5630069712468924
 30
0.0
 11
3012.4493507421589129
 21
163.586629018546887
 31
0.0
  0
LINE
  5
67D4
  8
0
 10
3011.967165092858977
 20
163.7020183408469052
 30
0.0
 11
3011.9671346643581273
 21
163.6626482739468997
 31
0.0
  0
LINE
  5
67D5
  8
0
 10
3012.5386523194588335
 20
163.6496211445468987
 30
0.0
 11
3012.5386523194588335
 21
163.586629018546887
 31
0.0
  0
LINE
  5
67D6
  8
0
 10
3012.4204196938499081
 20
163.6229411376554026
 30
0.0
 11
3012.4204178028589922
 21
163.6496211445468987
 31
0.0
  0
LINE
  5
67D7
  8
0
 10
3012.1164986959579437
 20
163.644841370246894
 30
0.0
 11
3012.1188932650989045
 21
163.6496211445468987
 31
0.0
  0
LINE
  5
67D8
  8
0
 10
3016.5482956012588147
 20
181.7939138839469138
 30
0.0
 11
3016.4421487567769873
 21
181.7939138839469138
 31
0.0
  0
LINE
  5
67D9
  8
0
 10
3016.6434299567440576
 20
181.8557271714468868
 30
0.0
 11
3016.5109619303420914
 21
181.8557271714468868
 31
0.0
  0
LINE
  5
67DA
  8
0
 10
3016.6205679628587859
 20
163.8189921387468928
 30
0.0
 11
3016.6137780451549588
 21
164.3504085461468947
 31
0.0
  0
LINE
  5
67DB
  8
0
 10
3016.6666492454592117
 20
179.0061431475469078
 30
0.0
 11
3016.6666492454592117
 21
181.8360344105599893
 31
0.0
  0
LINE
  5
67DC
  8
0
 10
3016.3346499830631728
 20
181.5975533453083131
 30
0.0
 11
3016.3342931913489338
 21
181.6991496076126964
 31
0.0
  0
LINE
  5
67DD
  8
0
 10
3016.2087288325578811
 20
163.586629018546887
 30
0.0
 11
3016.2087288325578811
 21
162.6574951602468957
 31
0.0
  0
LINE
  5
67DE
  8
0
 10
3016.6075941273588796
 20
164.3021067457468973
 30
0.0
 11
3016.6075941273588796
 21
164.2541637093468978
 31
0.0
  0
LINE
  5
67DF
  8
0
 10
3016.6603773216588706
 20
164.3897736663469118
 30
0.0
 11
3016.6603745398588217
 21
164.4131763324213011
 31
0.0
  0
LINE
  5
67E0
  8
0
 10
3016.6666492454592117
 20
163.7288805708469113
 30
0.0
 11
3016.6666492454592117
 21
163.6417471016468994
 31
0.0
  0
LINE
  5
67E1
  8
0
 10
3015.8992652038468805
 20
163.6496211445272877
 30
0.0
 11
3015.8991557259578258
 21
163.586629018546887
 31
0.0
  0
LINE
  5
67E2
  8
0
 10
3016.6075941273588796
 20
164.2541637093468978
 30
0.0
 11
3016.6008671271961248
 21
164.2224290182317077
 31
0.0
  0
LINE
  5
67E3
  8
0
 10
3016.6215142735691188
 20
164.3725782945539891
 30
0.0
 11
3016.6666492454592117
 21
164.4197315807469124
 31
0.0
  0
ARC
  5
67E4
  8
0
 10
3009.3028990521229389
 20
163.7482345210817982
 30
0.0
 40
0.2103471870149026
 50
186.4711475049558089
 51
241.7124215376138068
  0
ARC
  5
67E5
  8
0
 10
3009.2972403348198895
 20
163.7521888891454864
 30
0.0
 40
0.1270386647869252
 50
192.6078053174227023
 51
266.6134073201141064
  0
ARC
  5
67E6
  8
0
 10
3009.8069250277799256
 20
163.6640757248883915
 30
0.0
 40
0.0391222059747586
 50
201.6830904012319081
 51
267.6485936527121225
  0
ARC
  5
67E7
  8
0
 10
3010.6679225163588853
 20
163.6636523980469065
 30
0.0
 40
0.0393700787
 50
273.0941836314747775
 51
359.9557170676999931
  0
ARC
  5
67E8
  8
0
 10
3015.2475426621490442
 20
164.3688026510195073
 30
0.0
 40
1.3739767991030729
 50
359.232930234809487
 51
0.1574471358426095
  0
ARC
  5
67E9
  8
0
 10
3016.4107437336579096
 20
164.3021067457468973
 30
0.0
 40
0.1968503937
 50
0.0
 51
16.6969811847830307
  0
ARC
  5
67EA
  8
0
 10
3012.0761749574107853
 20
163.6666161797809877
 30
0.0
 40
0.0458273523209469
 50
288.6859886152004151
 51
331.6309639178334123
  0
ARC
  5
67EB
  8
0
 10
3012.0064636166498531
 20
163.6626008524939948
 30
0.0
 40
0.0393289808222223
 50
179.930914730814095
 51
270.0155961325276053
  0
ARC
  5
67EC
  8
0
 10
3016.6451000266029041
 20
163.72711240774251
 30
0.0
 40
0.0216216380977981
 50
4.690742804456522
 51
82.2907005570560841
  0
ARC
  5
67ED
  8
0
 10
3016.6452678127620857
 20
163.6434435318639942
 30
0.0
 40
0.0214486255884886
 50
274.536089062679082
 51
355.4635826192435957
  0
CIRCLE
  5
67EE
  8
0
 10
3009.6879337312589087
 20
180.6181646317469074
 30
0.0
 40
0.2362204724
  0
ARC
  5
67EF
  8
0
 10
3016.6420875317107857
 20
181.8306092990914067
 30
0.0
 40
0.0251537197375233
 50
12.4553246064887606
 51
86.9407368572468755
  0
ARC
  5
67F0
  8
0
 10
3897.9543135232929671
 20
174.4647920422216032
 30
0.0
 40
881.4129585356635062
 50
179.5242899005694994
 51
180.6934597947362988
  0
LINE
  5
67F1
  8
0
 10
3008.7205153919589975
 20
179.1483106239469123
 30
0.0
 11
3008.7353197170577914
 21
180.0412826628468963
 31
0.0
  0
LINE
  5
67F2
  8
0
 10
3016.6666492454592117
 20
181.9997266616420859
 30
0.0
 11
3016.6666492454592117
 21
183.4233970448468938
 31
0.0
  0
LINE
  5
67F3
  8
0
 10
3008.7474267171592146
 20
179.0931225134469003
 30
0.0
 11
3008.7593252268588913
 21
179.0930158556469109
 31
0.0
  0
LINE
  5
67F4
  8
0
 10
3008.7835025110589413
 20
180.618066195768904
 30
0.0
 11
3008.7724876797578872
 21
179.0961213408469064
 31
0.0
  0
LINE
  5
67F5
  8
0
 10
3008.7387917329579068
 20
163.7642357926469003
 30
0.0
 11
3008.7494529539590076
 21
179.0085940639469015
 31
0.0
  0
LINE
  5
67F6
  8
0
 10
3016.6213963302589036
 20
164.3504085461468947
 30
0.0
 11
3016.6603773216588706
 21
164.3897736663469118
 31
0.0
  0
LINE
  5
67F7
  8
0
 10
3016.2087288325578811
 20
163.5630069712468924
 30
0.0
 11
2991.418013110298034
 21
163.5630069712468924
 31
0.0
  0
LINE
  5
67F8
  8
0
 10
2989.6958474310467864
 20
179.0333608455468948
 30
0.0
 11
3008.7582494669359221
 21
179.0333608455468948
 31
0.0
  0
LINE
  5
67F9
  8
0
 10
2989.4683114555441534
 20
179.1335539938469026
 30
0.0
 11
3008.7080035035442052
 21
179.1335539938469026
 31
0.0
  0
LINE
  5
67FA
  8
0
 10
2989.1484427240520745
 20
180.0412826628468963
 30
0.0
 11
3008.7353197170577914
 21
180.0412826628468963
 31
0.0
  0
ARC
  5
67FB
  8
0
 10
2950.8602058719120578
 20
166.3662859841053887
 30
0.0
 40
40.6545704836494366
 50
356.0461122844226907
 51
17.8539131809352298
  0
ARC
  5
67FC
  8
0
 10
2989.7075281614120286
 20
178.8763749811103025
 30
0.0
 40
0.1574198243385587
 50
94.255323077051699
 51
196.8991363299612942
  0
ARC
  5
67FD
  8
0
 10
2989.4683347301579488
 20
179.153250234125295
 30
0.0
 40
0.0196962540288286
 50
198.6313230549226887
 51
269.9322975295805804
  0
ARC
  5
67FE
  8
0
 10
2989.2693267451240899
 20
180.1512216225324892
 30
0.0
 40
0.123416771640218
 50
92.2717572462381668
 51
168.3723413515212997
  0
ARC
  5
67FF
  8
0
 10
2987.3400742312142029
 20
280.7710840353477124
 30
0.0
 40
100.5149652806998972
 50
271.0969954918277267
 51
273.3683363954654055
  0
ARC
  5
6800
  8
0
 10
2990.1939088854978763
 20
238.7398925133927889
 30
0.0
 40
58.3899409855774607
 50
272.9960684893878806
 51
287.9721788854217834
  0
ARC
  5
6801
  8
0
 10
3008.2138934748209067
 20
183.1874678371733864
 30
0.0
 40
0.0120458210954534
 50
26.8759808870255306
 51
106.7292911322788029
  0
LINE
  5
6802
  8
0
 10
3008.7353197170577914
 20
181.3760045837246082
 30
0.0
 11
3008.7353197170577914
 21
179.1049202188457912
 31
0.0
  0
ARC
  5
6803
  8
0
 10
3008.7476786170509513
 20
179.1054920718995902
 30
0.0
 40
0.0123721230947268
 50
182.6492174208565871
 51
268.8333612659404253
  0
ARC
  5
6804
  8
0
 10
3003.9667321178430939
 20
181.0159131980852862
 30
0.0
 40
4.7821641018895731
 50
4.318392842259299
 51
27.0799426332868514
  0
ARC
  5
6805
  8
0
 10
3008.2887739751067784
 20
183.2042938008771955
 30
0.0
 40
0.0143348687408222
 50
112.6187356765576055
 51
172.6565965936574116
  0
ARC
  5
6806
  8
0
 10
3013.1071596884989958
 20
171.1759102343168024
 30
0.0
 40
12.9719124576423592
 50
74.9567593433109067
 51
111.8311520582549008
  0
ARC
  5
6807
  8
0
 10
3016.3195101241058182
 20
183.390691726473591
 30
0.0
 40
0.3486763648768892
 50
5.3821698653466941
 51
63.7010323715163125
  0
ARC
  5
6808
  8
0
 10
3016.644740199773878
 20
182.0115674559953902
 30
0.0
 40
0.0249040296686892
 50
295.5310437337213898
 51
331.6108928821936956
  0
ARC
  5
6809
  8
0
 10
3009.295763973971134
 20
189.8187820663630987
 30
0.0
 40
10.7456653962924999
 50
280.745210589466808
 51
313.227769819053492
  0
ARC
  5
680A
  8
0
 10
3009.2090467222737971
 20
190.992148835512296
 30
0.0
 40
11.9153747195637596
 50
267.9540325189157102
 51
280.1029275946941084
  0
ARC
  5
680B
  8
0
 10
3008.7584034209758101
 20
179.0640166215063118
 30
0.0
 40
0.0290138812781508
 50
58.0384259408397511
 51
88.179337830843977
  0
ARC
  5
680C
  8
0
 10
3008.7860777527707796
 20
179.1036055139728944
 30
0.0
 40
0.0193876966275852
 50
230.5622821411315897
 51
262.8141682369952719
  0
ARC
  5
680D
  8
0
 10
3008.7887896519559945
 20
179.0085682342383109
 30
0.0
 40
0.0393367064777208
 50
89.9621813215804167
 51
179.9623778010692945
  0
LINE
  5
680E
  8
0
 10
3008.7888156165581677
 20
179.0479049321469063
 30
0.0
 11
3009.6490578327229741
 21
179.0479049321469063
 31
0.0
  0
ARC
  5
680F
  8
0
 10
3009.4433985306659451
 20
189.4882016520386969
 30
0.0
 40
10.4423221243124793
 50
271.1285010925304277
 51
280.304136269331309
  0
ARC
  5
6810
  8
0
 10
3009.3402319825058839
 20
189.8545230947595996
 30
0.0
 40
10.8212491242863091
 50
280.4946288508152179
 51
311.8265872369416911
  0
ARC
  5
6811
  8
0
 10
3016.6577926595241479
 20
178.8691145806272118
 30
0.0
 40
0.0089105312860158
 50
6.3078621116008931
 51
83.4868078063544914
  0
ARC
  5
6812
  8
0
 10
3016.5618288915361518
 20
181.7824115863217003
 30
0.0
 40
0.0099144983332787
 50
2.3722380814753499
 51
121.2299849723741971
  0
ARC
  5
6813
  8
0
 10
3008.7829224092720324
 20
163.768923856684097
 30
0.0
 40
0.0443789875538029
 50
186.063869292511697
 51
263.8541869649724845
  0
LINE
  5
6814
  8
0
 10
3008.7781712348819383
 20
163.7247999303151005
 30
0.0
 11
3016.5862780810589356
 21
163.7180696239468887
 31
0.0
  0
ARC
  5
6815
  8
0
 10
3016.5873864343789137
 20
163.733690806733108
 30
0.0
 40
0.0156604533371547
 50
265.9415541284557207
 51
335.6631864119170245
  0
ARC
  5
6816
  8
0
 10
3016.4796931352948377
 20
163.7563452569868048
 30
0.0
 40
0.1253875881244113
 50
346.5766010837361932
 51
357.462706119127688
  0
ARC
  5
6817
  8
0
 10
3015.9342497502198057
 20
163.7877886280707003
 30
0.0
 40
0.6717275160546528
 50
356.8429362433676033
 51
0.8005094686518512
  0
LINE
  5
6818
  8
0
 10
3016.1050428573012141
 20
163.6496211445254119
 30
0.0
 11
3016.1051022149258642
 21
163.7184843801817067
 31
0.0
  0
ARC
  5
6819
  8
0
 10
3010.8238772509871524
 20
163.7030391612782978
 30
0.0
 40
0.1165542486548494
 50
170.0713864219625862
 51
180.0231656421919126
  0
ARC
  5
681A
  8
0
 10
3011.8490744271221047
 20
163.7021108325537
 30
0.0
 40
0.1180907019574555
 50
359.955124451843119
 51
9.7220191859045535
  0
LINE
  5
681B
  8
0
 10
3010.6700476126738977
 20
163.6243397148201097
 30
0.0
 11
3012.5386316258927764
 21
163.6228466843043066
 31
0.0
  0
LINE
  5
681C
  8
0
 10
3016.0564130249581467
 20
163.6220620894468993
 30
0.0
 11
3016.0564130249581467
 21
163.586629018546887
 31
0.0
  0
ARC
  5
681D
  8
0
 10
3009.4129637419378014
 20
163.6700265557616092
 30
0.0
 40
0.045440856413993
 50
226.9515745031484926
 51
259.9290488592051247
  0
ARC
  5
681E
  8
0
 10
3008.8389781504070015
 20
178.835620610691592
 30
0.0
 40
0.1587873948822983
 50
124.3321676107109965
 51
175.725849227959003
  0
LINE
  5
681F
  8
0
 10
3008.6617047328518311
 20
163.5630069712468924
 30
0.0
 11
3008.680632365657857
 21
178.8474548502468906
 31
0.0
  0
LINE
  5
6820
  8
0
 10
3008.7353197170577914
 20
180.0666678529034925
 30
0.0
 11
3008.7792534272239209
 21
180.0309604013939975
 31
0.0
  0
ARC
  5
6821
  8
0
 10
3007.9140347897491665
 20
167.167337133304386
 30
0.0
 40
12.8926881166794391
 50
86.0812489192786359
 51
86.1520311628597852
  0
ARC
  5
6822
  8
0
 10
3008.9115721323009893
 20
198.5020794982607981
 30
0.0
 40
18.4725647004318887
 50
269.6388769198549085
 51
272.8092821499524803
  0
ARC
  5
6823
  8
0
 10
3009.2654398235658846
 20
189.8156820986841922
 30
0.0
 40
9.7795301071279663
 50
273.2328243552461799
 51
319.1834464106070186
  0
ARC
  5
6824
  8
0
 10
3008.7844741976268779
 20
179.0961371780265097
 30
0.0
 40
0.0119865283316314
 50
180.0757019707037898
 51
239.5820852940348971
  0
ARC
  5
6825
  8
0
 10
3002.3764422596718759
 20
181.0128425994195993
 30
0.0
 40
6.419210969720055
 50
356.4741298722732949
 51
10.1237010718479006
  0
ARC
  5
6826
  8
0
 10
3005.7460048558400558
 20
181.5904168292792065
 30
0.0
 40
3.0006816804827419
 50
10.5762329309699705
 51
32.5780078691257202
  0
ARC
  5
6827
  8
0
 10
2991.6053873316541285
 20
178.4649152959148921
 30
0.0
 40
0.672335613762289
 50
57.7232783343812912
 51
83.9887670828981925
  0
ARC
  5
6828
  8
0
 10
2992.4489571861900004
 20
179.1239764857654961
 30
0.0
 40
0.0130719467615454
 50
185.2820193350925138
 51
264.6219029170846966
  0
ARC
  5
6829
  8
0
 10
2992.5924331622700265
 20
179.1290438305512112
 30
0.0
 40
0.0930704006637841
 50
228.6086599560194941
 51
266.3818997880770212
  0
ARC
  5
682A
  8
0
 10
2993.8451081383159362
 20
179.1238452508546004
 30
0.0
 40
0.012920816056512
 50
274.3749477008162785
 51
355.2402369740266863
  0
ARC
  5
682B
  8
0
 10
2993.704199591627912
 20
179.1230261152047945
 30
0.0
 40
0.0869329179302848
 50
272.2283140580810823
 51
312.7812472469852878
  0
ARC
  5
682C
  8
0
 10
3001.7135032138721726
 20
179.1747923639790088
 30
0.0
 40
0.0795801639406337
 50
211.2115287066760061
 51
269.6091178629998808
  0
ARC
  5
682D
  8
0
 10
3002.8803602987018166
 20
179.1737936518725007
 30
0.0
 40
0.078579603561908
 50
269.9825693638217103
 51
329.1970011611963969
  0
ARC
  5
682E
  8
0
 10
3004.3482828632381825
 20
179.989340113747204
 30
0.0
 40
0.9627939707682616
 50
276.8210447412279223
 51
297.2700376802197866
  0
ARC
  5
682F
  8
0
 10
3005.7696684055090373
 20
179.014628290231002
 30
0.0
 40
0.587505650752334
 50
168.3212103480892949
 51
178.1728204631567962
  0
ARC
  5
6830
  8
0
 10
3008.7047127980349615
 20
179.1490267461211943
 30
0.0
 40
0.0158188117662359
 50
282.0066268603723074
 51
357.4053167524443211
  0
LINE
  5
6831
  8
0
 10
3016.6666492454592117
 20
178.8700935869468935
 30
0.0
 11
3016.6666492454592117
 21
164.4197315807469124
 31
0.0
  0
ARC
  5
6832
  8
0
 10
3016.5474788775618435
 20
181.7784902127202997
 30
0.0
 40
0.0154452799166143
 50
53.3965874758997998
 51
86.9688697095659649
  0
ARC
  5
6833
  8
0
 10
3015.5633944299611358
 20
163.8443729597113077
 30
0.0
 40
1.0574781627684089
 50
354.8897426957556718
 51
358.6246963496907938
  0
ENDSEC
  0
EOF
